  0
SECTION
  2
HEADER
  9
$ACADVER
  1
AC1009
  9
$INSBASE
 10
96.663389529432351
 20
35.583872912099991
 30
0.0
  9
$EXTMIN
 10
84.413389529432351
 20
26.4338729121
 30
0.0
  9
$EXTMAX
 10
108.91338952943229
 20
44.73387291209999
 30
0.0
  9
$LIMMIN
 10
0.0
 20
0.0
  9
$LIMMAX
 10
11.692913385800001
 20
8.2677165353999982
  9
$ORTHOMODE
 70
     0
  9
$REGENMODE
 70
     1
  9
$FILLMODE
 70
     1
  9
$QTEXTMODE
 70
     0
  9
$MIRRTEXT
 70
     0
  9
$DRAGMODE
 70
     2
  9
$LTSCALE
 40
0.6431102362
  9
$OSMODE
 70
  3071
  9
$ATTMODE
 70
     1
  9
$TEXTSIZE
 40
0.2
  9
$TRACEWID
 40
0.05
  9
$TEXTSTYLE
  7
STANDARD
  9
$CLAYER
  8
0
  9
$CELTYPE
  6
BYLAYER
  9
$CECOLOR
 62
   256
  9
$DIMSCALE
 40
1.0
  9
$DIMASZ
 40
0.1875
  9
$DIMEXO
 40
0.0625
  9
$DIMDLI
 40
0.4443307087
  9
$DIMRND
 40
0.0
  9
$DIMDLE
 40
0.0
  9
$DIMEXE
 40
0.125
  9
$DIMTP
 40
0.01
  9
$DIMTM
 40
0.01
  9
$DIMTXT
 40
1.0
  9
$DIMCEN
 40
0.1052362205
  9
$DIMTSZ
 40
0.0
  9
$DIMTOL
 70
     1
  9
$DIMLIM
 70
     0
  9
$DIMTIH
 70
     1
  9
$DIMTOH
 70
     1
  9
$DIMSE1
 70
     0
  9
$DIMSE2
 70
     0
  9
$DIMTAD
 70
     0
  9
$DIMZIN
 70
     0
  9
$DIMBLK
  1

  9
$DIMASO
 70
     1
  9
$DIMSHO
 70
     1
  9
$DIMPOST
  1
\X
  9
$DIMAPOST
  1

  9
$DIMALT
 70
     1
  9
$DIMALTD
 70
     2
  9
$DIMALTF
 40
25.399999999999999
  9
$DIMLFAC
 40
1.0
  9
$DIMTOFL
 70
     0
  9
$DIMTVP
 40
0.0
  9
$DIMTIX
 70
     0
  9
$DIMSOXD
 70
     0
  9
$DIMSAH
 70
     0
  9
$DIMBLK1
  1

  9
$DIMBLK2
  1

  9
$DIMSTYLE
  2
STANDARD
  9
$DIMCLRD
 70
     0
  9
$DIMCLRE
 70
     0
  9
$DIMCLRT
 70
     0
  9
$DIMTFAC
 40
1.0
  9
$DIMGAP
 40
0.09
  9
$LUNITS
 70
     2
  9
$LUPREC
 70
     4
  9
$SKETCHINC
 40
0.1
  9
$FILLETRAD
 40
0.0
  9
$AUNITS
 70
     0
  9
$AUPREC
 70
     0
  9
$MENU
  1
.
  9
$ELEVATION
 40
0.0
  9
$PELEVATION
 40
0.0
  9
$THICKNESS
 40
0.0
  9
$LIMCHECK
 70
     0
  9
$BLIPMODE
 70
     0
  9
$CHAMFERA
 40
0.0
  9
$CHAMFERB
 40
0.0
  9
$SKPOLY
 70
     0
  9
$TDCREATE
 40
2458250.631632755
  9
$TDUPDATE
 40
2458250.719442118
  9
$TDINDWG
 40
0.0856218287
  9
$TDUSRTIMER
 40
0.0856218287
  9
$USRTIMER
 70
     1
  9
$ANGBASE
 50
0.0
  9
$ANGDIR
 70
     0
  9
$PDMODE
 70
     0
  9
$PDSIZE
 40
0.3125
  9
$PLINEWID
 40
0.0
  9
$COORDS
 70
     1
  9
$SPLFRAME
 70
     0
  9
$SPLINETYPE
 70
     6
  9
$SPLINESEGS
 70
     8
  9
$ATTDIA
 70
     1
  9
$ATTREQ
 70
     1
  9
$HANDLING
 70
     1
  9
$HANDSEED
  5
13DF
  9
$SURFTAB1
 70
     6
  9
$SURFTAB2
 70
     6
  9
$SURFTYPE
 70
     6
  9
$SURFU
 70
     6
  9
$SURFV
 70
     6
  9
$UCSNAME
  2

  9
$UCSORG
 10
0.0
 20
0.0
 30
0.0
  9
$UCSXDIR
 10
1.0
 20
0.0
 30
0.0
  9
$UCSYDIR
 10
0.0
 20
1.0
 30
0.0
  9
$PUCSNAME
  2

  9
$PUCSORG
 10
0.0
 20
0.0
 30
0.0
  9
$PUCSXDIR
 10
1.0
 20
0.0
 30
0.0
  9
$PUCSYDIR
 10
0.0
 20
1.0
 30
0.0
  9
$USERI1
 70
     0
  9
$USERI2
 70
     0
  9
$USERI3
 70
     0
  9
$USERI4
 70
     0
  9
$USERI5
 70
     0
  9
$USERR1
 40
0.0
  9
$USERR2
 40
0.0
  9
$USERR3
 40
0.0
  9
$USERR4
 40
0.0
  9
$USERR5
 40
0.0
  9
$WORLDVIEW
 70
     1
  9
$SHADEDGE
 70
     3
  9
$SHADEDIF
 70
    70
  9
$TILEMODE
 70
     1
  9
$MAXACTVP
 70
    64
  9
$PLIMCHECK
 70
     0
  9
$PEXTMIN
 10
1.0000000000000000E+020
 20
1.0000000000000000E+020
 30
1.0000000000000000E+020
  9
$PEXTMAX
 10
-1.0000000000000000E+020
 20
-1.0000000000000000E+020
 30
-1.0000000000000000E+020
  9
$PLIMMIN
 10
0.0
 20
0.0
  9
$PLIMMAX
 10
12.0
 20
9.0
  9
$UNITMODE
 70
     0
  9
$VISRETAIN
 70
     1
  9
$PLINEGEN
 70
     0
  9
$PSLTSCALE
 70
     1
  0
ENDSEC
  0
SECTION
  2
TABLES
  0
TABLE
  2
VPORT
 70
     1
  0
VPORT
  2
*ACTIVE
 70
     0
 10
0.0
 20
0.0
 11
1.0
 21
1.0
 12
0.0
 22
0.0
 13
0.0
 23
0.0
 14
1.0
 24
1.0
 15
0.0
 25
0.0
 16
-0.0000000000000142
 26
0.0
 36
85.509199820448345
 17
96.663389529432351
 27
35.583872912099999
 37
0.0
 40
30.59513819014877
 41
2.0834248079034019
 42
50.0
 43
0.0
 44
0.0
 50
0.0
 51
0.0
 71
     0
 72
   100
 73
     1
 74
     1
 75
     0
 76
     0
 77
     0
 78
     0
  0
ENDTAB
  0
TABLE
  2
LTYPE
 70
     2
  0
LTYPE
  2
CONTINUOUS
 70
     0
  3
Solid line
 72
    65
 73
     0
 40
0.0
  0
LTYPE
  2
PHANTOM2
 70
     0
  3
___ _ _ ___ _ _ ___ _ _ ___ _ _
 72
    65
 73
     6
 40
1.25
 49
0.625
 49
-0.125
 49
0.125
 49
-0.125
 49
0.125
 49
-0.125
  0
ENDTAB
  0
TABLE
  2
LAYER
 70
     2
  0
LAYER
  2
0
 70
     0
 62
   255
  6
CONTINUOUS
  0
LAYER
  2
DEFPOINTS
 70
     0
 62
     7
  6
CONTINUOUS
  0
ENDTAB
  0
TABLE
  2
STYLE
 70
     1
  0
STYLE
  2
STANDARD
 70
     0
 40
0.0
 41
0.8
 50
0.0
 71
     0
 42
0.2
  3
txt
  4

  0
ENDTAB
  0
TABLE
  2
VIEW
 70
     0
  0
ENDTAB
  0
TABLE
  2
UCS
 70
     0
  0
ENDTAB
  0
TABLE
  2
APPID
 70
     9
  0
APPID
  2
ACAD
 70
     0
  0
APPID
  2
ACAD_MLEADERVER
 70
     0
  0
APPID
  2
ACAD_EXEMPT_FROM_CAD_STANDARDS
 70
     0
  0
APPID
  2
ACAD_DSTYLE_DIMJAG
 70
     0
  0
APPID
  2
ACAD_DSTYLE_DIMTALN
 70
     0
  0
APPID
  2
ACAD_NAV_VCDISPLAY
 70
     0
  0
APPID
  2
ACAECLAYERSTANDARD
 70
     0
  0
APPID
  2
ACCMTRANSPARENCY
 70
     0
  0
APPID
  2
AcDbAttr
 70
     0
  0
ENDTAB
  0
TABLE
  2
DIMSTYLE
 70
     1
  0
DIMSTYLE
  2
STANDARD
 70
     0
  3

  4

  5

  6

  7

 40
1.0
 41
0.1875
 42
0.0625
 43
0.38
 44
0.125
 45
0.0
 46
0.0
 47
0.01
 48
0.01
140
0.15625
141
0.09
142
0.0
143
25.399999999999999
144
1.0
145
0.0
146
1.0
147
0.09
 71
     1
 72
     0
 73
     1
 74
     1
 75
     0
 76
     0
 77
     0
 78
     4
170
     0
171
     2
172
     0
173
     0
174
     0
175
     0
176
     0
177
     0
178
     0
  0
ENDTAB
  0
ENDSEC
  0
SECTION
  2
BLOCKS
  0
BLOCK
  8
0
  2
$MODEL_SPACE
 70
     0
 10
0.0
 20
0.0
 30
0.0
  3
$MODEL_SPACE
  1

  0
ENDBLK
  5
21
  8
0
  0
BLOCK
 67
     1
  8
0
  2
$PAPER_SPACE
 70
     0
 10
0.0
 20
0.0
 30
0.0
  3
$PAPER_SPACE
  1

  0
ENDBLK
  5
1D
 67
     1
  8
0
  0
ENDSEC
  0
SECTION
  2
ENTITIES
  0
LINE
  5
1066
  8
0
 10
84.413389529432351
 20
28.987342912100001
 30
0.0
 11
84.413389529432351
 21
42.180402912099993
 31
0.0
  0
LINE
  5
1067
  8
0
 10
85.207856086432344
 20
28.987183512600001
 30
0.0
 11
85.207856086432344
 21
42.180561652199998
 31
0.0
  0
LINE
  5
1068
  8
0
 10
85.966859529432355
 20
42.181773377400013
 30
0.0
 11
85.966859529432355
 21
28.9859724469
 31
0.0
  0
LINE
  5
1069
  8
0
 10
106.3599195294323
 20
26.433872912100011
 30
0.0
 11
86.966859529432355
 21
26.4338729121
 31
0.0
  0
LINE
  5
106A
  8
0
 10
106.3588678456323
 20
27.228220892900008
 30
0.0
 11
86.967911817432338
 21
27.228220892900008
 31
0.0
  0
LINE
  5
106B
  8
0
 10
86.965489064132356
 20
27.987342912100001
 30
0.0
 11
106.3612899946323
 21
27.987342912100001
 31
0.0
  0
LINE
  5
106C
  8
0
 10
106.3612899946323
 20
43.180402912099993
 30
0.0
 11
86.965489064132356
 21
43.180402912099993
 31
0.0
  0
LINE
  5
106D
  8
0
 10
106.35886749463231
 20
43.939524931400008
 30
0.0
 11
86.967911504632355
 21
43.939524931400001
 31
0.0
  0
LINE
  5
106E
  8
0
 10
86.966859529432355
 20
44.73387291209999
 30
0.0
 11
106.3599195294323
 21
44.73387291209999
 31
0.0
  0
LINE
  5
106F
  8
0
 10
107.3599195294323
 20
28.9859724469
 30
0.0
 11
107.3599195294323
 21
42.181773377400013
 31
0.0
  0
LINE
  5
1070
  8
0
 10
108.1189229723323
 20
42.180562594599998
 30
0.0
 11
108.1189229723323
 21
28.987183926099998
 31
0.0
  0
LINE
  5
1071
  8
0
 10
108.91338952943229
 20
42.180402912099993
 30
0.0
 11
108.91338952943229
 21
28.987342912100001
 31
0.0
  0
ARC
  5
1072
  8
0
 10
86.966859529432355
 20
28.987342912100001
 30
0.0
 40
2.553469999999999
 50
180.0
 51
270.0
  0
ARC
  5
1073
  8
0
 10
86.966859529432355
 20
42.180402912099993
 30
0.0
 40
2.553469999999999
 50
90.0
 51
180.0
  0
ARC
  5
1074
  8
0
 10
106.3599195294323
 20
28.987342912100001
 30
0.0
 40
2.553469999999999
 50
270.0
 51
0.0
  0
ARC
  5
1075
  8
0
 10
106.3599195294323
 20
42.180402912099993
 30
0.0
 40
2.553469999999999
 50
0.0
 51
90.0
  0
ARC
  5
1076
  8
0
 10
106.3600520024489
 20
42.180654357974959
 30
0.0
 40
1.7588709722771949
 50
359.9970107789685
 51
90.038585720548596
  0
ARC
  5
1077
  8
0
 10
106.36005200831779
 20
28.987091460725239
 30
0.0
 40
1.758870966444984
 50
269.96142552207817
 51
0.0030120889075102
  0
ARC
  5
1078
  8
0
 10
86.966719671884775
 20
28.98708407714911
 30
0.0
 40
1.75886358826314
 50
179.9967608450643
 51
270.03883468515022
  0
ARC
  5
1079
  8
0
 10
86.966726691785837
 20
42.180654722641812
 30
0.0
 40
1.7588706078158669
 50
89.961404335003337
 51
180.00303179977661
  0
CIRCLE
  5
107A
  8
0
 10
96.663389529432351
 20
38.583872912099999
 30
0.0
 40
0.31
  0
CIRCLE
  5
107B
  8
0
 10
96.663389529432351
 20
38.583872912099999
 30
0.0
 40
0.2760925586
  0
CIRCLE
  5
107C
  8
0
 10
96.663389529432351
 20
38.583872912099999
 30
0.0
 40
2.25
  0
CIRCLE
  5
107D
  8
0
 10
96.663389529432351
 20
38.583872912099999
 30
0.0
 40
1.6780895467000001
  0
ARC
  5
107E
  8
0
 10
86.964919372540848
 20
42.18234307462032
 30
0.0
 40
0.9980600057014119
 50
89.967295951618226
 51
180.03270469501871
  0
ARC
  5
107F
  8
0
 10
86.964940894331136
 20
28.985424276998849
 30
0.0
 40
0.9980815154327233
 50
179.96853180538341
 51
270.0314681888795
  0
ARC
  5
1080
  8
0
 10
106.3618554201545
 20
28.985407021377888
 30
0.0
 40
0.998064269440947
 50
269.96754066970271
 51
0.0324593302962659
  0
ARC
  5
1081
  8
0
 10
106.3618554177404
 20
42.182338800408068
 30
0.0
 40
0.9980642718536052
 50
359.96754081410489
 51
90.032459191632825
  0
ATTDEF
  5
128F
  8
DEFPOINTS
 10
96.660136353101194
 20
35.589585680129922
 30
0.0
 40
0.001
  1
K-28001
  3

  2
MODELNUMBER
 70
     0
1001
AcDbAttr
1070
     0
1070
     1
  0
ATTDEF
  5
1290
  8
DEFPOINTS
 10
96.660136353101194
 20
35.587919013463249
 30
0.0
 40
0.001
  1
CAIRN
  3

  2
TRADENAME
 70
     0
1001
AcDbAttr
1070
     0
1070
     1
  0
ATTDEF
  5
1291
  8
DEFPOINTS
 10
96.660136353101194
 20
35.586252346796577
 30
0.0
 40
0.001
  1
KITCHEN SINK
  3

  2
PRODUCT
 70
     0
1001
AcDbAttr
1070
     0
1070
     1
  0
ATTDEF
  5
1292
  8
DEFPOINTS
 10
96.660136353101194
 20
35.584585680129919
 30
0.0
 40
0.001
  1
NEOROC
  3

  2
MATERIAL
 70
     0
1001
AcDbAttr
1070
     0
1070
     1
  0
ENDSEC
  0
EOF
