  0
SECTION
  2
HEADER
  9
$ACADVER
  1
AC1009
  9
$INSBASE
 10
135.85919002913229
 20
11.5015587412
 30
0.0
  9
$EXTMIN
 10
126.7091900291323
 20
1.3615587411999861
 30
0.0
  9
$EXTMAX
 10
145.0091900291323
 20
11.515419119272501
 30
0.0
  9
$LIMMIN
 10
0.0
 20
0.0
  9
$LIMMAX
 10
11.692913385800001
 20
8.2677165353999982
  9
$ORTHOMODE
 70
     0
  9
$REGENMODE
 70
     1
  9
$FILLMODE
 70
     1
  9
$QTEXTMODE
 70
     0
  9
$MIRRTEXT
 70
     0
  9
$DRAGMODE
 70
     2
  9
$LTSCALE
 40
0.6431102362
  9
$OSMODE
 70
  3071
  9
$ATTMODE
 70
     1
  9
$TEXTSIZE
 40
0.2
  9
$TRACEWID
 40
0.05
  9
$TEXTSTYLE
  7
STANDARD
  9
$CLAYER
  8
0
  9
$CELTYPE
  6
BYLAYER
  9
$CECOLOR
 62
   256
  9
$DIMSCALE
 40
1.0
  9
$DIMASZ
 40
0.1875
  9
$DIMEXO
 40
0.0625
  9
$DIMDLI
 40
0.4443307087
  9
$DIMRND
 40
0.0
  9
$DIMDLE
 40
0.0
  9
$DIMEXE
 40
0.125
  9
$DIMTP
 40
0.01
  9
$DIMTM
 40
0.01
  9
$DIMTXT
 40
1.0
  9
$DIMCEN
 40
0.1052362205
  9
$DIMTSZ
 40
0.0
  9
$DIMTOL
 70
     1
  9
$DIMLIM
 70
     0
  9
$DIMTIH
 70
     1
  9
$DIMTOH
 70
     1
  9
$DIMSE1
 70
     0
  9
$DIMSE2
 70
     0
  9
$DIMTAD
 70
     0
  9
$DIMZIN
 70
     0
  9
$DIMBLK
  1

  9
$DIMASO
 70
     1
  9
$DIMSHO
 70
     1
  9
$DIMPOST
  1
\X
  9
$DIMAPOST
  1

  9
$DIMALT
 70
     1
  9
$DIMALTD
 70
     2
  9
$DIMALTF
 40
25.399999999999999
  9
$DIMLFAC
 40
1.0
  9
$DIMTOFL
 70
     0
  9
$DIMTVP
 40
0.0
  9
$DIMTIX
 70
     0
  9
$DIMSOXD
 70
     0
  9
$DIMSAH
 70
     0
  9
$DIMBLK1
  1

  9
$DIMBLK2
  1

  9
$DIMSTYLE
  2
STANDARD
  9
$DIMCLRD
 70
     0
  9
$DIMCLRE
 70
     0
  9
$DIMCLRT
 70
     0
  9
$DIMTFAC
 40
1.0
  9
$DIMGAP
 40
0.09
  9
$LUNITS
 70
     2
  9
$LUPREC
 70
     4
  9
$SKETCHINC
 40
0.1
  9
$FILLETRAD
 40
0.0
  9
$AUNITS
 70
     0
  9
$AUPREC
 70
     0
  9
$MENU
  1
.
  9
$ELEVATION
 40
0.0
  9
$PELEVATION
 40
0.0
  9
$THICKNESS
 40
0.0
  9
$LIMCHECK
 70
     0
  9
$BLIPMODE
 70
     0
  9
$CHAMFERA
 40
0.0
  9
$CHAMFERB
 40
0.0
  9
$SKPOLY
 70
     0
  9
$TDCREATE
 40
2458250.631632755
  9
$TDUPDATE
 40
2458250.7195585649
  9
$TDINDWG
 40
0.0857300231
  9
$TDUSRTIMER
 40
0.0857300231
  9
$USRTIMER
 70
     1
  9
$ANGBASE
 50
0.0
  9
$ANGDIR
 70
     0
  9
$PDMODE
 70
     0
  9
$PDSIZE
 40
0.3125
  9
$PLINEWID
 40
0.0
  9
$COORDS
 70
     1
  9
$SPLFRAME
 70
     0
  9
$SPLINETYPE
 70
     6
  9
$SPLINESEGS
 70
     8
  9
$ATTDIA
 70
     1
  9
$ATTREQ
 70
     1
  9
$HANDLING
 70
     1
  9
$HANDSEED
  5
156A
  9
$SURFTAB1
 70
     6
  9
$SURFTAB2
 70
     6
  9
$SURFTYPE
 70
     6
  9
$SURFU
 70
     6
  9
$SURFV
 70
     6
  9
$UCSNAME
  2

  9
$UCSORG
 10
0.0
 20
0.0
 30
0.0
  9
$UCSXDIR
 10
1.0
 20
0.0
 30
0.0
  9
$UCSYDIR
 10
0.0
 20
1.0
 30
0.0
  9
$PUCSNAME
  2

  9
$PUCSORG
 10
0.0
 20
0.0
 30
0.0
  9
$PUCSXDIR
 10
1.0
 20
0.0
 30
0.0
  9
$PUCSYDIR
 10
0.0
 20
1.0
 30
0.0
  9
$USERI1
 70
     0
  9
$USERI2
 70
     0
  9
$USERI3
 70
     0
  9
$USERI4
 70
     0
  9
$USERI5
 70
     0
  9
$USERR1
 40
0.0
  9
$USERR2
 40
0.0
  9
$USERR3
 40
0.0
  9
$USERR4
 40
0.0
  9
$USERR5
 40
0.0
  9
$WORLDVIEW
 70
     1
  9
$SHADEDGE
 70
     3
  9
$SHADEDIF
 70
    70
  9
$TILEMODE
 70
     1
  9
$MAXACTVP
 70
    64
  9
$PLIMCHECK
 70
     0
  9
$PEXTMIN
 10
1.0000000000000000E+020
 20
1.0000000000000000E+020
 30
1.0000000000000000E+020
  9
$PEXTMAX
 10
-1.0000000000000000E+020
 20
-1.0000000000000000E+020
 30
-1.0000000000000000E+020
  9
$PLIMMIN
 10
0.0
 20
0.0
  9
$PLIMMAX
 10
12.0
 20
9.0
  9
$UNITMODE
 70
     0
  9
$VISRETAIN
 70
     1
  9
$PLINEGEN
 70
     0
  9
$PSLTSCALE
 70
     1
  0
ENDSEC
  0
SECTION
  2
TABLES
  0
TABLE
  2
VPORT
 70
     1
  0
VPORT
  2
*ACTIVE
 70
     0
 10
0.0
 20
0.0
 11
1.0
 21
1.0
 12
0.0
 22
0.0
 13
0.0
 23
0.0
 14
1.0
 24
1.0
 15
0.0
 25
0.0
 16
0.0
 26
0.0
 36
58.52036947721826
 17
135.85919002913229
 27
6.4384889302362431
 37
0.0
 40
20.939901092528601
 41
2.0834248079034019
 42
50.0
 43
0.0
 44
0.0
 50
0.0
 51
0.0
 71
     0
 72
   100
 73
     1
 74
     1
 75
     0
 76
     0
 77
     0
 78
     0
  0
ENDTAB
  0
TABLE
  2
LTYPE
 70
     2
  0
LTYPE
  2
CONTINUOUS
 70
     0
  3
Solid line
 72
    65
 73
     0
 40
0.0
  0
LTYPE
  2
PHANTOM2
 70
     0
  3
___ _ _ ___ _ _ ___ _ _ ___ _ _
 72
    65
 73
     6
 40
1.25
 49
0.625
 49
-0.125
 49
0.125
 49
-0.125
 49
0.125
 49
-0.125
  0
ENDTAB
  0
TABLE
  2
LAYER
 70
     2
  0
LAYER
  2
0
 70
     0
 62
   255
  6
CONTINUOUS
  0
LAYER
  2
DEFPOINTS
 70
     0
 62
     7
  6
CONTINUOUS
  0
ENDTAB
  0
TABLE
  2
STYLE
 70
     1
  0
STYLE
  2
STANDARD
 70
     0
 40
0.0
 41
0.8
 50
0.0
 71
     0
 42
0.2
  3
txt
  4

  0
ENDTAB
  0
TABLE
  2
VIEW
 70
     0
  0
ENDTAB
  0
TABLE
  2
UCS
 70
     0
  0
ENDTAB
  0
TABLE
  2
APPID
 70
     9
  0
APPID
  2
ACAD
 70
     0
  0
APPID
  2
ACAD_MLEADERVER
 70
     0
  0
APPID
  2
ACAD_EXEMPT_FROM_CAD_STANDARDS
 70
     0
  0
APPID
  2
ACAD_DSTYLE_DIMJAG
 70
     0
  0
APPID
  2
ACAD_DSTYLE_DIMTALN
 70
     0
  0
APPID
  2
ACAD_NAV_VCDISPLAY
 70
     0
  0
APPID
  2
ACAECLAYERSTANDARD
 70
     0
  0
APPID
  2
ACCMTRANSPARENCY
 70
     0
  0
APPID
  2
AcDbAttr
 70
     0
  0
ENDTAB
  0
TABLE
  2
DIMSTYLE
 70
     1
  0
DIMSTYLE
  2
STANDARD
 70
     0
  3

  4

  5

  6

  7

 40
1.0
 41
0.1875
 42
0.0625
 43
0.38
 44
0.125
 45
0.0
 46
0.0
 47
0.01
 48
0.01
140
0.15625
141
0.09
142
0.0
143
25.399999999999999
144
1.0
145
0.0
146
1.0
147
0.09
 71
     1
 72
     0
 73
     1
 74
     1
 75
     0
 76
     0
 77
     0
 78
     4
170
     0
171
     2
172
     0
173
     0
174
     0
175
     0
176
     0
177
     0
178
     0
  0
ENDTAB
  0
ENDSEC
  0
SECTION
  2
BLOCKS
  0
BLOCK
  8
0
  2
$MODEL_SPACE
 70
     0
 10
0.0
 20
0.0
 30
0.0
  3
$MODEL_SPACE
  1

  0
ENDBLK
  5
21
  8
0
  0
BLOCK
 67
     1
  8
0
  2
$PAPER_SPACE
 70
     0
 10
0.0
 20
0.0
 30
0.0
  3
$PAPER_SPACE
  1

  0
ENDBLK
  5
1D
 67
     1
  8
0
  0
ENDSEC
  0
SECTION
  2
ENTITIES
  0
LINE
  5
10A1
  8
0
 10
128.01300264543229
 20
9.6884747520999941
 30
0.0
 11
128.39003923773231
 21
2.4946809893999942
 31
0.0
  0
LINE
  5
10A2
  8
0
 10
129.2101675526323
 20
1.451630292399994
 30
0.0
 11
129.0858535068547
 21
1.7182226238135261
 31
0.0
  0
LINE
  5
10A3
  8
0
 10
130.2941696608323
 20
1.451630292399994
 30
0.0
 11
130.39321439041549
 21
1.6640324004098781
 31
0.0
  0
LINE
  5
10A4
  8
0
 10
129.3515515674323
 20
1.3615587411999941
 30
0.0
 11
130.1527856460323
 21
1.3615587411999941
 31
0.0
  0
LINE
  5
10A5
  8
0
 10
136.41023899246261
 20
1.3615587411999941
 30
0.0
 11
141.30814106590211
 21
1.3615587411999941
 31
0.0
  0
LINE
  5
10A6
  8
0
 10
141.54971106933229
 20
1.3615587411999941
 30
0.0
 11
142.35094514793229
 21
1.3615587411999941
 31
0.0
  0
LINE
  5
10A7
  8
0
 10
135.8529765329323
 20
1.473373305099994
 30
0.0
 11
141.39818812123229
 21
1.473373305099994
 31
0.0
  0
LINE
  5
10A8
  8
0
 10
135.8529765329323
 20
1.473373305099994
 30
0.0
 11
130.39321439041549
 21
1.664032400409877
 31
0.0
  0
LINE
  5
10A9
  8
0
 10
141.40832705453229
 20
1.451630292399994
 30
0.0
 11
141.3981881211993
 21
1.4733733050999931
 31
0.0
  0
LINE
  5
10AA
  8
0
 10
143.3177102977323
 20
2.2913455389999982
 30
0.0
 11
143.70537741283229
 21
9.6884747520999941
 31
0.0
  0
LINE
  5
10AB
  8
0
 10
142.49232916273229
 20
1.451630292399994
 30
0.0
 11
142.51311255488741
 21
1.496200420696532
 31
0.0
  0
ARC
  5
10AC
  8
0
 10
135.79190241360709
 20
-0.2755606432705751
 30
0.0
 40
1.750000001074288
 50
69.308553668601917
 51
87.999999997126096
  0
ARC
  5
10AD
  8
0
 10
129.3515515674323
 20
1.517558741199994
 30
0.0
 40
0.156
 50
204.99999999999969
 51
270.0
  0
ARC
  5
10AE
  8
0
 10
130.1527856460323
 20
1.517558741199994
 30
0.0
 40
0.156
 50
270.0
 51
335.00000000000023
  0
ARC
  5
10AF
  8
0
 10
141.92647764992421
 20
-0.2755606592377742
 30
0.0
 40
1.750000017837098
 50
106.108098562642
 51
110.6914463049303
  0
ARC
  5
10B0
  8
0
 10
141.54971106933229
 20
1.517558741199994
 30
0.0
 40
0.156
 50
204.99999999999969
 51
270.0
  0
ARC
  5
10B1
  8
0
 10
142.35094514793229
 20
1.517558741199994
 30
0.0
 40
0.156
 50
270.0
 51
335.00000000000023
  0
LINE
  5
10B2
  8
0
 10
126.7091900291323
 20
11.5015587412
 30
0.0
 11
126.7481425494323
 21
11.05632939659999
 31
0.0
  0
LINE
  5
10B3
  8
0
 10
126.7091900291323
 20
11.5015587412
 30
0.0
 11
145.0091900291323
 21
11.5015587412
 31
0.0
  0
LINE
  5
10B4
  8
0
 10
144.9104658269323
 20
11.0015587412
 30
0.0
 11
126.8079142313323
 21
11.0015587412
 31
0.0
  0
LINE
  5
10B5
  8
0
 10
144.9702375088323
 20
11.05632939659999
 30
0.0
 11
145.0091900291323
 21
11.5015587412
 31
0.0
  0
ARC
  5
10B6
  8
0
 10
126.80832341465459
 20
11.06200528643808
 30
0.0
 40
0.060447930173123
 50
185.387848788214
 51
269.61215120808322
  0
ARC
  5
10B7
  8
0
 10
144.9104658269323
 20
11.06155874119999
 30
0.0
 40
0.06
 50
270.0
 51
355.00000000000011
  0
ARC
  5
10B8
  8
0
 10
127.4553180830865
 20
10.813364647250831
 30
0.0
 40
0.1883065354955331
 50
33.447085010755202
 51
88.019887107944385
  0
ARC
  5
10B9
  8
0
 10
125.5933720151999
 20
9.5792817197573896
 30
0.0
 40
2.4220932073458692
 50
2.5838894388056
 51
33.52917781221047
  0
ARC
  5
10BA
  8
0
 10
129.22776868467921
 20
2.5454004603892399
 30
0.0
 40
0.8392634217094162
 50
183.4646850409186
 51
260.26480026317302
  0
ARC
  5
10BB
  8
0
 10
142.47921061927761
 20
2.3351593088168419
 30
0.0
 40
0.8396435893843051
 50
272.31403660113921
 51
357.0088680960227
  0
ARC
  5
10BC
  8
0
 10
146.14443675887151
 20
9.5731092481913276
 30
0.0
 40
2.4417861685645921
 50
146.5992122151691
 51
177.29197495736679
  0
ARC
  5
10BD
  8
0
 10
144.26316810342891
 20
10.812992993635101
 30
0.0
 40
0.1886816498263842
 50
92.008357334037797
 51
146.4416575615337
  0
ATTDEF
  5
12D0
  8
DEFPOINTS
 10
135.85575293627079
 20
11.5144191192725
 30
0.0
 40
0.001
  1
K-28001
  3

  2
MODELNUMBER
 70
     0
1001
AcDbAttr
1070
     0
1070
     1
  0
ATTDEF
  5
12D1
  8
DEFPOINTS
 10
135.85575293627079
 20
11.512752452605829
 30
0.0
 40
0.001
  1
CAIRN
  3

  2
TRADENAME
 70
     0
1001
AcDbAttr
1070
     0
1070
     1
  0
ATTDEF
  5
12D2
  8
DEFPOINTS
 10
135.85575293627079
 20
11.511085785939169
 30
0.0
 40
0.001
  1
KITCHEN SINK
  3

  2
PRODUCT
 70
     0
1001
AcDbAttr
1070
     0
1070
     1
  0
ATTDEF
  5
12D3
  8
DEFPOINTS
 10
135.85575293627079
 20
11.509419119272501
 30
0.0
 40
0.001
  1
NEOROC
  3

  2
MATERIAL
 70
     0
1001
AcDbAttr
1070
     0
1070
     1
  0
ENDSEC
  0
EOF
