  0
SECTION
  2
HEADER
  9
$ACADVER
  1
AC1009
  9
$INSBASE
 10
341.60728622086077
 20
-5.5675299808404928
 30
0.0
  9
$EXTMIN
 10
332.03728622086078
 20
-12.37234420714049
 30
0.0
  9
$EXTMAX
 10
351.17728622086082
 20
-5.5675299808404928
 30
0.0
  9
$LIMMIN
 10
0.0
 20
0.0
  9
$LIMMAX
 10
11.692913385800001
 20
8.2677165353999982
  9
$ORTHOMODE
 70
     1
  9
$REGENMODE
 70
     1
  9
$FILLMODE
 70
     1
  9
$QTEXTMODE
 70
     0
  9
$MIRRTEXT
 70
     0
  9
$DRAGMODE
 70
     2
  9
$LTSCALE
 40
0.6431102362
  9
$OSMODE
 70
  3071
  9
$ATTMODE
 70
     1
  9
$TEXTSIZE
 40
0.2
  9
$TRACEWID
 40
0.05
  9
$TEXTSTYLE
  7
STANDARD
  9
$CLAYER
  8
0
  9
$CELTYPE
  6
BYLAYER
  9
$CECOLOR
 62
   256
  9
$DIMSCALE
 40
1.0
  9
$DIMASZ
 40
0.1875
  9
$DIMEXO
 40
0.0625
  9
$DIMDLI
 40
0.4443307087
  9
$DIMRND
 40
0.0
  9
$DIMDLE
 40
0.0
  9
$DIMEXE
 40
0.125
  9
$DIMTP
 40
0.01
  9
$DIMTM
 40
0.01
  9
$DIMTXT
 40
1.0
  9
$DIMCEN
 40
0.1052362205
  9
$DIMTSZ
 40
0.0
  9
$DIMTOL
 70
     1
  9
$DIMLIM
 70
     0
  9
$DIMTIH
 70
     1
  9
$DIMTOH
 70
     1
  9
$DIMSE1
 70
     0
  9
$DIMSE2
 70
     0
  9
$DIMTAD
 70
     0
  9
$DIMZIN
 70
     0
  9
$DIMBLK
  1

  9
$DIMASO
 70
     1
  9
$DIMSHO
 70
     1
  9
$DIMPOST
  1
\X
  9
$DIMAPOST
  1

  9
$DIMALT
 70
     1
  9
$DIMALTD
 70
     2
  9
$DIMALTF
 40
25.399999999999999
  9
$DIMLFAC
 40
1.0
  9
$DIMTOFL
 70
     0
  9
$DIMTVP
 40
0.0
  9
$DIMTIX
 70
     0
  9
$DIMSOXD
 70
     0
  9
$DIMSAH
 70
     0
  9
$DIMBLK1
  1

  9
$DIMBLK2
  1

  9
$DIMSTYLE
  2
STANDARD
  9
$DIMCLRD
 70
     0
  9
$DIMCLRE
 70
     0
  9
$DIMCLRT
 70
     0
  9
$DIMTFAC
 40
1.0
  9
$DIMGAP
 40
0.09
  9
$LUNITS
 70
     2
  9
$LUPREC
 70
     4
  9
$SKETCHINC
 40
0.1
  9
$FILLETRAD
 40
0.0
  9
$AUNITS
 70
     0
  9
$AUPREC
 70
     0
  9
$MENU
  1
.
  9
$ELEVATION
 40
0.0
  9
$PELEVATION
 40
0.0
  9
$THICKNESS
 40
0.0
  9
$LIMCHECK
 70
     0
  9
$BLIPMODE
 70
     0
  9
$CHAMFERA
 40
0.0
  9
$CHAMFERB
 40
0.0
  9
$SKPOLY
 70
     0
  9
$TDCREATE
 40
2458306.609456806
  9
$TDUPDATE
 40
2458326.5383807751
  9
$TDINDWG
 40
0.0465916319
  9
$TDUSRTIMER
 40
0.0465916319
  9
$USRTIMER
 70
     1
  9
$ANGBASE
 50
0.0
  9
$ANGDIR
 70
     0
  9
$PDMODE
 70
     0
  9
$PDSIZE
 40
0.3125
  9
$PLINEWID
 40
0.0
  9
$COORDS
 70
     1
  9
$SPLFRAME
 70
     0
  9
$SPLINETYPE
 70
     6
  9
$SPLINESEGS
 70
     8
  9
$ATTDIA
 70
     1
  9
$ATTREQ
 70
     1
  9
$HANDLING
 70
     1
  9
$HANDSEED
  5
1528
  9
$SURFTAB1
 70
     6
  9
$SURFTAB2
 70
     6
  9
$SURFTYPE
 70
     6
  9
$SURFU
 70
     6
  9
$SURFV
 70
     6
  9
$UCSNAME
  2

  9
$UCSORG
 10
0.0
 20
0.0
 30
0.0
  9
$UCSXDIR
 10
1.0
 20
0.0
 30
0.0
  9
$UCSYDIR
 10
0.0
 20
1.0
 30
0.0
  9
$PUCSNAME
  2

  9
$PUCSORG
 10
0.0
 20
0.0
 30
0.0
  9
$PUCSXDIR
 10
1.0
 20
0.0
 30
0.0
  9
$PUCSYDIR
 10
0.0
 20
1.0
 30
0.0
  9
$USERI1
 70
     0
  9
$USERI2
 70
     0
  9
$USERI3
 70
     0
  9
$USERI4
 70
     0
  9
$USERI5
 70
     0
  9
$USERR1
 40
0.0
  9
$USERR2
 40
0.0
  9
$USERR3
 40
0.0
  9
$USERR4
 40
0.0
  9
$USERR5
 40
0.0
  9
$WORLDVIEW
 70
     1
  9
$SHADEDGE
 70
     3
  9
$SHADEDIF
 70
    70
  9
$TILEMODE
 70
     1
  9
$MAXACTVP
 70
    64
  9
$PLIMCHECK
 70
     0
  9
$PEXTMIN
 10
1.0000000000000000E+020
 20
1.0000000000000000E+020
 30
1.0000000000000000E+020
  9
$PEXTMAX
 10
-1.0000000000000000E+020
 20
-1.0000000000000000E+020
 30
-1.0000000000000000E+020
  9
$PLIMMIN
 10
0.0
 20
0.0
  9
$PLIMMAX
 10
12.0
 20
9.0
  9
$UNITMODE
 70
     0
  9
$VISRETAIN
 70
     1
  9
$PLINEGEN
 70
     0
  9
$PSLTSCALE
 70
     1
  0
ENDSEC
  0
SECTION
  2
TABLES
  0
TABLE
  2
VPORT
 70
     1
  0
VPORT
  2
*ACTIVE
 70
     0
 10
0.0
 20
0.0
 11
1.0
 21
1.0
 12
0.0
 22
0.0
 13
0.0
 23
0.0
 14
1.0
 24
1.0
 15
0.0
 25
0.0
 16
0.0
 26
0.0
 36
57.172164043371602
 17
341.60728622086077
 27
-8.9699370939904934
 37
0.0
 40
20.32422759528405
 41
2.1006711409395971
 42
50.0
 43
0.0
 44
0.0
 50
0.0
 51
0.0
 71
     0
 72
   100
 73
     1
 74
     1
 75
     0
 76
     0
 77
     0
 78
     0
  0
ENDTAB
  0
TABLE
  2
LTYPE
 70
     2
  0
LTYPE
  2
CONTINUOUS
 70
     0
  3
Solid line
 72
    65
 73
     0
 40
0.0
  0
LTYPE
  2
PHANTOM2
 70
     0
  3
___ _ _ ___ _ _ ___ _ _ ___ _ _
 72
    65
 73
     6
 40
1.25
 49
0.625
 49
-0.125
 49
0.125
 49
-0.125
 49
0.125
 49
-0.125
  0
ENDTAB
  0
TABLE
  2
LAYER
 70
     2
  0
LAYER
  2
0
 70
     0
 62
   255
  6
CONTINUOUS
  0
LAYER
  2
DEFPOINTS
 70
     0
 62
     7
  6
CONTINUOUS
  0
ENDTAB
  0
TABLE
  2
STYLE
 70
     1
  0
STYLE
  2
STANDARD
 70
     0
 40
0.0
 41
0.8
 50
0.0
 71
     0
 42
0.2
  3
txt
  4

  0
ENDTAB
  0
TABLE
  2
VIEW
 70
     0
  0
ENDTAB
  0
TABLE
  2
UCS
 70
     0
  0
ENDTAB
  0
TABLE
  2
APPID
 70
     9
  0
APPID
  2
ACAD
 70
     0
  0
APPID
  2
ACAD_MLEADERVER
 70
     0
  0
APPID
  2
ACAD_EXEMPT_FROM_CAD_STANDARDS
 70
     0
  0
APPID
  2
ACAD_DSTYLE_DIMJAG
 70
     0
  0
APPID
  2
ACAD_DSTYLE_DIMTALN
 70
     0
  0
APPID
  2
ACAD_NAV_VCDISPLAY
 70
     0
  0
APPID
  2
ACAECLAYERSTANDARD
 70
     0
  0
APPID
  2
ACCMTRANSPARENCY
 70
     0
  0
APPID
  2
ACDBATTR
 70
     0
  0
ENDTAB
  0
TABLE
  2
DIMSTYLE
 70
     1
  0
DIMSTYLE
  2
STANDARD
 70
     0
  3

  4

  5

  6

  7

 40
1.0
 41
0.1875
 42
0.0625
 43
0.38
 44
0.125
 45
0.0
 46
0.0
 47
0.01
 48
0.01
140
0.15625
141
0.09
142
0.0
143
25.399999999999999
144
1.0
145
0.0
146
1.0
147
0.09
 71
     1
 72
     0
 73
     1
 74
     1
 75
     0
 76
     0
 77
     0
 78
     4
170
     0
171
     2
172
     0
173
     0
174
     0
175
     0
176
     0
177
     0
178
     0
  0
ENDTAB
  0
ENDSEC
  0
SECTION
  2
BLOCKS
  0
BLOCK
  8
0
  2
$MODEL_SPACE
 70
     0
 10
0.0
 20
0.0
 30
0.0
  3
$MODEL_SPACE
  1

  0
ENDBLK
  5
21
  8
0
  0
BLOCK
 67
     1
  8
0
  2
$PAPER_SPACE
 70
     0
 10
0.0
 20
0.0
 30
0.0
  3
$PAPER_SPACE
  1

  0
ENDBLK
  5
1D
 67
     1
  8
0
  0
ENDSEC
  0
SECTION
  2
ENTITIES
  0
ATTDEF
  5
659
  8
DEFPOINTS
 10
341.60155121731009
 20
-5.5696060129280802
 30
0.0
 40
0.001
  1
K-2881
  3

  2
MODELNUMBER
 70
     0
1001
ACDBATTR
1070
     0
1070
     1
  0
ATTDEF
  5
65A
  8
DEFPOINTS
 10
341.60155121731009
 20
-5.5712726795947454
 30
0.0
 40
0.001
  1
VERTICYL
  3

  2
TRADENAME
 70
     0
1001
ACDBATTR
1070
     0
1070
     1
  0
ATTDEF
  5
65B
  8
DEFPOINTS
 10
341.60155121731009
 20
-5.5729393462614096
 30
0.0
 40
0.001
  1
BATHROOM SINK
  3

  2
PRODUCT
 70
     0
1001
ACDBATTR
1070
     0
1070
     1
  0
ATTDEF
  5
65C
  8
DEFPOINTS
 10
341.60155121731009
 20
-5.5746060129280748
 30
0.0
 40
0.001
  1
VITREOUS CHINA 
  3

  2
MATERIAL
 70
     0
1001
ACDBATTR
1070
     0
1070
     1
  0
LINE
  5
13B7
  8
0
 10
332.06051021246083
 20
-6.010670138240493
 30
0.0
 11
332.03728622086078
 21
-5.5675299808404928
 31
0.0
  0
LINE
  5
13B8
  8
0
 10
333.03177199136081
 20
-9.7244453743404922
 30
0.0
 11
332.65870883766081
 21
-6.1749865652404932
 31
0.0
  0
LINE
  5
13B9
  8
0
 10
340.25230328036082
 20
-12.25823867494049
 30
0.0
 11
340.13189035396078
 21
-10.881912627840491
 31
0.0
  0
LINE
  5
13BA
  8
0
 10
340.1620666059913
 20
-10.63427597829264
 30
0.0
 11
340.15978012326082
 21
-6.1863119421404926
 31
0.0
  0
LINE
  5
13BB
  8
0
 10
340.37682761761079
 20
-12.37234420714049
 30
0.0
 11
342.83774482411081
 21
-12.37234420714049
 31
0.0
  0
LINE
  5
13BC
  8
0
 10
343.05256058346077
 20
-10.632645863040491
 30
0.0
 11
343.05479232126078
 21
-6.1863119421404926
 31
0.0
  0
LINE
  5
13BD
  8
0
 10
342.96226916136078
 20
-12.25823867494049
 30
0.0
 11
343.0826820878608
 21
-10.881912627840491
 31
0.0
  0
LINE
  5
13BE
  8
0
 10
343.77343712356083
 20
-10.769913344140489
 30
0.0
 11
349.39136415716081
 21
-10.47549026414049
 31
0.0
  0
LINE
  5
13BF
  8
0
 10
343.77343712356083
 20
-10.769913344140489
 30
0.0
 11
343.7077662819608
 21
-10.77059857674049
 31
0.0
  0
LINE
  5
13C0
  8
0
 10
339.44113531826082
 20
-10.769913344140489
 30
0.0
 11
339.46738351676078
 21
-10.77059857674049
 31
0.0
  0
LINE
  5
13C1
  8
0
 10
339.44113531826082
 20
-10.769913344140489
 30
0.0
 11
333.82321678146081
 21
-10.475490704440491
 31
0.0
  0
LINE
  5
13C2
  8
0
 10
339.46738351676078
 20
-10.77059857674049
 30
0.0
 11
340.08570262645532
 21
-10.77059857674049
 31
0.0
  0
LINE
  5
13C3
  8
0
 10
343.12886981526628
 20
-10.77059857674049
 30
0.0
 11
343.7077662819608
 21
-10.77059857674049
 31
0.0
  0
LINE
  5
13C4
  8
0
 10
332.12042798450778
 20
-6.0675299808404928
 30
0.0
 11
340.88384220376082
 21
-6.0675299808404928
 31
0.0
  0
LINE
  5
13C5
  8
0
 10
342.33073023796078
 20
-6.0675299808404928
 30
0.0
 11
351.0941444573138
 21
-6.0675299808404928
 31
0.0
  0
LINE
  5
13C6
  8
0
 10
351.17728622086082
 20
-5.5675299808404928
 30
0.0
 11
332.03728622086078
 21
-5.5675299808404928
 31
0.0
  0
LINE
  5
13C7
  8
0
 10
350.18280045036079
 20
-9.7244453743404922
 30
0.0
 11
350.55586360416078
 21
-6.1749865652404932
 31
0.0
  0
LINE
  5
13C8
  8
0
 10
351.15406222936082
 20
-6.010670138240493
 30
0.0
 11
351.17728622086082
 21
-5.5675299808404928
 31
0.0
  0
ARC
  5
13C9
  8
0
 10
332.53936621016078
 20
-6.187529980840492
 30
0.0
 40
0.12
 50
6.0000000037999168
 51
90.0
  0
ARC
  5
13CA
  8
0
 10
332.12042798456082
 20
-6.0075299808404932
 30
0.0
 40
0.06
 50
183.0
 51
269.999999949401
  0
ARC
  5
13CB
  8
0
 10
339.93265141426082
 20
-10.899343776440491
 30
0.0
 40
0.2
 50
5.0000000000999574
 51
40.070222287106851
  0
ARC
  5
13CC
  8
0
 10
340.37682761766081
 20
-12.24734420714049
 30
0.0
 40
0.125
 50
184.99999999999989
 51
270.0
  0
ARC
  5
13CD
  8
0
 10
343.2819210274609
 20
-10.899343776440491
 30
0.0
 40
0.2
 50
139.92977771289361
 51
174.99999999990001
  0
ARC
  5
13CE
  8
0
 10
342.83774482416078
 20
-12.24734420714049
 30
0.0
 40
0.125
 50
270.0
 51
354.99999999999989
  0
ARC
  5
13CF
  8
0
 10
350.67520623156082
 20
-6.187529980840492
 30
0.0
 40
0.12
 50
90.0
 51
173.9999999962001
  0
ARC
  5
13D0
  8
0
 10
351.09414445726082
 20
-6.0075299808404932
 30
0.0
 40
0.06
 50
270.000000050599
 51
357.0
  0
ARC
  5
13D1
  8
0
 10
336.8467880306269
 20
-115.9742990871016
 30
0.0
 40
109.9808878931872
 50
87.519189895014534
 51
87.896378678388956
  0
ARC
  5
13D2
  8
0
 10
345.53599395033962
 20
-95.194119596729308
 30
0.0
 40
89.184206516764789
 50
92.059643165263026
 51
92.524788261336084
  0
ARC
  5
13D3
  8
0
 10
340.04057282365062
 20
-6.1867380252297268
 30
0.0
 40
0.1192080610829334
 50
0.2047916432357995
 51
89.969677772296663
  0
ARC
  5
13D4
  8
0
 10
343.1739995259166
 20
-6.186737929984262
 30
0.0
 40
0.1192079657886935
 50
90.030277911017038
 51
179.79525397185739
  0
ARC
  5
13D5
  8
0
 10
341.5803934566668
 20
-10.113161180526991
 30
0.0
 40
1.5110300089003821
 50
200.17409776394319
 51
271.01978335003332
  0
ARC
  5
13D6
  8
0
 10
341.63460241825982
 20
-10.114555779199501
 30
0.0
 40
1.509643233759083
 50
268.96320653388682
 51
339.92883115057703
  0
ARC
  5
13D7
  8
0
 10
333.86687381917829
 20
-9.6369539588760755
 30
0.0
 40
0.8396724424464762
 50
185.98090880437019
 51
267.01968025967261
  0
ARC
  5
13D8
  8
0
 10
349.34534956072878
 20
-9.6344785662300492
 30
0.0
 40
0.8422695643955126
 50
273.13172351289671
 51
353.86826816336912
  0
ENDSEC
  0
EOF
