  0
SECTION
  2
HEADER
  9
$ACADVER
  1
AC1009
  9
$INSBASE
 10
368.71599751928682
 20
-15.980947577521251
 30
0.0
  9
$EXTMIN
 10
359.14599751928682
 20
-23.94005216036501
 30
0.0
  9
$EXTMAX
 10
378.2859975192867
 20
-8.0059475775212317
 30
0.0
  9
$LIMMIN
 10
0.0
 20
0.0
  9
$LIMMAX
 10
11.692913385800001
 20
8.2677165353999982
  9
$ORTHOMODE
 70
     1
  9
$REGENMODE
 70
     1
  9
$FILLMODE
 70
     1
  9
$QTEXTMODE
 70
     0
  9
$MIRRTEXT
 70
     0
  9
$DRAGMODE
 70
     2
  9
$LTSCALE
 40
0.6431102362
  9
$OSMODE
 70
  3071
  9
$ATTMODE
 70
     1
  9
$TEXTSIZE
 40
0.2
  9
$TRACEWID
 40
0.05
  9
$TEXTSTYLE
  7
STANDARD
  9
$CLAYER
  8
0
  9
$CELTYPE
  6
BYLAYER
  9
$CECOLOR
 62
   256
  9
$DIMSCALE
 40
1.0
  9
$DIMASZ
 40
0.1875
  9
$DIMEXO
 40
0.0625
  9
$DIMDLI
 40
0.4443307087
  9
$DIMRND
 40
0.0
  9
$DIMDLE
 40
0.0
  9
$DIMEXE
 40
0.125
  9
$DIMTP
 40
0.01
  9
$DIMTM
 40
0.01
  9
$DIMTXT
 40
1.0
  9
$DIMCEN
 40
0.1052362205
  9
$DIMTSZ
 40
0.0
  9
$DIMTOL
 70
     1
  9
$DIMLIM
 70
     0
  9
$DIMTIH
 70
     1
  9
$DIMTOH
 70
     1
  9
$DIMSE1
 70
     0
  9
$DIMSE2
 70
     0
  9
$DIMTAD
 70
     0
  9
$DIMZIN
 70
     0
  9
$DIMBLK
  1

  9
$DIMASO
 70
     1
  9
$DIMSHO
 70
     1
  9
$DIMPOST
  1
\X
  9
$DIMAPOST
  1

  9
$DIMALT
 70
     1
  9
$DIMALTD
 70
     2
  9
$DIMALTF
 40
25.399999999999999
  9
$DIMLFAC
 40
1.0
  9
$DIMTOFL
 70
     0
  9
$DIMTVP
 40
0.0
  9
$DIMTIX
 70
     0
  9
$DIMSOXD
 70
     0
  9
$DIMSAH
 70
     0
  9
$DIMBLK1
  1

  9
$DIMBLK2
  1

  9
$DIMSTYLE
  2
STANDARD
  9
$DIMCLRD
 70
     0
  9
$DIMCLRE
 70
     0
  9
$DIMCLRT
 70
     0
  9
$DIMTFAC
 40
1.0
  9
$DIMGAP
 40
0.09
  9
$LUNITS
 70
     2
  9
$LUPREC
 70
     4
  9
$SKETCHINC
 40
0.1
  9
$FILLETRAD
 40
0.0
  9
$AUNITS
 70
     0
  9
$AUPREC
 70
     0
  9
$MENU
  1
.
  9
$ELEVATION
 40
0.0
  9
$PELEVATION
 40
0.0
  9
$THICKNESS
 40
0.0
  9
$LIMCHECK
 70
     0
  9
$BLIPMODE
 70
     0
  9
$CHAMFERA
 40
0.0
  9
$CHAMFERB
 40
0.0
  9
$SKPOLY
 70
     0
  9
$TDCREATE
 40
2458306.609456806
  9
$TDUPDATE
 40
2458326.5381708448
  9
$TDINDWG
 40
0.0482634491
  9
$TDUSRTIMER
 40
0.0482634491
  9
$USRTIMER
 70
     1
  9
$ANGBASE
 50
0.0
  9
$ANGDIR
 70
     0
  9
$PDMODE
 70
     0
  9
$PDSIZE
 40
0.3125
  9
$PLINEWID
 40
0.0
  9
$COORDS
 70
     1
  9
$SPLFRAME
 70
     0
  9
$SPLINETYPE
 70
     6
  9
$SPLINESEGS
 70
     8
  9
$ATTDIA
 70
     1
  9
$ATTREQ
 70
     1
  9
$HANDLING
 70
     1
  9
$HANDSEED
  5
15B9
  9
$SURFTAB1
 70
     6
  9
$SURFTAB2
 70
     6
  9
$SURFTYPE
 70
     6
  9
$SURFU
 70
     6
  9
$SURFV
 70
     6
  9
$UCSNAME
  2

  9
$UCSORG
 10
0.0
 20
0.0
 30
0.0
  9
$UCSXDIR
 10
1.0
 20
0.0
 30
0.0
  9
$UCSYDIR
 10
0.0
 20
1.0
 30
0.0
  9
$PUCSNAME
  2

  9
$PUCSORG
 10
0.0
 20
0.0
 30
0.0
  9
$PUCSXDIR
 10
1.0
 20
0.0
 30
0.0
  9
$PUCSYDIR
 10
0.0
 20
1.0
 30
0.0
  9
$USERI1
 70
     0
  9
$USERI2
 70
     0
  9
$USERI3
 70
     0
  9
$USERI4
 70
     0
  9
$USERI5
 70
     0
  9
$USERR1
 40
0.0
  9
$USERR2
 40
0.0
  9
$USERR3
 40
0.0
  9
$USERR4
 40
0.0
  9
$USERR5
 40
0.0
  9
$WORLDVIEW
 70
     1
  9
$SHADEDGE
 70
     3
  9
$SHADEDIF
 70
    70
  9
$TILEMODE
 70
     1
  9
$MAXACTVP
 70
    64
  9
$PLIMCHECK
 70
     0
  9
$PEXTMIN
 10
1.0000000000000000E+020
 20
1.0000000000000000E+020
 30
1.0000000000000000E+020
  9
$PEXTMAX
 10
-1.0000000000000000E+020
 20
-1.0000000000000000E+020
 30
-1.0000000000000000E+020
  9
$PLIMMIN
 10
0.0
 20
0.0
  9
$PLIMMAX
 10
12.0
 20
9.0
  9
$UNITMODE
 70
     0
  9
$VISRETAIN
 70
     1
  9
$PLINEGEN
 70
     0
  9
$PSLTSCALE
 70
     1
  0
ENDSEC
  0
SECTION
  2
TABLES
  0
TABLE
  2
VPORT
 70
     1
  0
VPORT
  2
*ACTIVE
 70
     0
 10
0.0
 20
0.0
 11
1.0
 21
1.0
 12
0.0
 22
0.0
 13
0.0
 23
0.0
 14
1.0
 24
1.0
 15
0.0
 25
0.0
 16
0.0
 26
0.0
 36
70.116414679570553
 17
368.71599751928682
 27
-15.98094757752124
 37
0.0
 40
24.914188364919859
 41
2.1006711409395971
 42
50.0
 43
0.0
 44
0.0
 50
0.0
 51
0.0
 71
     0
 72
   100
 73
     1
 74
     1
 75
     0
 76
     0
 77
     0
 78
     0
  0
ENDTAB
  0
TABLE
  2
LTYPE
 70
     2
  0
LTYPE
  2
CONTINUOUS
 70
     0
  3
Solid line
 72
    65
 73
     0
 40
0.0
  0
LTYPE
  2
PHANTOM2
 70
     0
  3
___ _ _ ___ _ _ ___ _ _ ___ _ _
 72
    65
 73
     6
 40
1.25
 49
0.625
 49
-0.125
 49
0.125
 49
-0.125
 49
0.125
 49
-0.125
  0
ENDTAB
  0
TABLE
  2
LAYER
 70
     2
  0
LAYER
  2
0
 70
     0
 62
   255
  6
CONTINUOUS
  0
LAYER
  2
DEFPOINTS
 70
     0
 62
     7
  6
CONTINUOUS
  0
ENDTAB
  0
TABLE
  2
STYLE
 70
     1
  0
STYLE
  2
STANDARD
 70
     0
 40
0.0
 41
0.8
 50
0.0
 71
     0
 42
0.2
  3
txt
  4

  0
ENDTAB
  0
TABLE
  2
VIEW
 70
     0
  0
ENDTAB
  0
TABLE
  2
UCS
 70
     0
  0
ENDTAB
  0
TABLE
  2
APPID
 70
     9
  0
APPID
  2
ACAD
 70
     0
  0
APPID
  2
ACAD_MLEADERVER
 70
     0
  0
APPID
  2
ACAD_EXEMPT_FROM_CAD_STANDARDS
 70
     0
  0
APPID
  2
ACAD_DSTYLE_DIMJAG
 70
     0
  0
APPID
  2
ACAD_DSTYLE_DIMTALN
 70
     0
  0
APPID
  2
ACAD_NAV_VCDISPLAY
 70
     0
  0
APPID
  2
ACAECLAYERSTANDARD
 70
     0
  0
APPID
  2
ACCMTRANSPARENCY
 70
     0
  0
APPID
  2
ACDBATTR
 70
     0
  0
ENDTAB
  0
TABLE
  2
DIMSTYLE
 70
     1
  0
DIMSTYLE
  2
STANDARD
 70
     0
  3

  4

  5

  6

  7

 40
1.0
 41
0.1875
 42
0.0625
 43
0.38
 44
0.125
 45
0.0
 46
0.0
 47
0.01
 48
0.01
140
0.15625
141
0.09
142
0.0
143
25.399999999999999
144
1.0
145
0.0
146
1.0
147
0.09
 71
     1
 72
     0
 73
     1
 74
     1
 75
     0
 76
     0
 77
     0
 78
     4
170
     0
171
     2
172
     0
173
     0
174
     0
175
     0
176
     0
177
     0
178
     0
  0
ENDTAB
  0
ENDSEC
  0
SECTION
  2
BLOCKS
  0
BLOCK
  8
0
  2
$MODEL_SPACE
 70
     0
 10
0.0
 20
0.0
 30
0.0
  3
$MODEL_SPACE
  1

  0
ENDBLK
  5
21
  8
0
  0
BLOCK
 67
     1
  8
0
  2
$PAPER_SPACE
 70
     0
 10
0.0
 20
0.0
 30
0.0
  3
$PAPER_SPACE
  1

  0
ENDBLK
  5
1D
 67
     1
  8
0
  0
ENDSEC
  0
SECTION
  2
ENTITIES
  0
ATTDEF
  5
659
  8
DEFPOINTS
 10
368.71243911948608
 20
-15.97545074736705
 30
0.0
 40
0.001
  1
K-2881
  3

  2
MODELNUMBER
 70
     0
1001
ACDBATTR
1070
     0
1070
     1
  0
ATTDEF
  5
65A
  8
DEFPOINTS
 10
368.71243911948608
 20
-15.977117414033721
 30
0.0
 40
0.001
  1
VERTICYL
  3

  2
TRADENAME
 70
     0
1001
ACDBATTR
1070
     0
1070
     1
  0
ATTDEF
  5
65B
  8
DEFPOINTS
 10
368.71243911948608
 20
-15.978784080700381
 30
0.0
 40
0.001
  1
BATHROOM SINK
  3

  2
PRODUCT
 70
     0
1001
ACDBATTR
1070
     0
1070
     1
  0
ATTDEF
  5
65C
  8
DEFPOINTS
 10
368.71243911948608
 20
-15.980450747367041
 30
0.0
 40
0.001
  1
VITREOUS CHINA 
  3

  2
MATERIAL
 70
     0
1001
ACDBATTR
1070
     0
1070
     1
  0
LINE
  5
148B
  8
0
 10
368.60922673678681
 20
-23.324277806021261
 30
0.0
 11
368.60922673678681
 21
-23.162819371121248
 31
0.0
  0
LINE
  5
148C
  8
0
 10
368.60922673678681
 20
-8.0490757839212517
 30
0.0
 11
368.60922673678681
 21
-8.0059475775212512
 31
0.0
  0
LINE
  5
148D
  8
0
 10
368.82276830178671
 20
-8.0059475775212512
 30
0.0
 11
368.82276830178671
 21
-8.0490757839212517
 31
0.0
  0
LINE
  5
148E
  8
0
 10
368.82276830178671
 20
-23.162819371121248
 30
0.0
 11
368.82276830178671
 21
-23.324277806021261
 31
0.0
  0
LINE
  5
148F
  8
0
 10
366.09822174588669
 20
-8.0059475775212512
 30
0.0
 11
371.33377329268671
 21
-8.0059475775212317
 31
0.0
  0
ARC
  5
1490
  8
0
 10
368.71572543291143
 20
-18.982096656216989
 30
0.0
 40
9.9101997476698607
 50
89.998426938718836
 51
124.61880698182721
  0
ARC
  5
1491
  8
0
 10
364.67658365178681
 20
-24.953905427721249
 30
0.0
 40
2.0
 50
61.765108024401322
 51
72.352688206399847
  0
ARC
  5
1492
  8
0
 10
368.71558610968668
 20
-12.23066337832125
 30
0.0
 40
9.9093775060000002
 50
235.37881151840011
 51
270.00237876089989
  0
ARC
  5
1493
  8
0
 10
366.39599751928671
 20
-15.605947577521251
 30
0.0
 40
7.25
 50
124.7080492725006
 51
235.2919507274994
  0
ARC
  5
1494
  8
0
 10
366.39599751928711
 20
-15.605947577521439
 30
0.0
 40
6.2264705372003748
 50
124.7080203234014
 51
235.2919801891033
  0
ARC
  5
1495
  8
0
 10
366.38671586917621
 20
-15.60592853445065
 30
0.0
 40
5.8086398689128877
 50
124.6325156881842
 51
235.36735063538049
  0
ARC
  5
1496
  8
0
 10
366.09822174588669
 20
-10.005947577521249
 30
0.0
 40
2.0
 50
90.0
 51
106.3044753265016
  0
ARC
  5
1497
  8
0
 10
368.71599751928682
 20
-18.955447577521252
 30
0.0
 40
11.3245
 50
55.29195072749939
 51
73.695524673498426
  0
ARC
  5
1498
  8
0
 10
368.71599751928682
 20
-18.955447577521252
 30
0.0
 40
11.3245
 50
106.3044753265016
 51
124.7080492725006
  0
ARC
  5
1499
  8
0
 10
368.71599751928682
 20
-18.9554475775195
 30
0.0
 40
10.300970537198239
 50
55.291968225907482
 51
124.7080317740925
  0
ARC
  5
149A
  8
0
 10
368.71626960547133
 20
-18.982096657471089
 30
0.0
 40
9.9101997489239295
 50
55.381193021311361
 51
90.001573071778125
  0
ARC
  5
149B
  8
0
 10
372.75541138678682
 20
-24.953905427721249
 30
0.0
 40
2.0
 50
107.6473117936001
 51
118.2348919755986
  0
ARC
  5
149C
  8
0
 10
368.71599751928682
 20
-23.324277806021261
 30
0.0
 40
0.1067707825
 50
180.0
 51
0.0
  0
ARC
  5
149D
  8
0
 10
368.71599751928682
 20
-23.162819371121248
 30
0.0
 40
0.1067707825
 50
0.0
 51
180.0
  0
ARC
  5
149E
  8
0
 10
368.71599751928682
 20
-12.25644757752125
 30
0.0
 40
11.3245
 50
287.6473117934018
 51
304.7080492725006
  0
ARC
  5
149F
  8
0
 10
368.71599751928682
 20
-12.25644757752125
 30
0.0
 40
11.3245
 50
235.2919507274994
 51
252.3526882065982
  0
ARC
  5
14A0
  8
0
 10
368.71599751928682
 20
-12.25644757752125
 30
0.0
 40
10.3009705372
 50
235.29196853569999
 51
304.70803146429989
  0
ARC
  5
14A1
  8
0
 10
368.71648669112062
 20
-12.231174329050431
 30
0.0
 40
9.9088665588050286
 50
269.99717147341352
 51
304.62249687296003
  0
ARC
  5
14A2
  8
0
 10
371.03599751928681
 20
-15.605947577521251
 30
0.0
 40
7.25
 50
304.7080492725006
 51
55.29195072749939
  0
ARC
  5
14A3
  8
0
 10
371.03599751928641
 20
-15.60594757752145
 30
0.0
 40
6.226470537200381
 50
304.7080198108967
 51
55.291979676598622
  0
ARC
  5
14A4
  8
0
 10
371.04533278958672
 20
-15.60590040262125
 30
0.0
 40
5.8085862489000002
 50
304.63205629659831
 51
55.36776180340101
  0
ARC
  5
14A5
  8
0
 10
371.33377329268671
 20
-10.005947577521249
 30
0.0
 40
2.0
 50
73.695524673498426
 51
90.0
  0
ARC
  5
14A6
  8
0
 10
368.71599751928682
 20
-8.0490757839212517
 30
0.0
 40
0.1067707825
 50
180.0
 51
0.0
  0
ARC
  5
14A7
  8
0
 10
368.71599751928682
 20
-17.312646675529081
 30
0.0
 40
6.643300901992176
 50
242.24978795731141
 51
297.75021204268859
  0
ARC
  5
14A8
  8
0
 10
368.71203557405539
 20
-19.828113277342919
 30
0.0
 40
2.676312521138287
 50
261.07879680276523
 51
279.57729548314342
  0
ARC
  5
14A9
  8
0
 10
368.70588785469511
 20
-28.09649978382398
 30
0.0
 40
5.6970719847794218
 50
85.534098457310094
 51
93.944858246408785
  0
ARC
  5
14AA
  8
0
 10
368.30391104118991
 20
-22.338163986208869
 30
0.0
 40
0.1340633002785398
 50
229.330357922052
 51
267.04667361883418
  0
ARC
  5
14AB
  8
0
 10
368.31449560844612
 20
-22.60457461727664
 30
0.0
 40
0.1916496492452131
 50
90.163139519149908
 51
120.7374865830339
  0
ARC
  5
14AC
  8
0
 10
369.15025253980889
 20
-22.520195415153388
 30
0.0
 40
0.1034732284839078
 50
50.941375594323851
 51
90.419559734279929
  0
ARC
  5
14AD
  8
0
 10
369.1467422601026
 20
-22.368989228884249
 30
0.0
 40
0.0987021576280787
 50
276.14926539950028
 51
314.11798199074661
  0
CIRCLE
  5
14AE
  8
0
 10
368.71590355208667
 20
-15.605947577521251
 30
0.0
 40
0.7705394763000008
  0
CIRCLE
  5
14AF
  8
0
 10
368.71590355208667
 20
-15.605947577521251
 30
0.0
 40
1.0624954376999991
  0
ENDSEC
  0
EOF
