  0
SECTION
  2
HEADER
  9
$ACADVER
  1
AC1009
  9
$INSBASE
 10
379.3325890468422
 20
-4.2876099732254369
 30
0.0
  9
$EXTMIN
 10
371.35758904684229
 20
-11.09242419952543
 30
0.0
  9
$EXTMAX
 10
387.30758904684222
 20
-4.27420256017386
 30
0.0
  9
$LIMMIN
 10
0.0
 20
0.0
  9
$LIMMAX
 10
11.692913385800001
 20
8.2677165353999982
  9
$ORTHOMODE
 70
     1
  9
$REGENMODE
 70
     1
  9
$FILLMODE
 70
     1
  9
$QTEXTMODE
 70
     0
  9
$MIRRTEXT
 70
     0
  9
$DRAGMODE
 70
     2
  9
$LTSCALE
 40
0.6431102362
  9
$OSMODE
 70
  3071
  9
$ATTMODE
 70
     1
  9
$TEXTSIZE
 40
0.2
  9
$TRACEWID
 40
0.05
  9
$TEXTSTYLE
  7
STANDARD
  9
$CLAYER
  8
0
  9
$CELTYPE
  6
BYLAYER
  9
$CECOLOR
 62
   256
  9
$DIMSCALE
 40
1.0
  9
$DIMASZ
 40
0.1875
  9
$DIMEXO
 40
0.0625
  9
$DIMDLI
 40
0.4443307087
  9
$DIMRND
 40
0.0
  9
$DIMDLE
 40
0.0
  9
$DIMEXE
 40
0.125
  9
$DIMTP
 40
0.01
  9
$DIMTM
 40
0.01
  9
$DIMTXT
 40
1.0
  9
$DIMCEN
 40
0.1052362205
  9
$DIMTSZ
 40
0.0
  9
$DIMTOL
 70
     1
  9
$DIMLIM
 70
     0
  9
$DIMTIH
 70
     1
  9
$DIMTOH
 70
     1
  9
$DIMSE1
 70
     0
  9
$DIMSE2
 70
     0
  9
$DIMTAD
 70
     0
  9
$DIMZIN
 70
     0
  9
$DIMBLK
  1

  9
$DIMASO
 70
     1
  9
$DIMSHO
 70
     1
  9
$DIMPOST
  1
\X
  9
$DIMAPOST
  1

  9
$DIMALT
 70
     1
  9
$DIMALTD
 70
     2
  9
$DIMALTF
 40
25.399999999999999
  9
$DIMLFAC
 40
1.0
  9
$DIMTOFL
 70
     0
  9
$DIMTVP
 40
0.0
  9
$DIMTIX
 70
     0
  9
$DIMSOXD
 70
     0
  9
$DIMSAH
 70
     0
  9
$DIMBLK1
  1

  9
$DIMBLK2
  1

  9
$DIMSTYLE
  2
STANDARD
  9
$DIMCLRD
 70
     0
  9
$DIMCLRE
 70
     0
  9
$DIMCLRT
 70
     0
  9
$DIMTFAC
 40
1.0
  9
$DIMGAP
 40
0.09
  9
$LUNITS
 70
     2
  9
$LUPREC
 70
     4
  9
$SKETCHINC
 40
0.1
  9
$FILLETRAD
 40
0.0
  9
$AUNITS
 70
     0
  9
$AUPREC
 70
     0
  9
$MENU
  1
.
  9
$ELEVATION
 40
0.0
  9
$PELEVATION
 40
0.0
  9
$THICKNESS
 40
0.0
  9
$LIMCHECK
 70
     0
  9
$BLIPMODE
 70
     0
  9
$CHAMFERA
 40
0.0
  9
$CHAMFERB
 40
0.0
  9
$SKPOLY
 70
     0
  9
$TDCREATE
 40
2458306.609456806
  9
$TDUPDATE
 40
2458326.593060683
  9
$TDINDWG
 40
0.0481803704
  9
$TDUSRTIMER
 40
0.0481803704
  9
$USRTIMER
 70
     1
  9
$ANGBASE
 50
0.0
  9
$ANGDIR
 70
     0
  9
$PDMODE
 70
     0
  9
$PDSIZE
 40
0.3125
  9
$PLINEWID
 40
0.0
  9
$COORDS
 70
     1
  9
$SPLFRAME
 70
     0
  9
$SPLINETYPE
 70
     6
  9
$SPLINESEGS
 70
     8
  9
$ATTDIA
 70
     1
  9
$ATTREQ
 70
     1
  9
$HANDLING
 70
     1
  9
$HANDSEED
  5
1630
  9
$SURFTAB1
 70
     6
  9
$SURFTAB2
 70
     6
  9
$SURFTYPE
 70
     6
  9
$SURFU
 70
     6
  9
$SURFV
 70
     6
  9
$UCSNAME
  2

  9
$UCSORG
 10
0.0
 20
0.0
 30
0.0
  9
$UCSXDIR
 10
1.0
 20
0.0
 30
0.0
  9
$UCSYDIR
 10
0.0
 20
1.0
 30
0.0
  9
$PUCSNAME
  2

  9
$PUCSORG
 10
0.0
 20
0.0
 30
0.0
  9
$PUCSXDIR
 10
1.0
 20
0.0
 30
0.0
  9
$PUCSYDIR
 10
0.0
 20
1.0
 30
0.0
  9
$USERI1
 70
     0
  9
$USERI2
 70
     0
  9
$USERI3
 70
     0
  9
$USERI4
 70
     0
  9
$USERI5
 70
     0
  9
$USERR1
 40
0.0
  9
$USERR2
 40
0.0
  9
$USERR3
 40
0.0
  9
$USERR4
 40
0.0
  9
$USERR5
 40
0.0
  9
$WORLDVIEW
 70
     1
  9
$SHADEDGE
 70
     3
  9
$SHADEDIF
 70
    70
  9
$TILEMODE
 70
     1
  9
$MAXACTVP
 70
    64
  9
$PLIMCHECK
 70
     0
  9
$PEXTMIN
 10
1.0000000000000000E+020
 20
1.0000000000000000E+020
 30
1.0000000000000000E+020
  9
$PEXTMAX
 10
-1.0000000000000000E+020
 20
-1.0000000000000000E+020
 30
-1.0000000000000000E+020
  9
$PLIMMIN
 10
0.0
 20
0.0
  9
$PLIMMAX
 10
12.0
 20
9.0
  9
$UNITMODE
 70
     0
  9
$VISRETAIN
 70
     1
  9
$PLINEGEN
 70
     0
  9
$PSLTSCALE
 70
     1
  0
ENDSEC
  0
SECTION
  2
TABLES
  0
TABLE
  2
VPORT
 70
     1
  0
VPORT
  2
*ACTIVE
 70
     0
 10
0.0
 20
0.0
 11
1.0
 21
1.0
 12
0.0
 22
0.0
 13
0.0
 23
0.0
 14
1.0
 24
1.0
 15
0.0
 25
0.0
 16
0.0
 26
0.0
 36
48.820320964337469
 17
379.3325890468422
 27
-7.6833133798496478
 37
0.0
 40
17.346199766038659
 41
2.1006711409395971
 42
50.0
 43
0.0
 44
0.0
 50
0.0
 51
0.0
 71
     0
 72
   100
 73
     1
 74
     1
 75
     0
 76
     0
 77
     0
 78
     0
  0
ENDTAB
  0
TABLE
  2
LTYPE
 70
     2
  0
LTYPE
  2
CONTINUOUS
 70
     0
  3
Solid line
 72
    65
 73
     0
 40
0.0
  0
LTYPE
  2
PHANTOM2
 70
     0
  3
___ _ _ ___ _ _ ___ _ _ ___ _ _
 72
    65
 73
     6
 40
1.25
 49
0.625
 49
-0.125
 49
0.125
 49
-0.125
 49
0.125
 49
-0.125
  0
ENDTAB
  0
TABLE
  2
LAYER
 70
     2
  0
LAYER
  2
0
 70
     0
 62
   255
  6
CONTINUOUS
  0
LAYER
  2
DEFPOINTS
 70
     0
 62
     7
  6
CONTINUOUS
  0
ENDTAB
  0
TABLE
  2
STYLE
 70
     1
  0
STYLE
  2
STANDARD
 70
     0
 40
0.0
 41
0.8
 50
0.0
 71
     0
 42
0.2
  3
txt
  4

  0
ENDTAB
  0
TABLE
  2
VIEW
 70
     0
  0
ENDTAB
  0
TABLE
  2
UCS
 70
     0
  0
ENDTAB
  0
TABLE
  2
APPID
 70
     9
  0
APPID
  2
ACAD
 70
     0
  0
APPID
  2
ACAD_MLEADERVER
 70
     0
  0
APPID
  2
ACAD_EXEMPT_FROM_CAD_STANDARDS
 70
     0
  0
APPID
  2
ACAD_DSTYLE_DIMJAG
 70
     0
  0
APPID
  2
ACAD_DSTYLE_DIMTALN
 70
     0
  0
APPID
  2
ACAD_NAV_VCDISPLAY
 70
     0
  0
APPID
  2
ACAECLAYERSTANDARD
 70
     0
  0
APPID
  2
ACCMTRANSPARENCY
 70
     0
  0
APPID
  2
ACDBATTR
 70
     0
  0
ENDTAB
  0
TABLE
  2
DIMSTYLE
 70
     1
  0
DIMSTYLE
  2
STANDARD
 70
     0
  3

  4

  5

  6

  7

 40
1.0
 41
0.1875
 42
0.0625
 43
0.38
 44
0.125
 45
0.0
 46
0.0
 47
0.01
 48
0.01
140
0.15625
141
0.09
142
0.0
143
25.399999999999999
144
1.0
145
0.0
146
1.0
147
0.09
 71
     1
 72
     0
 73
     1
 74
     1
 75
     0
 76
     0
 77
     0
 78
     4
170
     0
171
     2
172
     0
173
     0
174
     0
175
     0
176
     0
177
     0
178
     0
  0
ENDTAB
  0
ENDSEC
  0
SECTION
  2
BLOCKS
  0
BLOCK
  8
0
  2
$MODEL_SPACE
 70
     0
 10
0.0
 20
0.0
 30
0.0
  3
$MODEL_SPACE
  1

  0
ENDBLK
  5
21
  8
0
  0
BLOCK
 67
     1
  8
0
  2
$PAPER_SPACE
 70
     0
 10
0.0
 20
0.0
 30
0.0
  3
$PAPER_SPACE
  1

  0
ENDBLK
  5
1D
 67
     1
  8
0
  0
ENDSEC
  0
SECTION
  2
ENTITIES
  0
ATTDEF
  5
659
  8
DEFPOINTS
 10
379.32901700530709
 20
-4.275202560173863
 30
0.0
 40
0.001
  1
K-2881
  3

  2
MODELNUMBER
 70
     0
1001
ACDBATTR
1070
     0
1070
     1
  0
ATTDEF
  5
65A
  8
DEFPOINTS
 10
379.32901700530709
 20
-4.2768692268405282
 30
0.0
 40
0.001
  1
VERTICYL
  3

  2
TRADENAME
 70
     0
1001
ACDBATTR
1070
     0
1070
     1
  0
ATTDEF
  5
65B
  8
DEFPOINTS
 10
379.32901700530709
 20
-4.2785358935071933
 30
0.0
 40
0.001
  1
BATHROOM SINK
  3

  2
PRODUCT
 70
     0
1001
ACDBATTR
1070
     0
1070
     1
  0
ATTDEF
  5
65C
  8
DEFPOINTS
 10
379.32901700530709
 20
-4.2802025601738576
 30
0.0
 40
0.001
  1
VITREOUS CHINA 
  3

  2
MATERIAL
 70
     0
1001
ACDBATTR
1070
     0
1070
     1
  0
LINE
  5
1483
  8
0
 10
371.44424406864221
 20
-4.8951555461254346
 30
0.0
 11
371.83786939484219
 21
-8.6320546465254342
 31
0.0
  0
LINE
  5
1484
  8
0
 10
371.38308947834219
 20
-4.7741871921254351
 30
0.0
 11
371.35758904684229
 21
-4.287609973225436
 31
0.0
  0
LINE
  5
1485
  8
0
 10
372.2876436064422
 20
-4.7307501305254336
 30
0.0
 11
372.26551252054219
 21
-4.287609973225436
 31
0.0
  0
LINE
  5
1486
  8
0
 10
372.93552422454218
 20
-8.5162967915254342
 30
0.0
 11
372.54819506284218
 21
-4.894867543725435
 31
0.0
  0
LINE
  5
1487
  8
0
 10
378.33776497904222
 20
-10.808683807125441
 30
0.0
 11
378.35260610634219
 21
-10.97831866732543
 31
0.0
  0
LINE
  5
1488
  8
0
 10
378.47713044354231
 20
-11.09242419952543
 30
0.0
 11
380.93804765004222
 21
-11.09242419952543
 31
0.0
  0
LINE
  5
1489
  8
0
 10
378.10203383354229
 20
-10.580827706625429
 30
0.0
 11
373.28848669100421
 21
-10.32857017313113
 31
0.0
  0
LINE
  5
148A
  8
0
 10
381.18298491374219
 20
-9.6019926202254346
 30
0.0
 11
381.06257198734221
 21
-10.97831866732543
 31
0.0
  0
LINE
  5
148B
  8
0
 10
381.87373994944221
 20
-9.4899933365254352
 30
0.0
 11
385.8878327185422
 21
-9.2796236486254351
 31
0.0
  0
LINE
  5
148C
  8
0
 10
379.33018153524222
 20
-9.4899933365254352
 30
0.0
 11
381.87373994944221
 21
-9.4899933365254352
 31
0.0
  0
LINE
  5
148D
  8
0
 10
371.38547800896828
 20
-4.787609973225436
 30
0.0
 11
387.2244472831423
 21
-4.787609973225436
 31
0.0
  0
LINE
  5
148E
  8
0
 10
386.6792248267422
 20
-8.5289971408254353
 30
0.0
 11
387.06116643004219
 21
-4.8950665576254346
 31
0.0
  0
LINE
  5
148F
  8
0
 10
387.30758904684222
 20
-4.287609973225436
 30
0.0
 11
371.35758904684229
 21
-4.287609973225436
 31
0.0
  0
LINE
  5
1490
  8
0
 10
387.30758904684222
 20
-4.287609973225436
 30
0.0
 11
387.28436505524229
 21
-4.7307501306254363
 31
0.0
  0
ARC
  5
1491
  8
0
 10
373.3670027584422
 20
-8.8306076207254343
 30
0.0
 40
1.5000188602999991
 50
186.00010775619981
 51
266.9995736750995
  0
ARC
  5
1492
  8
0
 10
378.47713044354231
 20
-10.96742419952543
 30
0.0
 40
0.125
 50
184.9999999983998
 51
270.0
  0
ARC
  5
1493
  8
0
 10
371.33018110852009
 20
-4.9040525290059964
 30
0.0
 40
0.1144094190886308
 50
4.4600764115636968
 51
49.873316562855067
  0
ARC
  5
1494
  8
0
 10
381.38222385334223
 20
-9.6194237688254347
 30
0.0
 40
0.2
 50
139.67277041704361
 51
174.9999999998999
  0
ARC
  5
1495
  8
0
 10
380.93804765004222
 20
-10.96742419952543
 30
0.0
 40
0.125
 50
270.0
 51
355.0000000016002
  0
ARC
  5
1496
  8
0
 10
387.18050905754222
 20
-4.9076099732254352
 30
0.0
 40
0.12
 50
90.0
 51
174.00000000000011
  0
ARC
  5
1497
  8
0
 10
387.2244472831423
 20
-4.7276099732254346
 30
0.0
 40
0.06
 50
270.0
 51
357.00000000429992
  0
LINE
  5
1498
  8
0
 10
371.83786939484219
 20
-8.6320546465254342
 30
0.0
 11
371.87520145329489
 21
-8.9874050926967968
 31
0.0
  0
ARC
  5
1499
  8
0
 10
378.08701951592121
 20
-10.832228173467991
 30
0.0
 40
0.2518484156437824
 50
5.3642011157024747
 51
86.582200355000325
  0
ARC
  5
149A
  8
0
 10
371.44494312484011
 20
-4.770104486530701
 30
0.0
 40
0.0619882413854061
 50
183.77638155391261
 51
228.55821695278379
  0
ARC
  5
149B
  8
0
 10
385.84359672878111
 20
-8.4404861838320926
 30
0.0
 40
0.8403026285868328
 50
273.0176123961113
 51
353.9536914197991
  0
ARC
  5
149C
  8
0
 10
383.33444812980031
 20
164.4555594694562
 30
0.0
 40
173.99163627007709
 50
266.84932609761739
 51
268.68127090248851
  0
ARC
  5
149D
  8
0
 10
373.78554447604819
 20
-8.4174458895739992
 30
0.0
 40
0.8557487533072798
 50
186.63326864697959
 51
269.06183733762128
  0
ARC
  5
149E
  8
0
 10
372.42900300921281
 20
-4.9074659806184959
 30
0.0
 40
0.1198560230465526
 50
6.0336821743599423
 51
90.029282849862369
  0
ARC
  5
149F
  8
0
 10
372.34610470939811
 20
-4.7291426602020614
 30
0.0
 40
0.0584831986100455
 50
181.57503125943671
 51
268.66453185942891
  0
ENDSEC
  0
EOF
