  0
SECTION
  2
HEADER
  9
$ACADVER
  1
AC1009
  9
$INSBASE
 10
0.0
 20
0.0
 30
0.0
  9
$EXTMIN
 10
-7.8070533014461034
 20
-6.7675735865292381
 30
-0.0015258207003583
  9
$EXTMAX
 10
7.8230273345770911
 20
0.013049245572347
 30
0.0000000349246037
  9
$LIMMIN
 10
0.0
 20
0.0
  9
$LIMMAX
 10
12.0
 20
9.0
  9
$ORTHOMODE
 70
     0
  9
$REGENMODE
 70
     1
  9
$FILLMODE
 70
     1
  9
$QTEXTMODE
 70
     0
  9
$MIRRTEXT
 70
     1
  9
$DRAGMODE
 70
     2
  9
$LTSCALE
 40
1.0
  9
$OSMODE
 70
    37
  9
$ATTMODE
 70
     1
  9
$TEXTSIZE
 40
0.001
  9
$TRACEWID
 40
0.05
  9
$TEXTSTYLE
  7
STANDARD
  9
$CLAYER
  8
0
  9
$CELTYPE
  6
BYLAYER
  9
$CECOLOR
 62
     7
  9
$DIMSCALE
 40
1.0
  9
$DIMASZ
 40
0.18
  9
$DIMEXO
 40
0.0625
  9
$DIMDLI
 40
0.38
  9
$DIMRND
 40
0.0
  9
$DIMDLE
 40
0.0
  9
$DIMEXE
 40
0.18
  9
$DIMTP
 40
0.0
  9
$DIMTM
 40
0.0
  9
$DIMTXT
 40
0.18
  9
$DIMCEN
 40
0.09
  9
$DIMTSZ
 40
0.0
  9
$DIMTOL
 70
     0
  9
$DIMLIM
 70
     0
  9
$DIMTIH
 70
     1
  9
$DIMTOH
 70
     1
  9
$DIMSE1
 70
     0
  9
$DIMSE2
 70
     0
  9
$DIMTAD
 70
     0
  9
$DIMZIN
 70
     0
  9
$DIMBLK
  1

  9
$DIMASO
 70
     1
  9
$DIMSHO
 70
     0
  9
$DIMPOST
  1

  9
$DIMAPOST
  1

  9
$DIMALT
 70
     0
  9
$DIMALTD
 70
     2
  9
$DIMALTF
 40
25.399999999999999
  9
$DIMLFAC
 40
1.0
  9
$DIMTOFL
 70
     0
  9
$DIMTVP
 40
0.0
  9
$DIMTIX
 70
     0
  9
$DIMSOXD
 70
     0
  9
$DIMSAH
 70
     0
  9
$DIMBLK1
  1

  9
$DIMBLK2
  1

  9
$DIMSTYLE
  2
STANDARD
  9
$DIMCLRD
 70
     0
  9
$DIMCLRE
 70
     0
  9
$DIMCLRT
 70
     0
  9
$DIMTFAC
 40
1.0
  9
$DIMGAP
 40
0.09
  9
$LUNITS
 70
     2
  9
$LUPREC
 70
     4
  9
$SKETCHINC
 40
0.1
  9
$FILLETRAD
 40
0.0
  9
$AUNITS
 70
     0
  9
$AUPREC
 70
     0
  9
$MENU
  1
acad
  9
$ELEVATION
 40
0.0
  9
$PELEVATION
 40
0.0
  9
$THICKNESS
 40
0.0
  9
$LIMCHECK
 70
     0
  9
$BLIPMODE
 70
     0
  9
$CHAMFERA
 40
0.0
  9
$CHAMFERB
 40
0.0
  9
$SKPOLY
 70
     0
  9
$TDCREATE
 40
2455153.5904319212
  9
$TDUPDATE
 40
2455153.5954370829
  9
$TDINDWG
 40
0.0050055208
  9
$TDUSRTIMER
 40
0.0050055208
  9
$USRTIMER
 70
     1
  9
$ANGBASE
 50
0.0
  9
$ANGDIR
 70
     0
  9
$PDMODE
 70
     0
  9
$PDSIZE
 40
0.0
  9
$PLINEWID
 40
0.0
  9
$COORDS
 70
     1
  9
$SPLFRAME
 70
     0
  9
$SPLINETYPE
 70
     6
  9
$SPLINESEGS
 70
     8
  9
$ATTDIA
 70
     0
  9
$ATTREQ
 70
     1
  9
$HANDLING
 70
     1
  9
$HANDSEED
  5
8F5
  9
$SURFTAB1
 70
     6
  9
$SURFTAB2
 70
     6
  9
$SURFTYPE
 70
     6
  9
$SURFU
 70
     6
  9
$SURFV
 70
     6
  9
$UCSNAME
  2

  9
$UCSORG
 10
0.0
 20
0.0
 30
0.0
  9
$UCSXDIR
 10
1.0
 20
0.0
 30
0.0
  9
$UCSYDIR
 10
0.0
 20
1.0
 30
0.0
  9
$PUCSNAME
  2

  9
$PUCSORG
 10
0.0
 20
0.0
 30
0.0
  9
$PUCSXDIR
 10
1.0
 20
0.0
 30
0.0
  9
$PUCSYDIR
 10
0.0
 20
1.0
 30
0.0
  9
$USERI1
 70
     0
  9
$USERI2
 70
     0
  9
$USERI3
 70
     0
  9
$USERI4
 70
     0
  9
$USERI5
 70
     0
  9
$USERR1
 40
0.0
  9
$USERR2
 40
0.0
  9
$USERR3
 40
0.0
  9
$USERR4
 40
0.0
  9
$USERR5
 40
0.0
  9
$WORLDVIEW
 70
     1
  9
$SHADEDGE
 70
     3
  9
$SHADEDIF
 70
    70
  9
$TILEMODE
 70
     1
  9
$MAXACTVP
 70
    16
  9
$PLIMCHECK
 70
     0
  9
$PEXTMIN
 10
1.0000000000000000E+020
 20
1.0000000000000000E+020
 30
1.0000000000000000E+020
  9
$PEXTMAX
 10
-1.0000000000000000E+020
 20
-1.0000000000000000E+020
 30
-1.0000000000000000E+020
  9
$PLIMMIN
 10
0.0
 20
0.0
  9
$PLIMMAX
 10
12.0
 20
9.0
  9
$UNITMODE
 70
     0
  9
$VISRETAIN
 70
     0
  9
$PLINEGEN
 70
     0
  9
$PSLTSCALE
 70
     0
  0
ENDSEC
  0
SECTION
  2
TABLES
  0
TABLE
  2
VPORT
 70
     1
  0
VPORT
  2
*ACTIVE
 70
     0
 10
0.0
 20
0.0
 11
1.0
 21
1.0
 12
-0.4845168909728273
 22
-3.1397386482363179
 13
0.0
 23
0.0
 14
1.0
 24
1.0
 15
0.0
 25
0.0
 16
0.0
 26
0.0
 36
1.0
 17
0.0
 27
0.0
 37
0.0
 40
11.1343764983016
 41
1.7282913165266101
 42
50.0
 43
0.0
 44
0.0
 50
0.0
 51
0.0
 71
     0
 72
   100
 73
     1
 74
     1
 75
     0
 76
     0
 77
     0
 78
     0
  0
ENDTAB
  0
TABLE
  2
LTYPE
 70
     2
  0
LTYPE
  2
CONTINUOUS
 70
     0
  3
Solid line
 72
    65
 73
     0
 40
0.0
  0
ENDTAB
  0
TABLE
  2
LAYER
 70
     2
  0
LAYER
  2
0
 70
     0
 62
     7
  6
CONTINUOUS
  0
LAYER
  2
_SURFACE
 70
     0
 62
     7
  6
CONTINUOUS
  0
ENDTAB
  0
TABLE
  2
STYLE
 70
     1
  0
STYLE
  2
STANDARD
 70
     0
 40
0.0
 41
1.0
 50
0.0
 71
     0
 42
0.001
  3
txt
  4

  0
ENDTAB
  0
TABLE
  2
VIEW
 70
     3
  0
ENDTAB
  0
TABLE
  2
UCS
 70
     0
  0
ENDTAB
  0
TABLE
  2
APPID
 70
     5
  0
APPID
  2
ACAD
 70
     0
  0
APPID
  2
ACADANNOTATIVE
 70
     0
  0
APPID
  2
ACAD_MLEADERVER
 70
     0
  0
APPID
  2
ACDBATTR
 70
     0
  0
APPID
  2
ACAD_EXEMPT_FROM_CAD_STANDARDS
 70
     0
  0
ENDTAB
  0
TABLE
  2
DIMSTYLE
 70
     2
  0
DIMSTYLE
  2
STANDARD
 70
     0
  3

  4

  5

  6

  7

 40
1.0
 41
0.18
 42
0.0625
 43
0.38
 44
0.18
 45
0.0
 46
0.0
 47
0.0
 48
0.0
140
0.18
141
0.09
142
0.0
143
25.399999999999999
144
1.0
145
0.0
146
1.0
147
0.09
 71
     0
 72
     0
 73
     1
 74
     1
 75
     0
 76
     0
 77
     0
 78
     0
170
     0
171
     2
172
     0
173
     0
174
     0
175
     0
176
     0
177
     0
178
     0
  0
ENDTAB
  0
ENDSEC
  0
SECTION
  2
BLOCKS
  0
BLOCK
  8
0
 62
     7
  2
$MODEL_SPACE
 70
     2
 10
0.0
 20
0.0
 30
0.0
  3
$MODEL_SPACE
  1

  0
ENDBLK
  5
7D
  8
0
 62
     7
  0
BLOCK
 67
     1
  8
0
 62
     7
  2
$PAPER_SPACE
 70
     0
 10
0.0
 20
0.0
 30
0.0
  3
$PAPER_SPACE
  1

  0
ENDBLK
  5
7B
 67
     1
  8
0
 62
     7
  0
ENDSEC
  0
SECTION
  2
ENTITIES
  0
LINE
  5
41C
  8
0
  6
CONTINUOUS
 62
     7
 10
-7.7956806688499958
 20
-0.2455543389999946
 30
0.0
 11
-7.798033899549992
 21
-0.3778661112999941
 31
0.0
  0
POLYLINE
  5
41E
  8
_SURFACE
  6
CONTINUOUS
 62
     7
 66
     1
 10
0.0
 20
0.0
 30
0.0
  0
VERTEX
  5
607
  8
_SURFACE
  6
CONTINUOUS
 62
     7
 10
-7.1984471425499938
 20
-4.4920720313999851
 30
0.0
  0
VERTEX
  5
608
  8
_SURFACE
  6
CONTINUOUS
 62
     7
 10
-7.1916591281499933
 20
-4.5465057779999816
 30
0.0
  0
VERTEX
  5
609
  8
_SURFACE
  6
CONTINUOUS
 62
     7
 10
-7.1752697369499989
 20
-4.6414973988999861
 30
0.0
  0
VERTEX
  5
60A
  8
_SURFACE
  6
CONTINUOUS
 62
     7
 10
-7.1528055885499953
 20
-4.7382133076999926
 30
0.0
  0
VERTEX
  5
60B
  8
_SURFACE
  6
CONTINUOUS
 62
     7
 10
-7.1242029727499983
 20
-4.8359947099999943
 30
0.0
  0
VERTEX
  5
60C
  8
_SURFACE
  6
CONTINUOUS
 62
     7
 10
-7.089401061749995
 20
-4.9341523803999934
 30
0.0
  0
VERTEX
  5
60D
  8
_SURFACE
  6
CONTINUOUS
 62
     7
 10
-7.0483447131500014
 20
-5.0319666050999947
 30
0.0
  0
VERTEX
  5
60E
  8
_SURFACE
  6
CONTINUOUS
 62
     7
 10
-7.0009123738499994
 20
-5.1288302847999878
 30
0.0
  0
VERTEX
  5
60F
  8
_SURFACE
  6
CONTINUOUS
 62
     7
 10
-6.9470944601499971
 20
-5.2238674120999908
 30
0.0
  0
VERTEX
  5
610
  8
_SURFACE
  6
CONTINUOUS
 62
     7
 10
-6.8870786996499902
 20
-5.3159539798999873
 30
0.0
  0
VERTEX
  5
611
  8
_SURFACE
  6
CONTINUOUS
 62
     7
 10
-6.8208391578499876
 20
-5.4043935945999939
 30
0.0
  0
VERTEX
  5
612
  8
_SURFACE
  6
CONTINUOUS
 62
     7
 10
-6.748450058849996
 20
-5.4883975514999861
 30
0.0
  0
VERTEX
  5
613
  8
_SURFACE
  6
CONTINUOUS
 62
     7
 10
-6.6707713957499939
 20
-5.567076289499993
 30
0.0
  0
VERTEX
  5
614
  8
_SURFACE
  6
CONTINUOUS
 62
     7
 10
-6.5886263354500008
 20
-5.6402108399999937
 30
0.0
  0
VERTEX
  5
615
  8
_SURFACE
  6
CONTINUOUS
 62
     7
 10
-6.5027006361499948
 20
-5.707710542699985
 30
0.0
  0
VERTEX
  5
616
  8
_SURFACE
  6
CONTINUOUS
 62
     7
 10
-6.4140261416499982
 20
-5.7692279430999909
 30
0.0
  0
VERTEX
  5
617
  8
_SURFACE
  6
CONTINUOUS
 62
     7
 10
-6.3233870844499904
 20
-5.8246492674999919
 30
0.0
  0
VERTEX
  5
618
  8
_SURFACE
  6
CONTINUOUS
 62
     7
 10
-6.23143019855
 20
-5.873938451299991
 30
0.0
  0
VERTEX
  5
619
  8
_SURFACE
  6
CONTINUOUS
 62
     7
 10
-6.1389805880499893
 20
-5.916962579699983
 30
0.0
  0
VERTEX
  5
61A
  8
_SURFACE
  6
CONTINUOUS
 62
     7
 10
-6.0467292543499971
 20
-5.953677627199994
 30
0.0
  0
VERTEX
  5
61B
  8
_SURFACE
  6
CONTINUOUS
 62
     7
 10
-5.9552242035499878
 20
-5.9840956002999803
 30
0.0
  0
VERTEX
  5
61C
  8
_SURFACE
  6
CONTINUOUS
 62
     7
 10
-5.907420716449991
 20
-5.9976098013999879
 30
0.0
  0
SEQEND
  5
61D
  8
_SURFACE
  6
CONTINUOUS
 62
     7
  0
LINE
  5
41F
  8
_SURFACE
  6
CONTINUOUS
 62
     7
 10
-7.6136023414499903
 20
-0.6052366627999959
 30
0.0
 11
-7.1984471425499938
 21
-4.4920720313999851
 31
0.0
  0
LINE
  5
420
  8
0
  6
CONTINUOUS
 62
     7
 10
-6.8698882718499874
 20
-1.179891313099986
 30
0.0
 11
-6.546580430249989
 21
-4.148016980899996
 31
0.0
  0
LINE
  5
423
  8
0
  6
CONTINUOUS
 62
     7
 10
7.545720199750007
 20
0.0
 30
0.0
 11
-7.5457201997499928
 21
0.0000000000000142
 31
0.0
  0
LINE
  5
427
  8
0
  6
CONTINUOUS
 62
     7
 10
-7.6780356002499976
 20
-0.4999999999999858
 30
0.0
 11
7.6780348714500093
 21
-0.5
 31
0.0
  0
LINE
  5
42D
  8
0
  6
CONTINUOUS
 62
     7
 10
-7.5601813989499931
 20
-0.5000205010999821
 30
0.0
 11
-7.5623643033499937
 21
-0.5000000003999788
 31
0.0
  0
LINE
  5
435
  8
0
  6
CONTINUOUS
 62
     7
 10
-1.3550165405499961
 20
-6.6459287567999894
 30
0.0
 11
-1.3607738163499901
 21
-6.5803307041999943
 31
0.0
  0
LINE
  5
437
  8
0
  6
CONTINUOUS
 62
     7
 10
-0.4224339381499931
 20
-5.2975683931999811
 30
0.0
 11
-0.4224729382499959
 21
-5.2977938898999923
 31
0.0
  0
LINE
  5
438
  8
0
  6
CONTINUOUS
 62
     7
 10
-5.5298070834499953
 20
-4.9885347259999833
 30
0.0
 11
-5.5298686385499991
 21
-4.9885350237999972
 31
0.0
  0
LINE
  5
43A
  8
0
  6
CONTINUOUS
 62
     7
 10
1.1939933806500129
 20
-6.640213550699996
 30
0.0
 11
1.24675002695001
 21
-5.3758898885999988
 31
0.0
  0
POLYLINE
  5
43B
  8
0
  6
CONTINUOUS
 62
     7
 66
     1
 10
0.0
 20
0.0
 30
0.0
  0
VERTEX
  5
61E
  8
0
  6
CONTINUOUS
 62
     7
 10
1.246749325450011
 20
-5.3758898642999782
 30
0.0
  0
VERTEX
  5
61F
  8
0
  6
CONTINUOUS
 62
     7
 10
1.248837317449996
 20
-5.3542341468999828
 30
0.0
  0
VERTEX
  5
620
  8
0
  6
CONTINUOUS
 62
     7
 10
1.2537107643500029
 20
-5.3312827157999996
 30
0.0
  0
VERTEX
  5
621
  8
0
  6
CONTINUOUS
 62
     7
 10
1.261265072450001
 20
-5.3089947736999932
 30
0.0
  0
VERTEX
  5
622
  8
0
  6
CONTINUOUS
 62
     7
 10
1.2694581667500131
 20
-5.2917948139999851
 30
0.0
  0
SEQEND
  5
623
  8
0
  6
CONTINUOUS
 62
     7
  0
POLYLINE
  5
43D
  8
0
  6
CONTINUOUS
 62
     7
 66
     1
 10
0.0
 20
0.0
 30
0.0
  0
VERTEX
  5
624
  8
0
  6
CONTINUOUS
 62
     7
 10
2.0066192427500051
 20
-5.2768949691999856
 30
0.0
  0
VERTEX
  5
625
  8
0
  6
CONTINUOUS
 62
     7
 10
2.8855032019500149
 20
-5.2284656253999913
 30
0.0
  0
VERTEX
  5
626
  8
0
  6
CONTINUOUS
 62
     7
 10
3.8393148125500001
 20
-5.1580459512000081
 30
0.0
  0
VERTEX
  5
627
  8
0
  6
CONTINUOUS
 62
     7
 10
4.7978691838500112
 20
-5.0701374374000059
 30
0.0
  0
VERTEX
  5
628
  8
0
  6
CONTINUOUS
 62
     7
 10
5.7115054241500038
 20
-4.9720367960999994
 30
0.0
  0
SEQEND
  5
629
  8
0
  6
CONTINUOUS
 62
     7
  0
LINE
  5
43E
  8
0
  6
CONTINUOUS
 62
     7
 10
0.4856933032500024
 20
-5.2983309376999861
 30
0.0
 11
0.4785570989500059
 21
-5.2985928157999922
 31
0.0
  0
LINE
  5
43F
  8
0
  6
CONTINUOUS
 62
     7
 10
1.7327202697500039
 20
-5.2836212265999896
 30
0.0
 11
1.9867811131500011
 21
-5.2776041292999869
 31
0.0
  0
LINE
  5
440
  8
0
  6
CONTINUOUS
 62
     7
 10
1.4286887890500131
 20
-5.2893755434999861
 30
0.0
 11
1.7327202697500039
 21
-5.2836212265999896
 31
0.0
  0
LINE
  5
441
  8
0
  6
CONTINUOUS
 62
     7
 10
1.136194546150008
 20
-5.2935567092999909
 30
0.0
 11
1.4286887890500131
 21
-5.2893755434999861
 31
0.0
  0
LINE
  5
442
  8
0
  6
CONTINUOUS
 62
     7
 10
0.7995970050500035
 20
-5.2968490408999847
 30
0.0
 11
1.136194546150008
 21
-5.2935567092999909
 31
0.0
  0
LINE
  5
443
  8
0
  6
CONTINUOUS
 62
     7
 10
0.1117813800500045
 20
-5.2992169163999838
 30
0.0
 11
0.7995970050500035
 21
-5.2968490408999847
 31
0.0
  0
LINE
  5
444
  8
0
  6
CONTINUOUS
 62
     7
 10
-0.4224731802499946
 20
-5.2977910556999879
 30
0.0
 11
0.1117813800500045
 21
-5.2992169163999838
 31
0.0
  0
LINE
  5
445
  8
0
  6
CONTINUOUS
 62
     7
 10
-0.3681725749499947
 20
-5.2979209048999962
 30
0.0
 11
-0.3646215796499916
 21
-5.2981704058999952
 31
0.0
  0
POLYLINE
  5
446
  8
0
  6
CONTINUOUS
 62
     7
 66
     1
 10
0.0
 20
0.0
 30
0.0
  0
VERTEX
  5
62A
  8
0
  6
CONTINUOUS
 62
     7
 10
-5.5325736486499997
 20
-4.9882497228999929
 30
0.0
  0
VERTEX
  5
62B
  8
0
  6
CONTINUOUS
 62
     7
 10
-4.9536753785499883
 20
-5.0470927382999937
 30
0.0
  0
VERTEX
  5
62C
  8
0
  6
CONTINUOUS
 62
     7
 10
-4.338776588649992
 20
-5.1037203125999886
 30
0.0
  0
VERTEX
  5
62D
  8
0
  6
CONTINUOUS
 62
     7
 10
-3.7359795403499869
 20
-5.1529620243999821
 30
0.0
  0
VERTEX
  5
62E
  8
0
  6
CONTINUOUS
 62
     7
 10
-3.145453101450002
 20
-5.1948124392999944
 30
0.0
  0
VERTEX
  5
62F
  8
0
  6
CONTINUOUS
 62
     7
 10
-2.5672164948500011
 20
-5.2293446859000019
 30
0.0
  0
VERTEX
  5
630
  8
0
  6
CONTINUOUS
 62
     7
 10
-2.001250460149989
 20
-5.2567048606999833
 30
0.0
  0
VERTEX
  5
631
  8
0
  6
CONTINUOUS
 62
     7
 10
-1.4476428474499841
 20
-5.2771085382999843
 30
0.0
  0
VERTEX
  5
632
  8
0
  6
CONTINUOUS
 62
     7
 10
-0.9065773121499915
 20
-5.2908240405999862
 30
0.0
  0
VERTEX
  5
633
  8
0
  6
CONTINUOUS
 62
     7
 10
-0.4224729382499959
 20
-5.2977938898999923
 30
0.0
  0
SEQEND
  5
634
  8
0
  6
CONTINUOUS
 62
     7
  0
LINE
  5
447
  8
0
  6
CONTINUOUS
 62
     7
 10
-5.7132248423499874
 20
-4.9688435147999854
 30
0.0
 11
-5.5298686385499991
 21
-4.9885350237999972
 31
0.0
  0
LINE
  5
44A
  8
0
  6
CONTINUOUS
 62
     7
 10
-7.4756105304499982
 20
-0.5315672340999811
 30
0.0
 11
-7.1587955599499926
 21
-0.7615423741999905
 31
0.0
  0
LINE
  5
44D
  8
0
  6
CONTINUOUS
 62
     7
 10
7.4756005931500047
 20
-0.5315672340999953
 30
0.0
 11
7.1587856227500017
 21
-0.761542374100003
 31
0.0
  0
POLYLINE
  5
44E
  8
0
  6
CONTINUOUS
 62
     7
 66
     1
 10
0.0
 20
0.0
 30
0.0
  0
VERTEX
  5
635
  8
0
  6
CONTINUOUS
 62
     7
 10
5.726769295450012
 20
-4.970155788300004
 30
0.0
  0
VERTEX
  5
636
  8
0
  6
CONTINUOUS
 62
     7
 10
5.7554620418500093
 20
-4.9658818634000141
 30
0.0
  0
VERTEX
  5
637
  8
0
  6
CONTINUOUS
 62
     7
 10
5.7836538513500102
 20
-4.9607333250000059
 30
0.0
  0
VERTEX
  5
638
  8
0
  6
CONTINUOUS
 62
     7
 10
5.81132044005001
 20
-4.9547495096999929
 30
0.0
  0
VERTEX
  5
639
  8
0
  6
CONTINUOUS
 62
     7
 10
5.8384408881500027
 20
-4.947969639500001
 30
0.0
  0
VERTEX
  5
63A
  8
0
  6
CONTINUOUS
 62
     7
 10
5.8649891112500114
 20
-4.9404350781999957
 30
0.0
  0
VERTEX
  5
63B
  8
0
  6
CONTINUOUS
 62
     7
 10
5.8909458571500153
 20
-4.9321864481000111
 30
0.0
  0
VERTEX
  5
63C
  8
0
  6
CONTINUOUS
 62
     7
 10
5.9162987154500106
 20
-4.9232627207999959
 30
0.0
  0
VERTEX
  5
63D
  8
0
  6
CONTINUOUS
 62
     7
 10
5.9410351852500147
 20
-4.9137030872999921
 30
0.0
  0
VERTEX
  5
63E
  8
0
  6
CONTINUOUS
 62
     7
 10
5.965201378949998
 20
-4.9035214409999952
 30
0.0
  0
VERTEX
  5
63F
  8
0
  6
CONTINUOUS
 62
     7
 10
5.9887299498500113
 20
-4.8927778488000078
 30
0.0
  0
VERTEX
  5
640
  8
0
  6
CONTINUOUS
 62
     7
 10
6.011447841950015
 20
-4.8815949533000094
 30
0.0
  0
VERTEX
  5
641
  8
0
  6
CONTINUOUS
 62
     7
 10
6.033125320250007
 20
-4.8701506661000016
 30
0.0
  0
VERTEX
  5
642
  8
0
  6
CONTINUOUS
 62
     7
 10
6.0540052723500111
 20
-4.8583808775999984
 30
0.0
  0
VERTEX
  5
643
  8
0
  6
CONTINUOUS
 62
     7
 10
6.074609127150012
 20
-4.8460145019
 30
0.0
  0
VERTEX
  5
644
  8
0
  6
CONTINUOUS
 62
     7
 10
6.0950875744500053
 20
-4.8329455420000036
 30
0.0
  0
VERTEX
  5
645
  8
0
  6
CONTINUOUS
 62
     7
 10
6.115247782250008
 20
-4.8192811495000143
 30
0.0
  0
VERTEX
  5
646
  8
0
  6
CONTINUOUS
 62
     7
 10
6.1350715066500072
 20
-4.805027523800006
 30
0.0
  0
SEQEND
  5
647
  8
0
  6
CONTINUOUS
 62
     7
  0
LINE
  5
44F
  8
0
  6
CONTINUOUS
 62
     7
 10
5.7115055032500086
 20
-4.9720372748000008
 30
0.0
 11
5.726769295450012
 21
-4.970155788300004
 31
0.0
  0
LINE
  5
450
  8
0
  6
CONTINUOUS
 62
     7
 10
-5.7121419945499952
 20
-4.9689574399999961
 30
0.0
 11
-5.7121071511499926
 21
-4.968965023599992
 31
0.0
  0
LINE
  5
451
  8
0
  6
CONTINUOUS
 62
     7
 10
-7.6613051383499871
 20
-0.5216964484999949
 30
0.0
 11
-7.6510705931499947
 21
-0.5302312883000014
 31
0.0
  0
LINE
  5
453
  8
0
  6
CONTINUOUS
 62
     7
 10
-1.230495193249993
 20
-6.75999999999999
 30
0.0
 11
1.069050558050008
 21
-6.75999999999999
 31
0.0
  0
POLYLINE
  5
454
  8
_SURFACE
  6
CONTINUOUS
 62
     7
 66
     1
 10
0.0
 20
0.0
 30
0.0
  0
VERTEX
  5
648
  8
_SURFACE
  6
CONTINUOUS
 62
     7
 10
-5.652349746649989
 20
-6.0454237661999883
 30
0.0
  0
VERTEX
  5
649
  8
_SURFACE
  6
CONTINUOUS
 62
     7
 10
-5.1392450056499959
 20
-6.1006658561999814
 30
0.0
  0
VERTEX
  5
64A
  8
_SURFACE
  6
CONTINUOUS
 62
     7
 10
-4.5925533708499984
 20
-6.1548630044999859
 30
0.0
  0
VERTEX
  5
64B
  8
_SURFACE
  6
CONTINUOUS
 62
     7
 10
-4.06117637714999
 20
-6.2025505894999924
 30
0.0
  0
VERTEX
  5
64C
  8
_SURFACE
  6
CONTINUOUS
 62
     7
 10
-3.5389551184499899
 20
-6.2443120838999837
 30
0.0
  0
VERTEX
  5
64D
  8
_SURFACE
  6
CONTINUOUS
 62
     7
 10
-3.0262452335500001
 20
-6.2801913924999999
 30
0.0
  0
VERTEX
  5
64E
  8
_SURFACE
  6
CONTINUOUS
 62
     7
 10
-2.5291457564499922
 20
-6.310066216999985
 30
0.0
  0
VERTEX
  5
64F
  8
_SURFACE
  6
CONTINUOUS
 62
     7
 10
-2.0472152613499901
 20
-6.3343000904999931
 30
0.0
  0
VERTEX
  5
650
  8
_SURFACE
  6
CONTINUOUS
 62
     7
 10
-1.600932164949995
 20
-6.3523460854999882
 30
0.0
  0
SEQEND
  5
651
  8
_SURFACE
  6
CONTINUOUS
 62
     7
  0
POLYLINE
  5
455
  8
_SURFACE
  6
CONTINUOUS
 62
     7
 66
     1
 10
0.0
 20
0.0
 30
0.0
  0
VERTEX
  5
652
  8
_SURFACE
  6
CONTINUOUS
 62
     7
 10
-5.907420716449991
 20
-5.9976098013999879
 30
0.0
  0
VERTEX
  5
653
  8
_SURFACE
  6
CONTINUOUS
 62
     7
 10
-5.8758739654499967
 20
-6.0056537171999764
 30
0.0
  0
VERTEX
  5
654
  8
_SURFACE
  6
CONTINUOUS
 62
     7
 10
-5.8375013703499974
 20
-6.0145800246999954
 30
0.0
  0
VERTEX
  5
655
  8
_SURFACE
  6
CONTINUOUS
 62
     7
 10
-5.7994710546499979
 20
-6.0225450724999936
 30
0.0
  0
VERTEX
  5
656
  8
_SURFACE
  6
CONTINUOUS
 62
     7
 10
-5.7617336060499857
 20
-6.0296128035999876
 30
0.0
  0
VERTEX
  5
657
  8
_SURFACE
  6
CONTINUOUS
 62
     7
 10
-5.723722581349989
 20
-6.0359031306999924
 30
0.0
  0
VERTEX
  5
658
  8
_SURFACE
  6
CONTINUOUS
 62
     7
 10
-5.6855106338499999
 20
-6.041381296099984
 30
0.0
  0
VERTEX
  5
659
  8
_SURFACE
  6
CONTINUOUS
 62
     7
 10
-5.652349746649989
 20
-6.0454237661999883
 30
0.0
  0
SEQEND
  5
65A
  8
_SURFACE
  6
CONTINUOUS
 62
     7
  0
LINE
  5
456
  8
0
  6
CONTINUOUS
 62
     7
 10
-7.6510705931499947
 20
-0.5302312883000014
 30
0.0
 11
-7.6399915349499992
 21
-0.542062830799992
 31
0.0
  0
POLYLINE
  5
457
  8
0
  6
CONTINUOUS
 62
     7
 66
     1
 10
0.0
 20
0.0
 30
0.0
  0
VERTEX
  5
65B
  8
0
  6
CONTINUOUS
 62
     7
 10
-7.6399915349499992
 20
-0.542062830799992
 30
0.0
  0
VERTEX
  5
65C
  8
0
  6
CONTINUOUS
 62
     7
 10
-7.630606460249993
 20
-0.5552821026999908
 30
0.0
  0
VERTEX
  5
65D
  8
0
  6
CONTINUOUS
 62
     7
 10
-7.6230873139499939
 20
-0.5696493155999889
 30
0.0
  0
VERTEX
  5
65E
  8
0
  6
CONTINUOUS
 62
     7
 10
-7.6175730231500012
 20
-0.5849020150999991
 30
0.0
  0
VERTEX
  5
65F
  8
0
  6
CONTINUOUS
 62
     7
 10
-7.614165557749998
 20
-0.6007613572999873
 30
0.0
  0
VERTEX
  5
660
  8
0
  6
CONTINUOUS
 62
     7
 10
-7.6136022931499951
 20
-0.6052366550999864
 30
0.0
  0
SEQEND
  5
661
  8
0
  6
CONTINUOUS
 62
     7
  0
LINE
  5
45B
  8
0
  6
CONTINUOUS
 62
     7
 10
-7.079341673749993
 20
-0.8498124558999791
 30
0.0
 11
-6.8820824615499978
 21
-1.1595477032999919
 31
0.0
  0
LINE
  5
45F
  8
0
  6
CONTINUOUS
 62
     7
 10
7.0793317364500012
 20
-0.8498124558999933
 30
0.0
 11
6.8820847493499988
 21
-1.159528507600001
 31
0.0
  0
POLYLINE
  5
464
  8
0
  6
CONTINUOUS
 62
     7
 66
     1
 10
0.0
 20
0.0
 30
0.0
  0
VERTEX
  5
662
  8
0
  6
CONTINUOUS
 62
     7
 10
6.1350617095500013
 20
-4.805036477999991
 30
0.0
  0
VERTEX
  5
663
  8
0
  6
CONTINUOUS
 62
     7
 10
6.1350275815500046
 20
-4.805067669899997
 30
0.0
  0
VERTEX
  5
664
  8
0
  6
CONTINUOUS
 62
     7
 10
6.1366976711500021
 20
-4.8038435225999896
 30
0.0
  0
SEQEND
  5
665
  8
0
  6
CONTINUOUS
 62
     7
  0
POLYLINE
  5
465
  8
0
  6
CONTINUOUS
 62
     7
 66
     1
 10
0.0
 20
0.0
 30
0.0
  0
VERTEX
  5
666
  8
0
  6
CONTINUOUS
 62
     7
 10
6.1350715066500072
 20
-4.805027523800006
 30
0.0
  0
VERTEX
  5
667
  8
0
  6
CONTINUOUS
 62
     7
 10
6.1350084832500036
 20
-4.8050756011000004
 30
0.0
  0
VERTEX
  5
668
  8
0
  6
CONTINUOUS
 62
     7
 10
6.1459256330499983
 20
-4.7970174704999939
 30
0.0
  0
SEQEND
  5
669
  8
0
  6
CONTINUOUS
 62
     7
  0
LINE
  5
466
  8
0
  6
CONTINUOUS
 62
     7
 10
6.2086456577500106
 20
-4.7499857638000123
 30
0.0
 11
6.1999543553500009
 21
-4.756592413900008
 31
0.0
  0
LINE
  5
467
  8
0
  6
CONTINUOUS
 62
     7
 10
6.1459256330499983
 20
-4.7970174704999939
 30
0.0
 11
6.2000778612500076
 21
-4.7564977196000049
 31
0.0
  0
LINE
  5
46B
  8
0
  6
CONTINUOUS
 62
     7
 10
6.5466143948500104
 20
-4.1478692252000107
 30
0.0
 11
6.8699009582499988
 21
-1.179853626300001
 31
0.0
  0
LINE
  5
46D
  8
0
  6
CONTINUOUS
 62
     7
 10
7.7980338169500101
 20
-0.3778664688000077
 30
0.0
 11
7.7956806717500049
 21
-0.2455545069999943
 31
0.0
  0
ARC
  5
46E
  8
0
  6
CONTINUOUS
 62
     7
 10
0.1106380158500144
 20
102.67946033920001
 30
0.0
 40
107.97844265259999
 50
269.74781629820001
 51
270.19522569330042
  0
ARC
  5
470
  8
0
  6
CONTINUOUS
 62
     7
 10
1.841825510550023
 20
64.526658127600001
 30
0.0
 40
69.904956929700006
 50
263.7964736731999
 51
263.94677874429999
  0
ARC
  5
474
  8
0
  6
CONTINUOUS
 62
     7
 10
0.0047512016500093
 20
41.226127375500013
 30
0.0
 40
46.525656955299993
 50
268.72908898340012
 51
269.47391931480018
  0
ARC
  5
475
  8
0
  6
CONTINUOUS
 62
     7
 10
-7.4429364553499928
 20
-1.081264065599981
 30
0.0
 40
0.4310116156000001
 50
32.479391878200069
 51
34.48075915410012
  0
ARC
  5
477
  8
0
  6
CONTINUOUS
 62
     7
 10
-7.3554919877499989
 20
-1.013795526299986
 30
0.0
 40
0.3204628366
 50
40.978362646299843
 51
43.340750797299428
  0
ARC
  5
47B
  8
0
  6
CONTINUOUS
 62
     7
 10
-7.6169340751499979
 20
-0.7399744909999982
 30
0.0
 40
0.2525000889
 50
57.411576253099561
 51
59.502248392499887
  0
ARC
  5
47C
  8
0
  6
CONTINUOUS
 62
     7
 10
-7.5457202002499884
 20
-0.2499999988999946
 30
0.0
 40
0.2499999989
 50
89.999999874899672
 51
178.98107508720071
  0
ARC
  5
480
  8
0
  6
CONTINUOUS
 62
     7
 10
-7.598863330149995
 20
-0.7092861396999979
 30
0.0
 40
0.2168865141
 50
59.501234721099792
 51
61.956745644200062
  0
ARC
  5
482
  8
0
  6
CONTINUOUS
 62
     7
 10
-7.5992221636499968
 20
-0.7016916369999821
 30
0.0
 40
0.2102906283
 50
53.998011894000278
 51
57.178242684400487
  0
ARC
  5
483
  8
0
  6
CONTINUOUS
 62
     7
 10
-7.588647479949997
 20
-0.6852981096999998
 30
0.0
 40
0.190782382
 50
57.178485837299611
 51
60.574387010900317
  0
ARC
  5
485
  8
0
  6
CONTINUOUS
 62
     7
 10
-7.58597455505
 20
-0.6850850518999893
 30
0.0
 40
0.1894673024
 50
61.956047329500088
 51
64.79068212790024
  0
ARC
  5
486
  8
0
  6
CONTINUOUS
 62
     7
 10
-7.5805024466499873
 20
-0.6708638151999935
 30
0.0
 40
0.174208595
 50
60.575310249400069
 51
64.17439574800018
  0
ARC
  5
487
  8
0
  6
CONTINUOUS
 62
     7
 10
-7.5740105323499867
 20
-0.6574303523999845
 30
0.0
 40
0.1592887159
 50
64.171325421199924
 51
81.239405196307757
  0
ARC
  5
48C
  8
0
  6
CONTINUOUS
 62
     7
 10
-7.5896847006499959
 20
-0.4254087911999989
 30
0.0
 40
0.12
 50
218.22882734289931
 51
229.72540795150039
  0
ARC
  5
48D
  8
0
  6
CONTINUOUS
 62
     7
 10
-7.678044099949985
 20
-0.3799999999999954
 30
0.0
 40
0.12
 50
178.98075678519891
 51
269.99999997409958
  0
ARC
  5
498
  8
0
  6
CONTINUOUS
 62
     7
 10
-0.3148554048499932
 20
7.0034969125000108
 30
0.0
 40
12.301533513700001
 50
269.49893444340017
 51
269.75166848760023
  0
ARC
  5
4A6
  8
0
  6
CONTINUOUS
 62
     7
 10
-5.6708983512499884
 20
-4.0515655888000017
 30
0.0
 40
0.8814362988999999
 50
233.25605207360019
 51
238.07579439829979
  0
ARC
  5
4A7
  8
0
  6
CONTINUOUS
 62
     7
 10
-5.6161905888499879
 20
-4.094193819099984
 30
0.0
 40
0.8800094056999999
 50
230.7473435712989
 51
263.79706289529997
  0
ARC
  5
4A8
  8
0
  6
CONTINUOUS
 62
     7
 10
-5.671811883649994
 20
-4.0527549327999841
 30
0.0
 40
0.8799391934
 50
186.21500318579999
 51
233.2573879408001
  0
ARC
  5
4AA
  8
0
  6
CONTINUOUS
 62
     7
 10
-1.6098164855499979
 20
-6.6021881732999921
 30
0.0
 40
0.25
 50
5.0157668898003873
 51
87.963434881399991
  0
ARC
  5
4AB
  8
0
  6
CONTINUOUS
 62
     7
 10
-1.2304952078499971
 20
-6.63499999999999
 30
0.0
 40
0.125
 50
185.01577712859941
 51
270.0
  0
ARC
  5
4B0
  8
0
  6
CONTINUOUS
 62
     7
 10
1.9609798966500021
 20
-4.2779370399999834
 30
0.0
 40
1.000000003
 50
271.47846488599993
 51
272.61585094159972
  0
ARC
  5
4B1
  8
0
  6
CONTINUOUS
 62
     7
 10
5.6707865393500043
 20
-4.0513671357000041
 30
0.0
 40
0.881672393
 50
306.79142730380011
 51
309.0539602583994
  0
ARC
  5
4B2
  8
0
  6
CONTINUOUS
 62
     7
 10
5.6717825325500106
 20
-4.0527335821999912
 30
0.0
 40
0.8799889488999999
 50
307.59518497150083
 51
353.79421062280051
  0
ARC
  5
4B4
  8
0
  6
CONTINUOUS
 62
     7
 10
5.6737283313500049
 20
-4.0528554386000053
 30
0.0
 40
0.8780423374999999
 50
349.0909820878
 51
353.77837953820011
  0
ARC
  5
4B5
  8
0
  6
CONTINUOUS
 62
     7
 10
7.4429265180500011
 20
-1.0812640655000081
 30
0.0
 40
0.4310116156000001
 50
145.51924083999899
 51
147.52060812190021
  0
ARC
  5
4B6
  8
0
  6
CONTINUOUS
 62
     7
 10
7.3554820504500071
 20
-1.0137955263
 30
0.0
 40
0.3204628365
 50
136.65924919230059
 51
139.02163734460001
  0
ARC
  5
4BB
  8
0
  6
CONTINUOUS
 62
     7
 10
7.5457202002500017
 20
-0.2499999989000088
 30
0.0
 40
0.2499999989
 50
1.018886411998867
 51
90.000000124400088
  0
ARC
  5
4BF
  8
0
  6
CONTINUOUS
 62
     7
 10
7.599212226350005
 20
-0.7016916369000086
 30
0.0
 40
0.2102906282
 50
122.8217572871992
 51
126.0019881062007
  0
ARC
  5
4C0
  8
0
  6
CONTINUOUS
 62
     7
 10
7.5886375425500026
 20
-0.6852981095000104
 30
0.0
 40
0.1907823818
 50
119.42561296219939
 51
122.82151413349899
  0
ARC
  5
4C3
  8
0
  6
CONTINUOUS
 62
     7
 10
7.580492509350008
 20
-0.670863815100006
 30
0.0
 40
0.1742085949
 50
115.8256042273992
 51
119.4246897235994
  0
ARC
  5
4C5
  8
0
  6
CONTINUOUS
 62
     7
 10
7.5740005950500091
 20
-0.6574303523000112
 30
0.0
 40
0.1592887158
 50
98.760594806395815
 51
115.8286745541001
  0
ARC
  5
4C6
  8
0
  6
CONTINUOUS
 62
     7
 10
1.0690495822500019
 20
-6.63499999999999
 30
0.0
 40
0.1249882957
 50
270.26750153720008
 51
357.61059528989978
  0
ARC
  5
4C7
  8
0
  6
CONTINUOUS
 62
     7
 10
7.6780446456500044
 20
-0.3800000000000096
 30
0.0
 40
0.12
 50
270.00000003290029
 51
1.0193183679989299
  0
POLYLINE
  8
0
  5
66D
  62
7
  66
     1
 10
0.000000
 20
0.000000
 30
0.000000
  70
     8
  0
VERTEX
  8
0
  5
66E
 10
-7.15880
 20
-0.761542
 30
0.000000
  70
    32
  0
VERTEX
  8
0
  5
66F
 10
-7.15855
 20
-0.761722
 30
0.000000
  70
    32
  0
VERTEX
  8
0
  5
670
 10
-7.15830
 20
-0.761903
 30
0.000000
  70
    32
  0
VERTEX
  8
0
  5
671
 10
-7.15805
 20
-0.762084
 30
0.000000
  70
    32
  0
VERTEX
  8
0
  5
672
 10
-7.15781
 20
-0.762265
 30
0.000000
  70
    32
  0
VERTEX
  8
0
  5
673
 10
-7.15756
 20
-0.762446
 30
0.000000
  70
    32
  0
VERTEX
  8
0
  5
674
 10
-7.15731
 20
-0.762628
 30
0.000000
  70
    32
  0
VERTEX
  8
0
  5
675
 10
-7.15707
 20
-0.762810
 30
0.000000
  70
    32
  0
VERTEX
  8
0
  5
676
 10
-7.15682
 20
-0.762992
 30
0.000000
  70
    32
  0
VERTEX
  8
0
  5
677
 10
-7.15658
 20
-0.763175
 30
0.000000
  70
    32
  0
VERTEX
  8
0
  5
678
 10
-7.15633
 20
-0.763358
 30
0.000000
  70
    32
  0
VERTEX
  8
0
  5
679
 10
-7.15608
 20
-0.763542
 30
0.000000
  70
    32
  0
VERTEX
  8
0
  5
67A
 10
-7.15584
 20
-0.763726
 30
0.000000
  70
    32
  0
VERTEX
  8
0
  5
67B
 10
-7.15559
 20
-0.763910
 30
0.000000
  70
    32
  0
VERTEX
  8
0
  5
67C
 10
-7.15535
 20
-0.764094
 30
0.000000
  70
    32
  0
VERTEX
  8
0
  5
67D
 10
-7.15511
 20
-0.764279
 30
0.000000
  70
    32
  0
VERTEX
  8
0
  5
67E
 10
-7.15486
 20
-0.764464
 30
0.000000
  70
    32
  0
VERTEX
  8
0
  5
67F
 10
-7.15462
 20
-0.764650
 30
0.000000
  70
    32
  0
VERTEX
  8
0
  5
680
 10
-7.15437
 20
-0.764835
 30
0.000000
  70
    32
  0
VERTEX
  8
0
  5
681
 10
-7.15413
 20
-0.765022
 30
0.000000
  70
    32
  0
VERTEX
  8
0
  5
682
 10
-7.15389
 20
-0.765208
 30
0.000000
  70
    32
  0
VERTEX
  8
0
  5
683
 10
-7.15365
 20
-0.765395
 30
0.000000
  70
    32
  0
VERTEX
  8
0
  5
684
 10
-7.15340
 20
-0.765582
 30
0.000000
  70
    32
  0
VERTEX
  8
0
  5
685
 10
-7.15316
 20
-0.765769
 30
0.000000
  70
    32
  0
VERTEX
  8
0
  5
686
 10
-7.15292
 20
-0.765957
 30
0.000000
  70
    32
  0
VERTEX
  8
0
  5
687
 10
-7.15268
 20
-0.766145
 30
0.000000
  70
    32
  0
VERTEX
  8
0
  5
688
 10
-7.15243
 20
-0.766334
 30
0.000000
  70
    32
  0
VERTEX
  8
0
  5
689
 10
-7.15219
 20
-0.766522
 30
0.000000
  70
    32
  0
VERTEX
  8
0
  5
68A
 10
-7.15195
 20
-0.766711
 30
0.000000
  70
    32
  0
VERTEX
  8
0
  5
68B
 10
-7.15171
 20
-0.766901
 30
0.000000
  70
    32
  0
VERTEX
  8
0
  5
68C
 10
-7.15147
 20
-0.767090
 30
0.000000
  70
    32
  0
VERTEX
  8
0
  5
68D
 10
-7.15123
 20
-0.767280
 30
0.000000
  70
    32
  0
VERTEX
  8
0
  5
68E
 10
-7.15099
 20
-0.767471
 30
0.000000
  70
    32
  0
VERTEX
  8
0
  5
68F
 10
-7.15075
 20
-0.767661
 30
0.000000
  70
    32
  0
VERTEX
  8
0
  5
690
 10
-7.15051
 20
-0.767852
 30
0.000000
  70
    32
  0
VERTEX
  8
0
  5
691
 10
-7.15027
 20
-0.768044
 30
0.000000
  70
    32
  0
VERTEX
  8
0
  5
692
 10
-7.15003
 20
-0.768235
 30
0.000000
  70
    32
  0
VERTEX
  8
0
  5
693
 10
-7.14979
 20
-0.768427
 30
0.000000
  70
    32
  0
VERTEX
  8
0
  5
694
 10
-7.14955
 20
-0.768619
 30
0.000000
  70
    32
  0
VERTEX
  8
0
  5
695
 10
-7.14932
 20
-0.768812
 30
0.000000
  70
    32
  0
VERTEX
  8
0
  5
696
 10
-7.14908
 20
-0.769004
 30
0.000000
  70
    32
  0
VERTEX
  8
0
  5
697
 10
-7.14884
 20
-0.769198
 30
0.000000
  70
    32
  0
VERTEX
  8
0
  5
698
 10
-7.14860
 20
-0.769391
 30
0.000000
  70
    32
  0
VERTEX
  8
0
  5
699
 10
-7.14836
 20
-0.769585
 30
0.000000
  70
    32
  0
VERTEX
  8
0
  5
69A
 10
-7.14813
 20
-0.769779
 30
0.000000
  70
    32
  0
VERTEX
  8
0
  5
69B
 10
-7.14789
 20
-0.769973
 30
0.000000
  70
    32
  0
VERTEX
  8
0
  5
69C
 10
-7.14765
 20
-0.770168
 30
0.000000
  70
    32
  0
VERTEX
  8
0
  5
69D
 10
-7.14742
 20
-0.770363
 30
0.000000
  70
    32
  0
VERTEX
  8
0
  5
69E
 10
-7.14718
 20
-0.770558
 30
0.000000
  70
    32
  0
VERTEX
  8
0
  5
69F
 10
-7.14694
 20
-0.770753
 30
0.000000
  70
    32
  0
VERTEX
  8
0
  5
6A0
 10
-7.14671
 20
-0.770949
 30
0.000000
  70
    32
  0
VERTEX
  8
0
  5
6A1
 10
-7.14647
 20
-0.771145
 30
0.000000
  70
    32
  0
VERTEX
  8
0
  5
6A2
 10
-7.14624
 20
-0.771342
 30
0.000000
  70
    32
  0
VERTEX
  8
0
  5
6A3
 10
-7.14600
 20
-0.771538
 30
0.000000
  70
    32
  0
VERTEX
  8
0
  5
6A4
 10
-7.14577
 20
-0.771735
 30
0.000000
  70
    32
  0
VERTEX
  8
0
  5
6A5
 10
-7.14553
 20
-0.771932
 30
0.000000
  70
    32
  0
VERTEX
  8
0
  5
6A6
 10
-7.14530
 20
-0.772130
 30
0.000000
  70
    32
  0
VERTEX
  8
0
  5
6A7
 10
-7.14506
 20
-0.772328
 30
0.000000
  70
    32
  0
VERTEX
  8
0
  5
6A8
 10
-7.14483
 20
-0.772526
 30
0.000000
  70
    32
  0
VERTEX
  8
0
  5
6A9
 10
-7.14460
 20
-0.772724
 30
0.000000
  70
    32
  0
VERTEX
  8
0
  5
6AA
 10
-7.14436
 20
-0.772923
 30
0.000000
  70
    32
  0
VERTEX
  8
0
  5
6AB
 10
-7.14413
 20
-0.773122
 30
0.000000
  70
    32
  0
VERTEX
  8
0
  5
6AC
 10
-7.14390
 20
-0.773322
 30
0.000000
  70
    32
  0
VERTEX
  8
0
  5
6AD
 10
-7.14366
 20
-0.773521
 30
0.000000
  70
    32
  0
VERTEX
  8
0
  5
6AE
 10
-7.14343
 20
-0.773721
 30
0.000000
  70
    32
  0
VERTEX
  8
0
  5
6AF
 10
-7.14320
 20
-0.773921
 30
0.000000
  70
    32
  0
VERTEX
  8
0
  5
6B0
 10
-7.14297
 20
-0.774121
 30
0.000000
  70
    32
  0
VERTEX
  8
0
  5
6B1
 10
-7.14274
 20
-0.774322
 30
0.000000
  70
    32
  0
VERTEX
  8
0
  5
6B2
 10
-7.14250
 20
-0.774523
 30
0.000000
  70
    32
  0
VERTEX
  8
0
  5
6B3
 10
-7.14227
 20
-0.774724
 30
0.000000
  70
    32
  0
VERTEX
  8
0
  5
6B4
 10
-7.14204
 20
-0.774926
 30
0.000000
  70
    32
  0
VERTEX
  8
0
  5
6B5
 10
-7.14181
 20
-0.775128
 30
0.000000
  70
    32
  0
VERTEX
  8
0
  5
6B6
 10
-7.14158
 20
-0.775330
 30
0.000000
  70
    32
  0
VERTEX
  8
0
  5
6B7
 10
-7.14135
 20
-0.775532
 30
0.000000
  70
    32
  0
VERTEX
  8
0
  5
6B8
 10
-7.14112
 20
-0.775735
 30
0.000000
  70
    32
  0
VERTEX
  8
0
  5
6B9
 10
-7.14089
 20
-0.775938
 30
0.000000
  70
    32
  0
VERTEX
  8
0
  5
6BA
 10
-7.14066
 20
-0.776141
 30
0.000000
  70
    32
  0
VERTEX
  8
0
  5
6BB
 10
-7.14043
 20
-0.776344
 30
0.000000
  70
    32
  0
VERTEX
  8
0
  5
6BC
 10
-7.14020
 20
-0.776548
 30
0.000000
  70
    32
  0
VERTEX
  8
0
  5
6BD
 10
-7.13997
 20
-0.776752
 30
0.000000
  70
    32
  0
VERTEX
  8
0
  5
6BE
 10
-7.13974
 20
-0.776956
 30
0.000000
  70
    32
  0
VERTEX
  8
0
  5
6BF
 10
-7.13952
 20
-0.777161
 30
0.000000
  70
    32
  0
VERTEX
  8
0
  5
6C0
 10
-7.13929
 20
-0.777365
 30
0.000000
  70
    32
  0
VERTEX
  8
0
  5
6C1
 10
-7.13906
 20
-0.777570
 30
0.000000
  70
    32
  0
VERTEX
  8
0
  5
6C2
 10
-7.13883
 20
-0.777776
 30
0.000000
  70
    32
  0
VERTEX
  8
0
  5
6C3
 10
-7.13860
 20
-0.777981
 30
0.000000
  70
    32
  0
VERTEX
  8
0
  5
6C4
 10
-7.13838
 20
-0.778187
 30
0.000000
  70
    32
  0
VERTEX
  8
0
  5
6C5
 10
-7.13815
 20
-0.778393
 30
0.000000
  70
    32
  0
VERTEX
  8
0
  5
6C6
 10
-7.13792
 20
-0.778599
 30
0.000000
  70
    32
  0
VERTEX
  8
0
  5
6C7
 10
-7.13770
 20
-0.778806
 30
0.000000
  70
    32
  0
VERTEX
  8
0
  5
6C8
 10
-7.13747
 20
-0.779013
 30
0.000000
  70
    32
  0
VERTEX
  8
0
  5
6C9
 10
-7.13725
 20
-0.779220
 30
0.000000
  70
    32
  0
VERTEX
  8
0
  5
6CA
 10
-7.13702
 20
-0.779427
 30
0.000000
  70
    32
  0
VERTEX
  8
0
  5
6CB
 10
-7.13679
 20
-0.779635
 30
0.000000
  70
    32
  0
VERTEX
  8
0
  5
6CC
 10
-7.13657
 20
-0.779843
 30
0.000000
  70
    32
  0
VERTEX
  8
0
  5
6CD
 10
-7.13634
 20
-0.780051
 30
0.000000
  70
    32
  0
VERTEX
  8
0
  5
6CE
 10
-7.13612
 20
-0.780259
 30
0.000000
  70
    32
  0
VERTEX
  8
0
  5
6CF
 10
-7.13589
 20
-0.780468
 30
0.000000
  70
    32
  0
VERTEX
  8
0
  5
6D0
 10
-7.13567
 20
-0.780677
 30
0.000000
  70
    32
  0
VERTEX
  8
0
  5
6D1
 10
-7.13545
 20
-0.780886
 30
0.000000
  70
    32
  0
VERTEX
  8
0
  5
6D2
 10
-7.13522
 20
-0.781095
 30
0.000000
  70
    32
  0
VERTEX
  8
0
  5
6D3
 10
-7.13500
 20
-0.781305
 30
0.000000
  70
    32
  0
VERTEX
  8
0
  5
6D4
 10
-7.13477
 20
-0.781514
 30
0.000000
  70
    32
  0
VERTEX
  8
0
  5
6D5
 10
-7.13455
 20
-0.781724
 30
0.000000
  70
    32
  0
VERTEX
  8
0
  5
6D6
 10
-7.13433
 20
-0.781935
 30
0.000000
  70
    32
  0
VERTEX
  8
0
  5
6D7
 10
-7.13411
 20
-0.782145
 30
0.000000
  70
    32
  0
VERTEX
  8
0
  5
6D8
 10
-7.13388
 20
-0.782356
 30
0.000000
  70
    32
  0
VERTEX
  8
0
  5
6D9
 10
-7.13366
 20
-0.782567
 30
0.000000
  70
    32
  0
VERTEX
  8
0
  5
6DA
 10
-7.13344
 20
-0.782778
 30
0.000000
  70
    32
  0
VERTEX
  8
0
  5
6DB
 10
-7.13322
 20
-0.782990
 30
0.000000
  70
    32
  0
VERTEX
  8
0
  5
6DC
 10
-7.13300
 20
-0.783202
 30
0.000000
  70
    32
  0
VERTEX
  8
0
  5
6DD
 10
-7.13277
 20
-0.783414
 30
0.000000
  70
    32
  0
VERTEX
  8
0
  5
6DE
 10
-7.13255
 20
-0.783626
 30
0.000000
  70
    32
  0
VERTEX
  8
0
  5
6DF
 10
-7.13233
 20
-0.783838
 30
0.000000
  70
    32
  0
VERTEX
  8
0
  5
6E0
 10
-7.13211
 20
-0.784051
 30
0.000000
  70
    32
  0
VERTEX
  8
0
  5
6E1
 10
-7.13189
 20
-0.784264
 30
0.000000
  70
    32
  0
VERTEX
  8
0
  5
6E2
 10
-7.13167
 20
-0.784477
 30
0.000000
  70
    32
  0
VERTEX
  8
0
  5
6E3
 10
-7.13145
 20
-0.784690
 30
0.000000
  70
    32
  0
VERTEX
  8
0
  5
6E4
 10
-7.13123
 20
-0.784904
 30
0.000000
  70
    32
  0
VERTEX
  8
0
  5
6E5
 10
-7.13101
 20
-0.785118
 30
0.000000
  70
    32
  0
VERTEX
  8
0
  5
6E6
 10
-7.13079
 20
-0.785332
 30
0.000000
  70
    32
  0
VERTEX
  8
0
  5
6E7
 10
-7.13057
 20
-0.785546
 30
0.000000
  70
    32
  0
VERTEX
  8
0
  5
6E8
 10
-7.13036
 20
-0.785760
 30
0.000000
  70
    32
  0
VERTEX
  8
0
  5
6E9
 10
-7.13014
 20
-0.785975
 30
0.000000
  70
    32
  0
VERTEX
  8
0
  5
6EA
 10
-7.12992
 20
-0.786190
 30
0.000000
  70
    32
  0
VERTEX
  8
0
  5
6EB
 10
-7.12970
 20
-0.786405
 30
0.000000
  70
    32
  0
VERTEX
  8
0
  5
6EC
 10
-7.12948
 20
-0.786620
 30
0.000000
  70
    32
  0
VERTEX
  8
0
  5
6ED
 10
-7.12927
 20
-0.786836
 30
0.000000
  70
    32
  0
VERTEX
  8
0
  5
6EE
 10
-7.12905
 20
-0.787052
 30
0.000000
  70
    32
  0
VERTEX
  8
0
  5
6EF
 10
-7.12883
 20
-0.787268
 30
0.000000
  70
    32
  0
VERTEX
  8
0
  5
6F0
 10
-7.12861
 20
-0.787484
 30
0.000000
  70
    32
  0
VERTEX
  8
0
  5
6F1
 10
-7.12840
 20
-0.787701
 30
0.000000
  70
    32
  0
VERTEX
  8
0
  5
6F2
 10
-7.12818
 20
-0.787917
 30
0.000000
  70
    32
  0
VERTEX
  8
0
  5
6F3
 10
-7.12797
 20
-0.788134
 30
0.000000
  70
    32
  0
VERTEX
  8
0
  5
6F4
 10
-7.12775
 20
-0.788351
 30
0.000000
  70
    32
  0
VERTEX
  8
0
  5
6F5
 10
-7.12753
 20
-0.788569
 30
0.000000
  70
    32
  0
VERTEX
  8
0
  5
6F6
 10
-7.12732
 20
-0.788786
 30
0.000000
  70
    32
  0
VERTEX
  8
0
  5
6F7
 10
-7.12710
 20
-0.789004
 30
0.000000
  70
    32
  0
VERTEX
  8
0
  5
6F8
 10
-7.12689
 20
-0.789222
 30
0.000000
  70
    32
  0
VERTEX
  8
0
  5
6F9
 10
-7.12667
 20
-0.789440
 30
0.000000
  70
    32
  0
VERTEX
  8
0
  5
6FA
 10
-7.12646
 20
-0.789659
 30
0.000000
  70
    32
  0
VERTEX
  8
0
  5
6FB
 10
-7.12624
 20
-0.789877
 30
0.000000
  70
    32
  0
VERTEX
  8
0
  5
6FC
 10
-7.12603
 20
-0.790096
 30
0.000000
  70
    32
  0
VERTEX
  8
0
  5
6FD
 10
-7.12582
 20
-0.790315
 30
0.000000
  70
    32
  0
VERTEX
  8
0
  5
6FE
 10
-7.12560
 20
-0.790535
 30
0.000000
  70
    32
  0
VERTEX
  8
0
  5
6FF
 10
-7.12539
 20
-0.790754
 30
0.000000
  70
    32
  0
VERTEX
  8
0
  5
700
 10
-7.12518
 20
-0.790974
 30
0.000000
  70
    32
  0
VERTEX
  8
0
  5
701
 10
-7.12496
 20
-0.791194
 30
0.000000
  70
    32
  0
VERTEX
  8
0
  5
702
 10
-7.12475
 20
-0.791414
 30
0.000000
  70
    32
  0
VERTEX
  8
0
  5
703
 10
-7.12454
 20
-0.791635
 30
0.000000
  70
    32
  0
VERTEX
  8
0
  5
704
 10
-7.12433
 20
-0.791855
 30
0.000000
  70
    32
  0
VERTEX
  8
0
  5
705
 10
-7.12411
 20
-0.792076
 30
0.000000
  70
    32
  0
VERTEX
  8
0
  5
706
 10
-7.12390
 20
-0.792297
 30
0.000000
  70
    32
  0
VERTEX
  8
0
  5
707
 10
-7.12369
 20
-0.792518
 30
0.000000
  70
    32
  0
VERTEX
  8
0
  5
708
 10
-7.12348
 20
-0.792740
 30
0.000000
  70
    32
  0
VERTEX
  8
0
  5
709
 10
-7.12327
 20
-0.792962
 30
0.000000
  70
    32
  0
VERTEX
  8
0
  5
70A
 10
-7.12306
 20
-0.793183
 30
0.000000
  70
    32
  0
VERTEX
  8
0
  5
70B
 10
-7.12285
 20
-0.793406
 30
0.000000
  70
    32
  0
VERTEX
  8
0
  5
70C
 10
-7.12263
 20
-0.793628
 30
0.000000
  70
    32
  0
VERTEX
  8
0
  5
70D
 10
-7.12242
 20
-0.793850
 30
0.000000
  70
    32
  0
SEQEND
  8
0
  5
70E
  0
POLYLINE
  8
0
  5
70F
  62
7
  66
     1
 10
0.000000
 20
0.000000
 30
0.000000
  70
     8
  0
VERTEX
  8
0
  5
710
 10
-7.11356
 20
-0.803644
 30
0.000000
  70
    32
  0
VERTEX
  8
0
  5
711
 10
-7.11338
 20
-0.803846
 30
0.000000
  70
    32
  0
VERTEX
  8
0
  5
712
 10
-7.11321
 20
-0.804048
 30
0.000000
  70
    32
  0
VERTEX
  8
0
  5
713
 10
-7.11303
 20
-0.804250
 30
0.000000
  70
    32
  0
VERTEX
  8
0
  5
714
 10
-7.11286
 20
-0.804452
 30
0.000000
  70
    32
  0
VERTEX
  8
0
  5
715
 10
-7.11268
 20
-0.804654
 30
0.000000
  70
    32
  0
VERTEX
  8
0
  5
716
 10
-7.11251
 20
-0.804856
 30
0.000000
  70
    32
  0
VERTEX
  8
0
  5
717
 10
-7.11233
 20
-0.805058
 30
0.000000
  70
    32
  0
VERTEX
  8
0
  5
718
 10
-7.11216
 20
-0.805261
 30
0.000000
  70
    32
  0
VERTEX
  8
0
  5
719
 10
-7.11199
 20
-0.805464
 30
0.000000
  70
    32
  0
VERTEX
  8
0
  5
71A
 10
-7.11181
 20
-0.805667
 30
0.000000
  70
    32
  0
VERTEX
  8
0
  5
71B
 10
-7.11164
 20
-0.805870
 30
0.000000
  70
    32
  0
VERTEX
  8
0
  5
71C
 10
-7.11147
 20
-0.806073
 30
0.000000
  70
    32
  0
VERTEX
  8
0
  5
71D
 10
-7.11129
 20
-0.806276
 30
0.000000
  70
    32
  0
VERTEX
  8
0
  5
71E
 10
-7.11112
 20
-0.806479
 30
0.000000
  70
    32
  0
VERTEX
  8
0
  5
71F
 10
-7.11095
 20
-0.806683
 30
0.000000
  70
    32
  0
VERTEX
  8
0
  5
720
 10
-7.11077
 20
-0.806887
 30
0.000000
  70
    32
  0
VERTEX
  8
0
  5
721
 10
-7.11060
 20
-0.807090
 30
0.000000
  70
    32
  0
VERTEX
  8
0
  5
722
 10
-7.11043
 20
-0.807294
 30
0.000000
  70
    32
  0
VERTEX
  8
0
  5
723
 10
-7.11026
 20
-0.807498
 30
0.000000
  70
    32
  0
VERTEX
  8
0
  5
724
 10
-7.11009
 20
-0.807703
 30
0.000000
  70
    32
  0
VERTEX
  8
0
  5
725
 10
-7.10991
 20
-0.807907
 30
0.000000
  70
    32
  0
VERTEX
  8
0
  5
726
 10
-7.10974
 20
-0.808111
 30
0.000000
  70
    32
  0
VERTEX
  8
0
  5
727
 10
-7.10957
 20
-0.808316
 30
0.000000
  70
    32
  0
VERTEX
  8
0
  5
728
 10
-7.10940
 20
-0.808521
 30
0.000000
  70
    32
  0
VERTEX
  8
0
  5
729
 10
-7.10923
 20
-0.808726
 30
0.000000
  70
    32
  0
VERTEX
  8
0
  5
72A
 10
-7.10906
 20
-0.808931
 30
0.000000
  70
    32
  0
VERTEX
  8
0
  5
72B
 10
-7.10889
 20
-0.809136
 30
0.000000
  70
    32
  0
VERTEX
  8
0
  5
72C
 10
-7.10871
 20
-0.809341
 30
0.000000
  70
    32
  0
VERTEX
  8
0
  5
72D
 10
-7.10854
 20
-0.809546
 30
0.000000
  70
    32
  0
VERTEX
  8
0
  5
72E
 10
-7.10837
 20
-0.809752
 30
0.000000
  70
    32
  0
VERTEX
  8
0
  5
72F
 10
-7.10820
 20
-0.809958
 30
0.000000
  70
    32
  0
VERTEX
  8
0
  5
730
 10
-7.10803
 20
-0.810163
 30
0.000000
  70
    32
  0
VERTEX
  8
0
  5
731
 10
-7.10786
 20
-0.810369
 30
0.000000
  70
    32
  0
VERTEX
  8
0
  5
732
 10
-7.10769
 20
-0.810575
 30
0.000000
  70
    32
  0
VERTEX
  8
0
  5
733
 10
-7.10752
 20
-0.810782
 30
0.000000
  70
    32
  0
VERTEX
  8
0
  5
734
 10
-7.10735
 20
-0.810988
 30
0.000000
  70
    32
  0
VERTEX
  8
0
  5
735
 10
-7.10718
 20
-0.811194
 30
0.000000
  70
    32
  0
VERTEX
  8
0
  5
736
 10
-7.10702
 20
-0.811401
 30
0.000000
  70
    32
  0
VERTEX
  8
0
  5
737
 10
-7.10685
 20
-0.811608
 30
0.000000
  70
    32
  0
VERTEX
  8
0
  5
738
 10
-7.10668
 20
-0.811814
 30
0.000000
  70
    32
  0
VERTEX
  8
0
  5
739
 10
-7.10651
 20
-0.812021
 30
0.000000
  70
    32
  0
VERTEX
  8
0
  5
73A
 10
-7.10634
 20
-0.812228
 30
0.000000
  70
    32
  0
VERTEX
  8
0
  5
73B
 10
-7.10617
 20
-0.812436
 30
0.000000
  70
    32
  0
VERTEX
  8
0
  5
73C
 10
-7.10600
 20
-0.812643
 30
0.000000
  70
    32
  0
VERTEX
  8
0
  5
73D
 10
-7.10584
 20
-0.812850
 30
0.000000
  70
    32
  0
VERTEX
  8
0
  5
73E
 10
-7.10567
 20
-0.813058
 30
0.000000
  70
    32
  0
VERTEX
  8
0
  5
73F
 10
-7.10550
 20
-0.813266
 30
0.000000
  70
    32
  0
VERTEX
  8
0
  5
740
 10
-7.10533
 20
-0.813473
 30
0.000000
  70
    32
  0
VERTEX
  8
0
  5
741
 10
-7.10516
 20
-0.813681
 30
0.000000
  70
    32
  0
VERTEX
  8
0
  5
742
 10
-7.10500
 20
-0.813889
 30
0.000000
  70
    32
  0
VERTEX
  8
0
  5
743
 10
-7.10483
 20
-0.814098
 30
0.000000
  70
    32
  0
VERTEX
  8
0
  5
744
 10
-7.10466
 20
-0.814306
 30
0.000000
  70
    32
  0
VERTEX
  8
0
  5
745
 10
-7.10450
 20
-0.814514
 30
0.000000
  70
    32
  0
VERTEX
  8
0
  5
746
 10
-7.10433
 20
-0.814723
 30
0.000000
  70
    32
  0
VERTEX
  8
0
  5
747
 10
-7.10416
 20
-0.814932
 30
0.000000
  70
    32
  0
VERTEX
  8
0
  5
748
 10
-7.10400
 20
-0.815141
 30
0.000000
  70
    32
  0
VERTEX
  8
0
  5
749
 10
-7.10383
 20
-0.815349
 30
0.000000
  70
    32
  0
VERTEX
  8
0
  5
74A
 10
-7.10366
 20
-0.815559
 30
0.000000
  70
    32
  0
VERTEX
  8
0
  5
74B
 10
-7.10350
 20
-0.815768
 30
0.000000
  70
    32
  0
VERTEX
  8
0
  5
74C
 10
-7.10333
 20
-0.815977
 30
0.000000
  70
    32
  0
VERTEX
  8
0
  5
74D
 10
-7.10317
 20
-0.816186
 30
0.000000
  70
    32
  0
VERTEX
  8
0
  5
74E
 10
-7.10300
 20
-0.816396
 30
0.000000
  70
    32
  0
VERTEX
  8
0
  5
74F
 10
-7.10283
 20
-0.816606
 30
0.000000
  70
    32
  0
VERTEX
  8
0
  5
750
 10
-7.10267
 20
-0.816815
 30
0.000000
  70
    32
  0
VERTEX
  8
0
  5
751
 10
-7.10250
 20
-0.817025
 30
0.000000
  70
    32
  0
VERTEX
  8
0
  5
752
 10
-7.10234
 20
-0.817235
 30
0.000000
  70
    32
  0
VERTEX
  8
0
  5
753
 10
-7.10217
 20
-0.817446
 30
0.000000
  70
    32
  0
VERTEX
  8
0
  5
754
 10
-7.10201
 20
-0.817656
 30
0.000000
  70
    32
  0
VERTEX
  8
0
  5
755
 10
-7.10185
 20
-0.817866
 30
0.000000
  70
    32
  0
VERTEX
  8
0
  5
756
 10
-7.10168
 20
-0.818077
 30
0.000000
  70
    32
  0
VERTEX
  8
0
  5
757
 10
-7.10152
 20
-0.818287
 30
0.000000
  70
    32
  0
VERTEX
  8
0
  5
758
 10
-7.10135
 20
-0.818498
 30
0.000000
  70
    32
  0
VERTEX
  8
0
  5
759
 10
-7.10119
 20
-0.818709
 30
0.000000
  70
    32
  0
VERTEX
  8
0
  5
75A
 10
-7.10102
 20
-0.818920
 30
0.000000
  70
    32
  0
VERTEX
  8
0
  5
75B
 10
-7.10086
 20
-0.819131
 30
0.000000
  70
    32
  0
VERTEX
  8
0
  5
75C
 10
-7.10070
 20
-0.819342
 30
0.000000
  70
    32
  0
VERTEX
  8
0
  5
75D
 10
-7.10053
 20
-0.819554
 30
0.000000
  70
    32
  0
VERTEX
  8
0
  5
75E
 10
-7.10037
 20
-0.819765
 30
0.000000
  70
    32
  0
VERTEX
  8
0
  5
75F
 10
-7.10021
 20
-0.819977
 30
0.000000
  70
    32
  0
VERTEX
  8
0
  5
760
 10
-7.10005
 20
-0.820188
 30
0.000000
  70
    32
  0
VERTEX
  8
0
  5
761
 10
-7.09988
 20
-0.820400
 30
0.000000
  70
    32
  0
VERTEX
  8
0
  5
762
 10
-7.09972
 20
-0.820612
 30
0.000000
  70
    32
  0
VERTEX
  8
0
  5
763
 10
-7.09956
 20
-0.820824
 30
0.000000
  70
    32
  0
VERTEX
  8
0
  5
764
 10
-7.09940
 20
-0.821036
 30
0.000000
  70
    32
  0
VERTEX
  8
0
  5
765
 10
-7.09923
 20
-0.821248
 30
0.000000
  70
    32
  0
VERTEX
  8
0
  5
766
 10
-7.09907
 20
-0.821461
 30
0.000000
  70
    32
  0
VERTEX
  8
0
  5
767
 10
-7.09891
 20
-0.821673
 30
0.000000
  70
    32
  0
VERTEX
  8
0
  5
768
 10
-7.09875
 20
-0.821886
 30
0.000000
  70
    32
  0
VERTEX
  8
0
  5
769
 10
-7.09859
 20
-0.822099
 30
0.000000
  70
    32
  0
VERTEX
  8
0
  5
76A
 10
-7.09843
 20
-0.822311
 30
0.000000
  70
    32
  0
VERTEX
  8
0
  5
76B
 10
-7.09826
 20
-0.822524
 30
0.000000
  70
    32
  0
VERTEX
  8
0
  5
76C
 10
-7.09810
 20
-0.822737
 30
0.000000
  70
    32
  0
VERTEX
  8
0
  5
76D
 10
-7.09794
 20
-0.822951
 30
0.000000
  70
    32
  0
VERTEX
  8
0
  5
76E
 10
-7.09778
 20
-0.823164
 30
0.000000
  70
    32
  0
VERTEX
  8
0
  5
76F
 10
-7.09762
 20
-0.823377
 30
0.000000
  70
    32
  0
VERTEX
  8
0
  5
770
 10
-7.09746
 20
-0.823591
 30
0.000000
  70
    32
  0
VERTEX
  8
0
  5
771
 10
-7.09730
 20
-0.823804
 30
0.000000
  70
    32
  0
VERTEX
  8
0
  5
772
 10
-7.09714
 20
-0.824018
 30
0.000000
  70
    32
  0
VERTEX
  8
0
  5
773
 10
-7.09698
 20
-0.824232
 30
0.000000
  70
    32
  0
VERTEX
  8
0
  5
774
 10
-7.09682
 20
-0.824446
 30
0.000000
  70
    32
  0
VERTEX
  8
0
  5
775
 10
-7.09666
 20
-0.824660
 30
0.000000
  70
    32
  0
VERTEX
  8
0
  5
776
 10
-7.09650
 20
-0.824874
 30
0.000000
  70
    32
  0
VERTEX
  8
0
  5
777
 10
-7.09634
 20
-0.825088
 30
0.000000
  70
    32
  0
VERTEX
  8
0
  5
778
 10
-7.09618
 20
-0.825303
 30
0.000000
  70
    32
  0
VERTEX
  8
0
  5
779
 10
-7.09602
 20
-0.825517
 30
0.000000
  70
    32
  0
VERTEX
  8
0
  5
77A
 10
-7.09586
 20
-0.825732
 30
0.000000
  70
    32
  0
VERTEX
  8
0
  5
77B
 10
-7.09570
 20
-0.825947
 30
0.000000
  70
    32
  0
VERTEX
  8
0
  5
77C
 10
-7.09555
 20
-0.826162
 30
0.000000
  70
    32
  0
VERTEX
  8
0
  5
77D
 10
-7.09539
 20
-0.826376
 30
0.000000
  70
    32
  0
VERTEX
  8
0
  5
77E
 10
-7.09523
 20
-0.826592
 30
0.000000
  70
    32
  0
VERTEX
  8
0
  5
77F
 10
-7.09507
 20
-0.826807
 30
0.000000
  70
    32
  0
VERTEX
  8
0
  5
780
 10
-7.09491
 20
-0.827022
 30
0.000000
  70
    32
  0
VERTEX
  8
0
  5
781
 10
-7.09475
 20
-0.827237
 30
0.000000
  70
    32
  0
VERTEX
  8
0
  5
782
 10
-7.09460
 20
-0.827453
 30
0.000000
  70
    32
  0
VERTEX
  8
0
  5
783
 10
-7.09444
 20
-0.827668
 30
0.000000
  70
    32
  0
VERTEX
  8
0
  5
784
 10
-7.09428
 20
-0.827884
 30
0.000000
  70
    32
  0
VERTEX
  8
0
  5
785
 10
-7.09412
 20
-0.828100
 30
0.000000
  70
    32
  0
VERTEX
  8
0
  5
786
 10
-7.09397
 20
-0.828316
 30
0.000000
  70
    32
  0
VERTEX
  8
0
  5
787
 10
-7.09381
 20
-0.828532
 30
0.000000
  70
    32
  0
VERTEX
  8
0
  5
788
 10
-7.09365
 20
-0.828748
 30
0.000000
  70
    32
  0
VERTEX
  8
0
  5
789
 10
-7.09350
 20
-0.828964
 30
0.000000
  70
    32
  0
VERTEX
  8
0
  5
78A
 10
-7.09334
 20
-0.829180
 30
0.000000
  70
    32
  0
VERTEX
  8
0
  5
78B
 10
-7.09318
 20
-0.829397
 30
0.000000
  70
    32
  0
VERTEX
  8
0
  5
78C
 10
-7.09303
 20
-0.829613
 30
0.000000
  70
    32
  0
VERTEX
  8
0
  5
78D
 10
-7.09287
 20
-0.829830
 30
0.000000
  70
    32
  0
VERTEX
  8
0
  5
78E
 10
-7.09271
 20
-0.830047
 30
0.000000
  70
    32
  0
VERTEX
  8
0
  5
78F
 10
-7.09256
 20
-0.830264
 30
0.000000
  70
    32
  0
VERTEX
  8
0
  5
790
 10
-7.09240
 20
-0.830481
 30
0.000000
  70
    32
  0
VERTEX
  8
0
  5
791
 10
-7.09225
 20
-0.830698
 30
0.000000
  70
    32
  0
VERTEX
  8
0
  5
792
 10
-7.09209
 20
-0.830915
 30
0.000000
  70
    32
  0
VERTEX
  8
0
  5
793
 10
-7.09194
 20
-0.831132
 30
0.000000
  70
    32
  0
VERTEX
  8
0
  5
794
 10
-7.09178
 20
-0.831349
 30
0.000000
  70
    32
  0
VERTEX
  8
0
  5
795
 10
-7.09163
 20
-0.831567
 30
0.000000
  70
    32
  0
VERTEX
  8
0
  5
796
 10
-7.09147
 20
-0.831784
 30
0.000000
  70
    32
  0
VERTEX
  8
0
  5
797
 10
-7.09132
 20
-0.832002
 30
0.000000
  70
    32
  0
VERTEX
  8
0
  5
798
 10
-7.09116
 20
-0.832220
 30
0.000000
  70
    32
  0
VERTEX
  8
0
  5
799
 10
-7.09101
 20
-0.832438
 30
0.000000
  70
    32
  0
VERTEX
  8
0
  5
79A
 10
-7.09085
 20
-0.832656
 30
0.000000
  70
    32
  0
VERTEX
  8
0
  5
79B
 10
-7.09070
 20
-0.832874
 30
0.000000
  70
    32
  0
VERTEX
  8
0
  5
79C
 10
-7.09055
 20
-0.833092
 30
0.000000
  70
    32
  0
VERTEX
  8
0
  5
79D
 10
-7.09039
 20
-0.833310
 30
0.000000
  70
    32
  0
VERTEX
  8
0
  5
79E
 10
-7.09024
 20
-0.833529
 30
0.000000
  70
    32
  0
VERTEX
  8
0
  5
79F
 10
-7.09008
 20
-0.833747
 30
0.000000
  70
    32
  0
VERTEX
  8
0
  5
7A0
 10
-7.08993
 20
-0.833966
 30
0.000000
  70
    32
  0
VERTEX
  8
0
  5
7A1
 10
-7.08978
 20
-0.834184
 30
0.000000
  70
    32
  0
VERTEX
  8
0
  5
7A2
 10
-7.08962
 20
-0.834403
 30
0.000000
  70
    32
  0
VERTEX
  8
0
  5
7A3
 10
-7.08947
 20
-0.834622
 30
0.000000
  70
    32
  0
VERTEX
  8
0
  5
7A4
 10
-7.08932
 20
-0.834841
 30
0.000000
  70
    32
  0
VERTEX
  8
0
  5
7A5
 10
-7.08917
 20
-0.835060
 30
0.000000
  70
    32
  0
VERTEX
  8
0
  5
7A6
 10
-7.08901
 20
-0.835279
 30
0.000000
  70
    32
  0
VERTEX
  8
0
  5
7A7
 10
-7.08886
 20
-0.835498
 30
0.000000
  70
    32
  0
VERTEX
  8
0
  5
7A8
 10
-7.08871
 20
-0.835718
 30
0.000000
  70
    32
  0
VERTEX
  8
0
  5
7A9
 10
-7.08856
 20
-0.835937
 30
0.000000
  70
    32
  0
VERTEX
  8
0
  5
7AA
 10
-7.08840
 20
-0.836157
 30
0.000000
  70
    32
  0
VERTEX
  8
0
  5
7AB
 10
-7.08825
 20
-0.836376
 30
0.000000
  70
    32
  0
VERTEX
  8
0
  5
7AC
 10
-7.08810
 20
-0.836596
 30
0.000000
  70
    32
  0
VERTEX
  8
0
  5
7AD
 10
-7.08795
 20
-0.836816
 30
0.000000
  70
    32
  0
VERTEX
  8
0
  5
7AE
 10
-7.08780
 20
-0.837036
 30
0.000000
  70
    32
  0
VERTEX
  8
0
  5
7AF
 10
-7.08765
 20
-0.837256
 30
0.000000
  70
    32
  0
SEQEND
  8
0
  5
7B0
  0
POLYLINE
  8
0
  5
7B1
  62
7
  66
     1
 10
0.000000
 20
0.000000
 30
0.000000
  70
     8
  0
VERTEX
  8
0
  5
7B2
 10
7.15879
 20
-0.761542
 30
0.000000
  70
    32
  0
VERTEX
  8
0
  5
7B3
 10
7.15854
 20
-0.761722
 30
0.000000
  70
    32
  0
VERTEX
  8
0
  5
7B4
 10
7.15829
 20
-0.761903
 30
0.000000
  70
    32
  0
VERTEX
  8
0
  5
7B5
 10
7.15804
 20
-0.762084
 30
0.000000
  70
    32
  0
VERTEX
  8
0
  5
7B6
 10
7.15780
 20
-0.762265
 30
0.000000
  70
    32
  0
VERTEX
  8
0
  5
7B7
 10
7.15755
 20
-0.762446
 30
0.000000
  70
    32
  0
VERTEX
  8
0
  5
7B8
 10
7.15730
 20
-0.762628
 30
0.000000
  70
    32
  0
VERTEX
  8
0
  5
7B9
 10
7.15706
 20
-0.762810
 30
0.000000
  70
    32
  0
VERTEX
  8
0
  5
7BA
 10
7.15681
 20
-0.762992
 30
0.000000
  70
    32
  0
VERTEX
  8
0
  5
7BB
 10
7.15657
 20
-0.763175
 30
0.000000
  70
    32
  0
VERTEX
  8
0
  5
7BC
 10
7.15632
 20
-0.763358
 30
0.000000
  70
    32
  0
VERTEX
  8
0
  5
7BD
 10
7.15607
 20
-0.763542
 30
0.000000
  70
    32
  0
VERTEX
  8
0
  5
7BE
 10
7.15583
 20
-0.763726
 30
0.000000
  70
    32
  0
VERTEX
  8
0
  5
7BF
 10
7.15558
 20
-0.763910
 30
0.000000
  70
    32
  0
VERTEX
  8
0
  5
7C0
 10
7.15534
 20
-0.764094
 30
0.000000
  70
    32
  0
VERTEX
  8
0
  5
7C1
 10
7.15510
 20
-0.764279
 30
0.000000
  70
    32
  0
VERTEX
  8
0
  5
7C2
 10
7.15485
 20
-0.764464
 30
0.000000
  70
    32
  0
VERTEX
  8
0
  5
7C3
 10
7.15461
 20
-0.764650
 30
0.000000
  70
    32
  0
VERTEX
  8
0
  5
7C4
 10
7.15436
 20
-0.764835
 30
0.000000
  70
    32
  0
VERTEX
  8
0
  5
7C5
 10
7.15412
 20
-0.765022
 30
0.000000
  70
    32
  0
VERTEX
  8
0
  5
7C6
 10
7.15388
 20
-0.765208
 30
0.000000
  70
    32
  0
VERTEX
  8
0
  5
7C7
 10
7.15364
 20
-0.765395
 30
0.000000
  70
    32
  0
VERTEX
  8
0
  5
7C8
 10
7.15339
 20
-0.765582
 30
0.000000
  70
    32
  0
VERTEX
  8
0
  5
7C9
 10
7.15315
 20
-0.765769
 30
0.000000
  70
    32
  0
VERTEX
  8
0
  5
7CA
 10
7.15291
 20
-0.765957
 30
0.000000
  70
    32
  0
VERTEX
  8
0
  5
7CB
 10
7.15267
 20
-0.766145
 30
0.000000
  70
    32
  0
VERTEX
  8
0
  5
7CC
 10
7.15242
 20
-0.766334
 30
0.000000
  70
    32
  0
VERTEX
  8
0
  5
7CD
 10
7.15218
 20
-0.766522
 30
0.000000
  70
    32
  0
VERTEX
  8
0
  5
7CE
 10
7.15194
 20
-0.766711
 30
0.000000
  70
    32
  0
VERTEX
  8
0
  5
7CF
 10
7.15170
 20
-0.766901
 30
0.000000
  70
    32
  0
VERTEX
  8
0
  5
7D0
 10
7.15146
 20
-0.767090
 30
0.000000
  70
    32
  0
VERTEX
  8
0
  5
7D1
 10
7.15122
 20
-0.767280
 30
0.000000
  70
    32
  0
VERTEX
  8
0
  5
7D2
 10
7.15098
 20
-0.767471
 30
0.000000
  70
    32
  0
VERTEX
  8
0
  5
7D3
 10
7.15074
 20
-0.767661
 30
0.000000
  70
    32
  0
VERTEX
  8
0
  5
7D4
 10
7.15050
 20
-0.767852
 30
0.000000
  70
    32
  0
VERTEX
  8
0
  5
7D5
 10
7.15026
 20
-0.768044
 30
0.000000
  70
    32
  0
VERTEX
  8
0
  5
7D6
 10
7.15002
 20
-0.768235
 30
0.000000
  70
    32
  0
VERTEX
  8
0
  5
7D7
 10
7.14978
 20
-0.768427
 30
0.000000
  70
    32
  0
VERTEX
  8
0
  5
7D8
 10
7.14954
 20
-0.768619
 30
0.000000
  70
    32
  0
VERTEX
  8
0
  5
7D9
 10
7.14931
 20
-0.768812
 30
0.000000
  70
    32
  0
VERTEX
  8
0
  5
7DA
 10
7.14907
 20
-0.769004
 30
0.000000
  70
    32
  0
VERTEX
  8
0
  5
7DB
 10
7.14883
 20
-0.769198
 30
0.000000
  70
    32
  0
VERTEX
  8
0
  5
7DC
 10
7.14859
 20
-0.769391
 30
0.000000
  70
    32
  0
VERTEX
  8
0
  5
7DD
 10
7.14835
 20
-0.769585
 30
0.000000
  70
    32
  0
VERTEX
  8
0
  5
7DE
 10
7.14812
 20
-0.769779
 30
0.000000
  70
    32
  0
VERTEX
  8
0
  5
7DF
 10
7.14788
 20
-0.769973
 30
0.000000
  70
    32
  0
VERTEX
  8
0
  5
7E0
 10
7.14764
 20
-0.770168
 30
0.000000
  70
    32
  0
VERTEX
  8
0
  5
7E1
 10
7.14741
 20
-0.770363
 30
0.000000
  70
    32
  0
VERTEX
  8
0
  5
7E2
 10
7.14717
 20
-0.770558
 30
0.000000
  70
    32
  0
VERTEX
  8
0
  5
7E3
 10
7.14693
 20
-0.770753
 30
0.000000
  70
    32
  0
VERTEX
  8
0
  5
7E4
 10
7.14670
 20
-0.770949
 30
0.000000
  70
    32
  0
VERTEX
  8
0
  5
7E5
 10
7.14646
 20
-0.771145
 30
0.000000
  70
    32
  0
VERTEX
  8
0
  5
7E6
 10
7.14623
 20
-0.771342
 30
0.000000
  70
    32
  0
VERTEX
  8
0
  5
7E7
 10
7.14599
 20
-0.771538
 30
0.000000
  70
    32
  0
VERTEX
  8
0
  5
7E8
 10
7.14576
 20
-0.771735
 30
0.000000
  70
    32
  0
VERTEX
  8
0
  5
7E9
 10
7.14552
 20
-0.771932
 30
0.000000
  70
    32
  0
VERTEX
  8
0
  5
7EA
 10
7.14529
 20
-0.772130
 30
0.000000
  70
    32
  0
VERTEX
  8
0
  5
7EB
 10
7.14505
 20
-0.772328
 30
0.000000
  70
    32
  0
VERTEX
  8
0
  5
7EC
 10
7.14482
 20
-0.772526
 30
0.000000
  70
    32
  0
VERTEX
  8
0
  5
7ED
 10
7.14459
 20
-0.772724
 30
0.000000
  70
    32
  0
VERTEX
  8
0
  5
7EE
 10
7.14435
 20
-0.772923
 30
0.000000
  70
    32
  0
VERTEX
  8
0
  5
7EF
 10
7.14412
 20
-0.773122
 30
0.000000
  70
    32
  0
VERTEX
  8
0
  5
7F0
 10
7.14389
 20
-0.773322
 30
0.000000
  70
    32
  0
VERTEX
  8
0
  5
7F1
 10
7.14365
 20
-0.773521
 30
0.000000
  70
    32
  0
VERTEX
  8
0
  5
7F2
 10
7.14342
 20
-0.773721
 30
0.000000
  70
    32
  0
VERTEX
  8
0
  5
7F3
 10
7.14319
 20
-0.773921
 30
0.000000
  70
    32
  0
VERTEX
  8
0
  5
7F4
 10
7.14296
 20
-0.774121
 30
0.000000
  70
    32
  0
VERTEX
  8
0
  5
7F5
 10
7.14273
 20
-0.774322
 30
0.000000
  70
    32
  0
VERTEX
  8
0
  5
7F6
 10
7.14249
 20
-0.774523
 30
0.000000
  70
    32
  0
VERTEX
  8
0
  5
7F7
 10
7.14226
 20
-0.774724
 30
0.000000
  70
    32
  0
VERTEX
  8
0
  5
7F8
 10
7.14203
 20
-0.774926
 30
0.000000
  70
    32
  0
VERTEX
  8
0
  5
7F9
 10
7.14180
 20
-0.775128
 30
0.000000
  70
    32
  0
VERTEX
  8
0
  5
7FA
 10
7.14157
 20
-0.775330
 30
0.000000
  70
    32
  0
VERTEX
  8
0
  5
7FB
 10
7.14134
 20
-0.775532
 30
0.000000
  70
    32
  0
VERTEX
  8
0
  5
7FC
 10
7.14111
 20
-0.775735
 30
0.000000
  70
    32
  0
VERTEX
  8
0
  5
7FD
 10
7.14088
 20
-0.775938
 30
0.000000
  70
    32
  0
VERTEX
  8
0
  5
7FE
 10
7.14065
 20
-0.776141
 30
0.000000
  70
    32
  0
VERTEX
  8
0
  5
7FF
 10
7.14042
 20
-0.776344
 30
0.000000
  70
    32
  0
VERTEX
  8
0
  5
800
 10
7.14019
 20
-0.776548
 30
0.000000
  70
    32
  0
VERTEX
  8
0
  5
801
 10
7.13996
 20
-0.776752
 30
0.000000
  70
    32
  0
VERTEX
  8
0
  5
802
 10
7.13973
 20
-0.776956
 30
0.000000
  70
    32
  0
VERTEX
  8
0
  5
803
 10
7.13951
 20
-0.777161
 30
0.000000
  70
    32
  0
VERTEX
  8
0
  5
804
 10
7.13928
 20
-0.777365
 30
0.000000
  70
    32
  0
VERTEX
  8
0
  5
805
 10
7.13905
 20
-0.777570
 30
0.000000
  70
    32
  0
VERTEX
  8
0
  5
806
 10
7.13882
 20
-0.777776
 30
0.000000
  70
    32
  0
VERTEX
  8
0
  5
807
 10
7.13859
 20
-0.777981
 30
0.000000
  70
    32
  0
VERTEX
  8
0
  5
808
 10
7.13837
 20
-0.778187
 30
0.000000
  70
    32
  0
VERTEX
  8
0
  5
809
 10
7.13814
 20
-0.778393
 30
0.000000
  70
    32
  0
VERTEX
  8
0
  5
80A
 10
7.13791
 20
-0.778599
 30
0.000000
  70
    32
  0
VERTEX
  8
0
  5
80B
 10
7.13769
 20
-0.778806
 30
0.000000
  70
    32
  0
VERTEX
  8
0
  5
80C
 10
7.13746
 20
-0.779013
 30
0.000000
  70
    32
  0
VERTEX
  8
0
  5
80D
 10
7.13724
 20
-0.779220
 30
0.000000
  70
    32
  0
VERTEX
  8
0
  5
80E
 10
7.13701
 20
-0.779427
 30
0.000000
  70
    32
  0
VERTEX
  8
0
  5
80F
 10
7.13678
 20
-0.779635
 30
0.000000
  70
    32
  0
VERTEX
  8
0
  5
810
 10
7.13656
 20
-0.779843
 30
0.000000
  70
    32
  0
VERTEX
  8
0
  5
811
 10
7.13633
 20
-0.780051
 30
0.000000
  70
    32
  0
VERTEX
  8
0
  5
812
 10
7.13611
 20
-0.780259
 30
0.000000
  70
    32
  0
VERTEX
  8
0
  5
813
 10
7.13588
 20
-0.780468
 30
0.000000
  70
    32
  0
VERTEX
  8
0
  5
814
 10
7.13566
 20
-0.780677
 30
0.000000
  70
    32
  0
VERTEX
  8
0
  5
815
 10
7.13544
 20
-0.780886
 30
0.000000
  70
    32
  0
VERTEX
  8
0
  5
816
 10
7.13521
 20
-0.781095
 30
0.000000
  70
    32
  0
VERTEX
  8
0
  5
817
 10
7.13499
 20
-0.781305
 30
0.000000
  70
    32
  0
VERTEX
  8
0
  5
818
 10
7.13476
 20
-0.781514
 30
0.000000
  70
    32
  0
VERTEX
  8
0
  5
819
 10
7.13454
 20
-0.781724
 30
0.000000
  70
    32
  0
VERTEX
  8
0
  5
81A
 10
7.13432
 20
-0.781935
 30
0.000000
  70
    32
  0
VERTEX
  8
0
  5
81B
 10
7.13410
 20
-0.782145
 30
0.000000
  70
    32
  0
VERTEX
  8
0
  5
81C
 10
7.13387
 20
-0.782356
 30
0.000000
  70
    32
  0
VERTEX
  8
0
  5
81D
 10
7.13365
 20
-0.782567
 30
0.000000
  70
    32
  0
VERTEX
  8
0
  5
81E
 10
7.13343
 20
-0.782778
 30
0.000000
  70
    32
  0
VERTEX
  8
0
  5
81F
 10
7.13321
 20
-0.782990
 30
0.000000
  70
    32
  0
VERTEX
  8
0
  5
820
 10
7.13299
 20
-0.783202
 30
0.000000
  70
    32
  0
VERTEX
  8
0
  5
821
 10
7.13276
 20
-0.783414
 30
0.000000
  70
    32
  0
VERTEX
  8
0
  5
822
 10
7.13254
 20
-0.783626
 30
0.000000
  70
    32
  0
VERTEX
  8
0
  5
823
 10
7.13232
 20
-0.783838
 30
0.000000
  70
    32
  0
VERTEX
  8
0
  5
824
 10
7.13210
 20
-0.784051
 30
0.000000
  70
    32
  0
VERTEX
  8
0
  5
825
 10
7.13188
 20
-0.784264
 30
0.000000
  70
    32
  0
VERTEX
  8
0
  5
826
 10
7.13166
 20
-0.784477
 30
0.000000
  70
    32
  0
VERTEX
  8
0
  5
827
 10
7.13144
 20
-0.784690
 30
0.000000
  70
    32
  0
VERTEX
  8
0
  5
828
 10
7.13122
 20
-0.784904
 30
0.000000
  70
    32
  0
VERTEX
  8
0
  5
829
 10
7.13100
 20
-0.785118
 30
0.000000
  70
    32
  0
VERTEX
  8
0
  5
82A
 10
7.13078
 20
-0.785332
 30
0.000000
  70
    32
  0
VERTEX
  8
0
  5
82B
 10
7.13056
 20
-0.785546
 30
0.000000
  70
    32
  0
VERTEX
  8
0
  5
82C
 10
7.13035
 20
-0.785760
 30
0.000000
  70
    32
  0
VERTEX
  8
0
  5
82D
 10
7.13013
 20
-0.785975
 30
0.000000
  70
    32
  0
VERTEX
  8
0
  5
82E
 10
7.12991
 20
-0.786190
 30
0.000000
  70
    32
  0
VERTEX
  8
0
  5
82F
 10
7.12969
 20
-0.786405
 30
0.000000
  70
    32
  0
VERTEX
  8
0
  5
830
 10
7.12947
 20
-0.786620
 30
0.000000
  70
    32
  0
VERTEX
  8
0
  5
831
 10
7.12926
 20
-0.786836
 30
0.000000
  70
    32
  0
VERTEX
  8
0
  5
832
 10
7.12904
 20
-0.787052
 30
0.000000
  70
    32
  0
VERTEX
  8
0
  5
833
 10
7.12882
 20
-0.787268
 30
0.000000
  70
    32
  0
VERTEX
  8
0
  5
834
 10
7.12860
 20
-0.787484
 30
0.000000
  70
    32
  0
VERTEX
  8
0
  5
835
 10
7.12839
 20
-0.787701
 30
0.000000
  70
    32
  0
VERTEX
  8
0
  5
836
 10
7.12817
 20
-0.787917
 30
0.000000
  70
    32
  0
VERTEX
  8
0
  5
837
 10
7.12796
 20
-0.788134
 30
0.000000
  70
    32
  0
VERTEX
  8
0
  5
838
 10
7.12774
 20
-0.788351
 30
0.000000
  70
    32
  0
VERTEX
  8
0
  5
839
 10
7.12752
 20
-0.788569
 30
0.000000
  70
    32
  0
VERTEX
  8
0
  5
83A
 10
7.12731
 20
-0.788786
 30
0.000000
  70
    32
  0
VERTEX
  8
0
  5
83B
 10
7.12709
 20
-0.789004
 30
0.000000
  70
    32
  0
VERTEX
  8
0
  5
83C
 10
7.12688
 20
-0.789222
 30
0.000000
  70
    32
  0
VERTEX
  8
0
  5
83D
 10
7.12666
 20
-0.789440
 30
0.000000
  70
    32
  0
VERTEX
  8
0
  5
83E
 10
7.12645
 20
-0.789659
 30
0.000000
  70
    32
  0
VERTEX
  8
0
  5
83F
 10
7.12623
 20
-0.789877
 30
0.000000
  70
    32
  0
VERTEX
  8
0
  5
840
 10
7.12602
 20
-0.790096
 30
0.000000
  70
    32
  0
VERTEX
  8
0
  5
841
 10
7.12581
 20
-0.790315
 30
0.000000
  70
    32
  0
VERTEX
  8
0
  5
842
 10
7.12559
 20
-0.790535
 30
0.000000
  70
    32
  0
VERTEX
  8
0
  5
843
 10
7.12538
 20
-0.790754
 30
0.000000
  70
    32
  0
VERTEX
  8
0
  5
844
 10
7.12517
 20
-0.790974
 30
0.000000
  70
    32
  0
VERTEX
  8
0
  5
845
 10
7.12495
 20
-0.791194
 30
0.000000
  70
    32
  0
VERTEX
  8
0
  5
846
 10
7.12474
 20
-0.791414
 30
0.000000
  70
    32
  0
VERTEX
  8
0
  5
847
 10
7.12453
 20
-0.791635
 30
0.000000
  70
    32
  0
VERTEX
  8
0
  5
848
 10
7.12432
 20
-0.791855
 30
0.000000
  70
    32
  0
VERTEX
  8
0
  5
849
 10
7.12410
 20
-0.792076
 30
0.000000
  70
    32
  0
VERTEX
  8
0
  5
84A
 10
7.12389
 20
-0.792297
 30
0.000000
  70
    32
  0
VERTEX
  8
0
  5
84B
 10
7.12368
 20
-0.792518
 30
0.000000
  70
    32
  0
VERTEX
  8
0
  5
84C
 10
7.12347
 20
-0.792740
 30
0.000000
  70
    32
  0
VERTEX
  8
0
  5
84D
 10
7.12326
 20
-0.792962
 30
0.000000
  70
    32
  0
VERTEX
  8
0
  5
84E
 10
7.12305
 20
-0.793183
 30
0.000000
  70
    32
  0
VERTEX
  8
0
  5
84F
 10
7.12284
 20
-0.793406
 30
0.000000
  70
    32
  0
VERTEX
  8
0
  5
850
 10
7.12262
 20
-0.793628
 30
0.000000
  70
    32
  0
VERTEX
  8
0
  5
851
 10
7.12241
 20
-0.793850
 30
0.000000
  70
    32
  0
SEQEND
  8
0
  5
852
  0
POLYLINE
  8
0
  5
853
  62
7
  66
     1
 10
0.000000
 20
0.000000
 30
0.000000
  70
     8
  0
VERTEX
  8
0
  5
854
 10
7.11355
 20
-0.803644
 30
0.000000
  70
    32
  0
VERTEX
  8
0
  5
855
 10
7.11337
 20
-0.803846
 30
0.000000
  70
    32
  0
VERTEX
  8
0
  5
856
 10
7.11320
 20
-0.804048
 30
0.000000
  70
    32
  0
VERTEX
  8
0
  5
857
 10
7.11302
 20
-0.804250
 30
0.000000
  70
    32
  0
VERTEX
  8
0
  5
858
 10
7.11285
 20
-0.804452
 30
0.000000
  70
    32
  0
VERTEX
  8
0
  5
859
 10
7.11267
 20
-0.804654
 30
0.000000
  70
    32
  0
VERTEX
  8
0
  5
85A
 10
7.11250
 20
-0.804856
 30
0.000000
  70
    32
  0
VERTEX
  8
0
  5
85B
 10
7.11232
 20
-0.805058
 30
0.000000
  70
    32
  0
VERTEX
  8
0
  5
85C
 10
7.11215
 20
-0.805261
 30
0.000000
  70
    32
  0
VERTEX
  8
0
  5
85D
 10
7.11198
 20
-0.805464
 30
0.000000
  70
    32
  0
VERTEX
  8
0
  5
85E
 10
7.11180
 20
-0.805667
 30
0.000000
  70
    32
  0
VERTEX
  8
0
  5
85F
 10
7.11163
 20
-0.805870
 30
0.000000
  70
    32
  0
VERTEX
  8
0
  5
860
 10
7.11146
 20
-0.806073
 30
0.000000
  70
    32
  0
VERTEX
  8
0
  5
861
 10
7.11128
 20
-0.806276
 30
0.000000
  70
    32
  0
VERTEX
  8
0
  5
862
 10
7.11111
 20
-0.806479
 30
0.000000
  70
    32
  0
VERTEX
  8
0
  5
863
 10
7.11094
 20
-0.806683
 30
0.000000
  70
    32
  0
VERTEX
  8
0
  5
864
 10
7.11076
 20
-0.806887
 30
0.000000
  70
    32
  0
VERTEX
  8
0
  5
865
 10
7.11059
 20
-0.807090
 30
0.000000
  70
    32
  0
VERTEX
  8
0
  5
866
 10
7.11042
 20
-0.807294
 30
0.000000
  70
    32
  0
VERTEX
  8
0
  5
867
 10
7.11025
 20
-0.807498
 30
0.000000
  70
    32
  0
VERTEX
  8
0
  5
868
 10
7.11008
 20
-0.807703
 30
0.000000
  70
    32
  0
VERTEX
  8
0
  5
869
 10
7.10990
 20
-0.807907
 30
0.000000
  70
    32
  0
VERTEX
  8
0
  5
86A
 10
7.10973
 20
-0.808111
 30
0.000000
  70
    32
  0
VERTEX
  8
0
  5
86B
 10
7.10956
 20
-0.808316
 30
0.000000
  70
    32
  0
VERTEX
  8
0
  5
86C
 10
7.10939
 20
-0.808521
 30
0.000000
  70
    32
  0
VERTEX
  8
0
  5
86D
 10
7.10922
 20
-0.808726
 30
0.000000
  70
    32
  0
VERTEX
  8
0
  5
86E
 10
7.10905
 20
-0.808931
 30
0.000000
  70
    32
  0
VERTEX
  8
0
  5
86F
 10
7.10888
 20
-0.809136
 30
0.000000
  70
    32
  0
VERTEX
  8
0
  5
870
 10
7.10870
 20
-0.809341
 30
0.000000
  70
    32
  0
VERTEX
  8
0
  5
871
 10
7.10853
 20
-0.809546
 30
0.000000
  70
    32
  0
VERTEX
  8
0
  5
872
 10
7.10836
 20
-0.809752
 30
0.000000
  70
    32
  0
VERTEX
  8
0
  5
873
 10
7.10819
 20
-0.809958
 30
0.000000
  70
    32
  0
VERTEX
  8
0
  5
874
 10
7.10802
 20
-0.810163
 30
0.000000
  70
    32
  0
VERTEX
  8
0
  5
875
 10
7.10785
 20
-0.810369
 30
0.000000
  70
    32
  0
VERTEX
  8
0
  5
876
 10
7.10768
 20
-0.810575
 30
0.000000
  70
    32
  0
VERTEX
  8
0
  5
877
 10
7.10751
 20
-0.810782
 30
0.000000
  70
    32
  0
VERTEX
  8
0
  5
878
 10
7.10734
 20
-0.810988
 30
0.000000
  70
    32
  0
VERTEX
  8
0
  5
879
 10
7.10717
 20
-0.811194
 30
0.000000
  70
    32
  0
VERTEX
  8
0
  5
87A
 10
7.10701
 20
-0.811401
 30
0.000000
  70
    32
  0
VERTEX
  8
0
  5
87B
 10
7.10684
 20
-0.811608
 30
0.000000
  70
    32
  0
VERTEX
  8
0
  5
87C
 10
7.10667
 20
-0.811814
 30
0.000000
  70
    32
  0
VERTEX
  8
0
  5
87D
 10
7.10650
 20
-0.812021
 30
0.000000
  70
    32
  0
VERTEX
  8
0
  5
87E
 10
7.10633
 20
-0.812228
 30
0.000000
  70
    32
  0
VERTEX
  8
0
  5
87F
 10
7.10616
 20
-0.812436
 30
0.000000
  70
    32
  0
VERTEX
  8
0
  5
880
 10
7.10599
 20
-0.812643
 30
0.000000
  70
    32
  0
VERTEX
  8
0
  5
881
 10
7.10583
 20
-0.812850
 30
0.000000
  70
    32
  0
VERTEX
  8
0
  5
882
 10
7.10566
 20
-0.813058
 30
0.000000
  70
    32
  0
VERTEX
  8
0
  5
883
 10
7.10549
 20
-0.813266
 30
0.000000
  70
    32
  0
VERTEX
  8
0
  5
884
 10
7.10532
 20
-0.813473
 30
0.000000
  70
    32
  0
VERTEX
  8
0
  5
885
 10
7.10515
 20
-0.813681
 30
0.000000
  70
    32
  0
VERTEX
  8
0
  5
886
 10
7.10499
 20
-0.813889
 30
0.000000
  70
    32
  0
VERTEX
  8
0
  5
887
 10
7.10482
 20
-0.814098
 30
0.000000
  70
    32
  0
VERTEX
  8
0
  5
888
 10
7.10465
 20
-0.814306
 30
0.000000
  70
    32
  0
VERTEX
  8
0
  5
889
 10
7.10449
 20
-0.814514
 30
0.000000
  70
    32
  0
VERTEX
  8
0
  5
88A
 10
7.10432
 20
-0.814723
 30
0.000000
  70
    32
  0
VERTEX
  8
0
  5
88B
 10
7.10415
 20
-0.814932
 30
0.000000
  70
    32
  0
VERTEX
  8
0
  5
88C
 10
7.10399
 20
-0.815141
 30
0.000000
  70
    32
  0
VERTEX
  8
0
  5
88D
 10
7.10382
 20
-0.815349
 30
0.000000
  70
    32
  0
VERTEX
  8
0
  5
88E
 10
7.10365
 20
-0.815559
 30
0.000000
  70
    32
  0
VERTEX
  8
0
  5
88F
 10
7.10349
 20
-0.815768
 30
0.000000
  70
    32
  0
VERTEX
  8
0
  5
890
 10
7.10332
 20
-0.815977
 30
0.000000
  70
    32
  0
VERTEX
  8
0
  5
891
 10
7.10316
 20
-0.816186
 30
0.000000
  70
    32
  0
VERTEX
  8
0
  5
892
 10
7.10299
 20
-0.816396
 30
0.000000
  70
    32
  0
VERTEX
  8
0
  5
893
 10
7.10282
 20
-0.816606
 30
0.000000
  70
    32
  0
VERTEX
  8
0
  5
894
 10
7.10266
 20
-0.816815
 30
0.000000
  70
    32
  0
VERTEX
  8
0
  5
895
 10
7.10249
 20
-0.817025
 30
0.000000
  70
    32
  0
VERTEX
  8
0
  5
896
 10
7.10233
 20
-0.817235
 30
0.000000
  70
    32
  0
VERTEX
  8
0
  5
897
 10
7.10216
 20
-0.817446
 30
0.000000
  70
    32
  0
VERTEX
  8
0
  5
898
 10
7.10200
 20
-0.817656
 30
0.000000
  70
    32
  0
VERTEX
  8
0
  5
899
 10
7.10184
 20
-0.817866
 30
0.000000
  70
    32
  0
VERTEX
  8
0
  5
89A
 10
7.10167
 20
-0.818077
 30
0.000000
  70
    32
  0
VERTEX
  8
0
  5
89B
 10
7.10151
 20
-0.818287
 30
0.000000
  70
    32
  0
VERTEX
  8
0
  5
89C
 10
7.10134
 20
-0.818498
 30
0.000000
  70
    32
  0
VERTEX
  8
0
  5
89D
 10
7.10118
 20
-0.818709
 30
0.000000
  70
    32
  0
VERTEX
  8
0
  5
89E
 10
7.10101
 20
-0.818920
 30
0.000000
  70
    32
  0
VERTEX
  8
0
  5
89F
 10
7.10085
 20
-0.819131
 30
0.000000
  70
    32
  0
VERTEX
  8
0
  5
8A0
 10
7.10069
 20
-0.819342
 30
0.000000
  70
    32
  0
VERTEX
  8
0
  5
8A1
 10
7.10052
 20
-0.819554
 30
0.000000
  70
    32
  0
VERTEX
  8
0
  5
8A2
 10
7.10036
 20
-0.819765
 30
0.000000
  70
    32
  0
VERTEX
  8
0
  5
8A3
 10
7.10020
 20
-0.819977
 30
0.000000
  70
    32
  0
VERTEX
  8
0
  5
8A4
 10
7.10004
 20
-0.820188
 30
0.000000
  70
    32
  0
VERTEX
  8
0
  5
8A5
 10
7.09987
 20
-0.820400
 30
0.000000
  70
    32
  0
VERTEX
  8
0
  5
8A6
 10
7.09971
 20
-0.820612
 30
0.000000
  70
    32
  0
VERTEX
  8
0
  5
8A7
 10
7.09955
 20
-0.820824
 30
0.000000
  70
    32
  0
VERTEX
  8
0
  5
8A8
 10
7.09939
 20
-0.821036
 30
0.000000
  70
    32
  0
VERTEX
  8
0
  5
8A9
 10
7.09922
 20
-0.821248
 30
0.000000
  70
    32
  0
VERTEX
  8
0
  5
8AA
 10
7.09906
 20
-0.821461
 30
0.000000
  70
    32
  0
VERTEX
  8
0
  5
8AB
 10
7.09890
 20
-0.821673
 30
0.000000
  70
    32
  0
VERTEX
  8
0
  5
8AC
 10
7.09874
 20
-0.821886
 30
0.000000
  70
    32
  0
VERTEX
  8
0
  5
8AD
 10
7.09858
 20
-0.822099
 30
0.000000
  70
    32
  0
VERTEX
  8
0
  5
8AE
 10
7.09842
 20
-0.822311
 30
0.000000
  70
    32
  0
VERTEX
  8
0
  5
8AF
 10
7.09825
 20
-0.822524
 30
0.000000
  70
    32
  0
VERTEX
  8
0
  5
8B0
 10
7.09809
 20
-0.822737
 30
0.000000
  70
    32
  0
VERTEX
  8
0
  5
8B1
 10
7.09793
 20
-0.822951
 30
0.000000
  70
    32
  0
VERTEX
  8
0
  5
8B2
 10
7.09777
 20
-0.823164
 30
0.000000
  70
    32
  0
VERTEX
  8
0
  5
8B3
 10
7.09761
 20
-0.823377
 30
0.000000
  70
    32
  0
VERTEX
  8
0
  5
8B4
 10
7.09745
 20
-0.823591
 30
0.000000
  70
    32
  0
VERTEX
  8
0
  5
8B5
 10
7.09729
 20
-0.823804
 30
0.000000
  70
    32
  0
VERTEX
  8
0
  5
8B6
 10
7.09713
 20
-0.824018
 30
0.000000
  70
    32
  0
VERTEX
  8
0
  5
8B7
 10
7.09697
 20
-0.824232
 30
0.000000
  70
    32
  0
VERTEX
  8
0
  5
8B8
 10
7.09681
 20
-0.824446
 30
0.000000
  70
    32
  0
VERTEX
  8
0
  5
8B9
 10
7.09665
 20
-0.824660
 30
0.000000
  70
    32
  0
VERTEX
  8
0
  5
8BA
 10
7.09649
 20
-0.824874
 30
0.000000
  70
    32
  0
VERTEX
  8
0
  5
8BB
 10
7.09633
 20
-0.825088
 30
0.000000
  70
    32
  0
VERTEX
  8
0
  5
8BC
 10
7.09617
 20
-0.825303
 30
0.000000
  70
    32
  0
VERTEX
  8
0
  5
8BD
 10
7.09601
 20
-0.825517
 30
0.000000
  70
    32
  0
VERTEX
  8
0
  5
8BE
 10
7.09585
 20
-0.825732
 30
0.000000
  70
    32
  0
VERTEX
  8
0
  5
8BF
 10
7.09569
 20
-0.825947
 30
0.000000
  70
    32
  0
VERTEX
  8
0
  5
8C0
 10
7.09554
 20
-0.826162
 30
0.000000
  70
    32
  0
VERTEX
  8
0
  5
8C1
 10
7.09538
 20
-0.826376
 30
0.000000
  70
    32
  0
VERTEX
  8
0
  5
8C2
 10
7.09522
 20
-0.826592
 30
0.000000
  70
    32
  0
VERTEX
  8
0
  5
8C3
 10
7.09506
 20
-0.826807
 30
0.000000
  70
    32
  0
VERTEX
  8
0
  5
8C4
 10
7.09490
 20
-0.827022
 30
0.000000
  70
    32
  0
VERTEX
  8
0
  5
8C5
 10
7.09474
 20
-0.827237
 30
0.000000
  70
    32
  0
VERTEX
  8
0
  5
8C6
 10
7.09459
 20
-0.827453
 30
0.000000
  70
    32
  0
VERTEX
  8
0
  5
8C7
 10
7.09443
 20
-0.827668
 30
0.000000
  70
    32
  0
VERTEX
  8
0
  5
8C8
 10
7.09427
 20
-0.827884
 30
0.000000
  70
    32
  0
VERTEX
  8
0
  5
8C9
 10
7.09411
 20
-0.828100
 30
0.000000
  70
    32
  0
VERTEX
  8
0
  5
8CA
 10
7.09396
 20
-0.828316
 30
0.000000
  70
    32
  0
VERTEX
  8
0
  5
8CB
 10
7.09380
 20
-0.828532
 30
0.000000
  70
    32
  0
VERTEX
  8
0
  5
8CC
 10
7.09364
 20
-0.828748
 30
0.000000
  70
    32
  0
VERTEX
  8
0
  5
8CD
 10
7.09349
 20
-0.828964
 30
0.000000
  70
    32
  0
VERTEX
  8
0
  5
8CE
 10
7.09333
 20
-0.829180
 30
0.000000
  70
    32
  0
VERTEX
  8
0
  5
8CF
 10
7.09317
 20
-0.829397
 30
0.000000
  70
    32
  0
VERTEX
  8
0
  5
8D0
 10
7.09302
 20
-0.829613
 30
0.000000
  70
    32
  0
VERTEX
  8
0
  5
8D1
 10
7.09286
 20
-0.829830
 30
0.000000
  70
    32
  0
VERTEX
  8
0
  5
8D2
 10
7.09270
 20
-0.830047
 30
0.000000
  70
    32
  0
VERTEX
  8
0
  5
8D3
 10
7.09255
 20
-0.830264
 30
0.000000
  70
    32
  0
VERTEX
  8
0
  5
8D4
 10
7.09239
 20
-0.830481
 30
0.000000
  70
    32
  0
VERTEX
  8
0
  5
8D5
 10
7.09224
 20
-0.830698
 30
0.000000
  70
    32
  0
VERTEX
  8
0
  5
8D6
 10
7.09208
 20
-0.830915
 30
0.000000
  70
    32
  0
VERTEX
  8
0
  5
8D7
 10
7.09193
 20
-0.831132
 30
0.000000
  70
    32
  0
VERTEX
  8
0
  5
8D8
 10
7.09177
 20
-0.831349
 30
0.000000
  70
    32
  0
VERTEX
  8
0
  5
8D9
 10
7.09162
 20
-0.831567
 30
0.000000
  70
    32
  0
VERTEX
  8
0
  5
8DA
 10
7.09146
 20
-0.831784
 30
0.000000
  70
    32
  0
VERTEX
  8
0
  5
8DB
 10
7.09131
 20
-0.832002
 30
0.000000
  70
    32
  0
VERTEX
  8
0
  5
8DC
 10
7.09115
 20
-0.832220
 30
0.000000
  70
    32
  0
VERTEX
  8
0
  5
8DD
 10
7.09100
 20
-0.832438
 30
0.000000
  70
    32
  0
VERTEX
  8
0
  5
8DE
 10
7.09084
 20
-0.832656
 30
0.000000
  70
    32
  0
VERTEX
  8
0
  5
8DF
 10
7.09069
 20
-0.832874
 30
0.000000
  70
    32
  0
VERTEX
  8
0
  5
8E0
 10
7.09054
 20
-0.833092
 30
0.000000
  70
    32
  0
VERTEX
  8
0
  5
8E1
 10
7.09038
 20
-0.833310
 30
0.000000
  70
    32
  0
VERTEX
  8
0
  5
8E2
 10
7.09023
 20
-0.833529
 30
0.000000
  70
    32
  0
VERTEX
  8
0
  5
8E3
 10
7.09007
 20
-0.833747
 30
0.000000
  70
    32
  0
VERTEX
  8
0
  5
8E4
 10
7.08992
 20
-0.833966
 30
0.000000
  70
    32
  0
VERTEX
  8
0
  5
8E5
 10
7.08977
 20
-0.834184
 30
0.000000
  70
    32
  0
VERTEX
  8
0
  5
8E6
 10
7.08961
 20
-0.834403
 30
0.000000
  70
    32
  0
VERTEX
  8
0
  5
8E7
 10
7.08946
 20
-0.834622
 30
0.000000
  70
    32
  0
VERTEX
  8
0
  5
8E8
 10
7.08931
 20
-0.834841
 30
0.000000
  70
    32
  0
VERTEX
  8
0
  5
8E9
 10
7.08916
 20
-0.835060
 30
0.000000
  70
    32
  0
VERTEX
  8
0
  5
8EA
 10
7.08900
 20
-0.835279
 30
0.000000
  70
    32
  0
VERTEX
  8
0
  5
8EB
 10
7.08885
 20
-0.835498
 30
0.000000
  70
    32
  0
VERTEX
  8
0
  5
8EC
 10
7.08870
 20
-0.835718
 30
0.000000
  70
    32
  0
VERTEX
  8
0
  5
8ED
 10
7.08855
 20
-0.835937
 30
0.000000
  70
    32
  0
VERTEX
  8
0
  5
8EE
 10
7.08839
 20
-0.836157
 30
0.000000
  70
    32
  0
VERTEX
  8
0
  5
8EF
 10
7.08824
 20
-0.836376
 30
0.000000
  70
    32
  0
VERTEX
  8
0
  5
8F0
 10
7.08809
 20
-0.836596
 30
0.000000
  70
    32
  0
VERTEX
  8
0
  5
8F1
 10
7.08794
 20
-0.836816
 30
0.000000
  70
    32
  0
VERTEX
  8
0
  5
8F2
 10
7.08779
 20
-0.837036
 30
0.000000
  70
    32
  0
VERTEX
  8
0
  5
8F3
 10
7.08764
 20
-0.837256
 30
0.000000
  70
    32
  0
SEQEND
  8
0
  5
8F4
  0
LINE
  5
4D1
  8
0
  6
CONTINUOUS
 62
     7
 10
1.950420115050008
 20
-5.2783711529999939
 30
0.0
 11
2.0030565142500052
 21
-5.2769662735999807
 31
0.0
  0
LINE
  5
4D2
  8
0
  6
CONTINUOUS
 62
     7
 10
-0.3681729336500012
 20
-5.2979208537999929
 30
0.0
 11
-0.3646206460499997
 21
-5.2979365566999936
 31
0.0
  0
LINE
  5
4D3
  8
0
  6
CONTINUOUS
 62
     7
 10
0.4785556134500127
 20
-5.2983555426999942
 30
0.0
 11
0.4856933032500024
 21
-5.2983309376999861
 31
0.0
  0
LINE
  5
4D4
  8
0
  6
CONTINUOUS
 62
     7
 10
-5.5326919646499979
 20
-4.9882304060999871
 30
0.0
 11
-5.5226719973499883
 21
-4.9892921425999921
 31
0.0
  0
LINE
  5
55B
  8
0
 62
     7
 10
-7.6613051383499871
 20
-0.5216964484999949
 30
0.0
 11
-7.6672588817080589
 21
-0.5169634002219964
 31
0.0
  0
LINE
  5
55C
  8
0
 62
     7
 10
6.8699009582499988
 20
-1.179853626300001
 30
0.0
 11
6.8820847493499988
 21
-1.159528507600001
 31
0.0
  0
ATTDEF
  5
55D
  8
0
 62
     7
 10
0.0
 20
0.0
 30
0.0
 40
0.001
  1
K-2882
  3

  2
MODELNUMBER
 70
     8
1001
ACDBATTR
1070
     0
1070
     1
  0
ATTDEF
  5
55E
  8
0
 62
     7
 10
0.0
 20
-0.0016666666666667
 30
0.0
 40
0.001
  1
VERTICYL
  3

  2
TRADENAME
 70
     8
1001
ACDBATTR
1070
     0
1070
     1
  0
ATTDEF
  5
55F
  8
0
 62
     7
 10
0.0
 20
-0.0033333333333333
 30
0.0
 40
0.001
  1
LAVATORIES
  3

  2
PRODUCT
 70
     8
1001
ACDBATTR
1070
     0
1070
     1
  0
ATTDEF
  5
560
  8
0
 62
     7
 10
0.0
 20
-0.005
 30
0.0
 40
0.001
  1
VITREOUS CHINA
  3

  2
MATERIAL
 70
     8
1001
ACDBATTR
1070
     0
1070
     1
  0
ENDSEC
  0
EOF
