  0
SECTION
  2
HEADER
  9
$ACADVER
  1
AC1009
  9
$INSBASE
 10
0.0
 20
0.0
 30
0.0
  9
$EXTMIN
 10
-0.1647628208202749
 20
-16.32894360295549
 30
0.0
  9
$EXTMAX
 10
19.42411833904014
 20
0.2374431450626346
 30
6.406252
  9
$LIMMIN
 10
0.0
 20
0.0
  9
$LIMMAX
 10
12.0
 20
9.0
  9
$ORTHOMODE
 70
     1
  9
$REGENMODE
 70
     1
  9
$FILLMODE
 70
     1
  9
$QTEXTMODE
 70
     0
  9
$MIRRTEXT
 70
     1
  9
$DRAGMODE
 70
     2
  9
$LTSCALE
 40
1.0
  9
$OSMODE
 70
     0
  9
$ATTMODE
 70
     1
  9
$TEXTSIZE
 40
0.2
  9
$TRACEWID
 40
0.05
  9
$TEXTSTYLE
  7
STANDARD
  9
$CLAYER
  8
0
  9
$CELTYPE
  6
BYLAYER
  9
$CECOLOR
 62
   256
  9
$DIMSCALE
 40
1.0
  9
$DIMASZ
 40
0.18
  9
$DIMEXO
 40
0.0625
  9
$DIMDLI
 40
0.38
  9
$DIMRND
 40
0.0
  9
$DIMDLE
 40
0.0
  9
$DIMEXE
 40
0.18
  9
$DIMTP
 40
0.0
  9
$DIMTM
 40
0.0
  9
$DIMTXT
 40
0.18
  9
$DIMCEN
 40
0.09
  9
$DIMTSZ
 40
0.0
  9
$DIMTOL
 70
     0
  9
$DIMLIM
 70
     0
  9
$DIMTIH
 70
     1
  9
$DIMTOH
 70
     1
  9
$DIMSE1
 70
     0
  9
$DIMSE2
 70
     0
  9
$DIMTAD
 70
     0
  9
$DIMZIN
 70
     0
  9
$DIMBLK
  1

  9
$DIMASO
 70
     1
  9
$DIMSHO
 70
     1
  9
$DIMPOST
  1

  9
$DIMAPOST
  1

  9
$DIMALT
 70
     0
  9
$DIMALTD
 70
     2
  9
$DIMALTF
 40
25.4
  9
$DIMLFAC
 40
1.0
  9
$DIMTOFL
 70
     0
  9
$DIMTVP
 40
0.0
  9
$DIMTIX
 70
     0
  9
$DIMSOXD
 70
     0
  9
$DIMSAH
 70
     0
  9
$DIMBLK1
  1

  9
$DIMBLK2
  1

  9
$DIMSTYLE
  2
*UNNAMED
  9
$DIMCLRD
 70
     0
  9
$DIMCLRE
 70
     0
  9
$DIMCLRT
 70
     0
  9
$DIMTFAC
 40
1.0
  9
$DIMGAP
 40
0.09
  9
$LUNITS
 70
     2
  9
$LUPREC
 70
     4
  9
$SKETCHINC
 40
0.1
  9
$FILLETRAD
 40
0.0
  9
$AUNITS
 70
     0
  9
$AUPREC
 70
     0
  9
$MENU
  1
acad
  9
$ELEVATION
 40
0.0
  9
$PELEVATION
 40
0.0
  9
$THICKNESS
 40
0.0
  9
$LIMCHECK
 70
     0
  9
$BLIPMODE
 70
     1
  9
$CHAMFERA
 40
0.0
  9
$CHAMFERB
 40
0.0
  9
$SKPOLY
 70
     0
  9
$TDCREATE
 40
2449710.629909490
  9
$TDUPDATE
 40
2449757.532798842
  9
$TDINDWG
 40
0.0001570602
  9
$TDUSRTIMER
 40
0.0001570602
  9
$USRTIMER
 70
     1
  9
$ANGBASE
 50
0.0
  9
$ANGDIR
 70
     0
  9
$PDMODE
 70
     0
  9
$PDSIZE
 40
0.0
  9
$PLINEWID
 40
0.0
  9
$COORDS
 70
     1
  9
$SPLFRAME
 70
     0
  9
$SPLINETYPE
 70
     6
  9
$SPLINESEGS
 70
     8
  9
$ATTDIA
 70
     0
  9
$ATTREQ
 70
     1
  9
$HANDLING
 70
     0
  9
$HANDSEED
  5
0
  9
$SURFTAB1
 70
     6
  9
$SURFTAB2
 70
     6
  9
$SURFTYPE
 70
     6
  9
$SURFU
 70
     6
  9
$SURFV
 70
     6
  9
$UCSNAME
  2

  9
$UCSORG
 10
0.0
 20
0.0
 30
0.0
  9
$UCSXDIR
 10
1.0
 20
0.0
 30
0.0
  9
$UCSYDIR
 10
0.0
 20
1.0
 30
0.0
  9
$PUCSNAME
  2

  9
$PUCSORG
 10
0.0
 20
0.0
 30
0.0
  9
$PUCSXDIR
 10
1.0
 20
0.0
 30
0.0
  9
$PUCSYDIR
 10
0.0
 20
1.0
 30
0.0
  9
$USERI1
 70
     0
  9
$USERI2
 70
     0
  9
$USERI3
 70
     0
  9
$USERI4
 70
     0
  9
$USERI5
 70
     0
  9
$USERR1
 40
0.0
  9
$USERR2
 40
0.0
  9
$USERR3
 40
0.0
  9
$USERR4
 40
0.0
  9
$USERR5
 40
0.0
  9
$WORLDVIEW
 70
     1
  9
$SHADEDGE
 70
     3
  9
$SHADEDIF
 70
    70
  9
$TILEMODE
 70
     1
  9
$MAXACTVP
 70
    16
  9
$PINSBASE
 10
0.0
 20
0.0
 30
2.154821404441442
  9
$PLIMCHECK
 70
     0
  9
$PEXTMIN
 10
1.000000000000000E+20
 20
1.000000000000000E+20
 30
1.000000000000000E+20
  9
$PEXTMAX
 10
-1.000000000000000E+20
 20
-1.000000000000000E+20
 30
-1.000000000000000E+20
  9
$PLIMMIN
 10
0.0
 20
0.0
  9
$PLIMMAX
 10
12.0
 20
9.0
  9
$UNITMODE
 70
     0
  9
$VISRETAIN
 70
     0
  9
$PLINEGEN
 70
     0
  9
$PSLTSCALE
 70
     1
  9
$TREEDEPTH
 70
  3020
  9
$DWGCODEPAGE
  3
ascii
  0
ENDSEC
  0
SECTION
  2
TABLES
  0
TABLE
  2
VPORT
 70
     1
  0
VPORT
  2
*ACTIVE
 70
     0
 10
0.0
 20
0.0
 11
1.0
 21
1.0
 12
16.57087574045881
 22
-0.7533717678467991
 13
0.0
 23
0.0
 14
1.0
 24
1.0
 15
0.0
 25
0.0
 16
-0.241844762647975
 26
-0.6644630243886748
 36
0.7071067811865475
 17
0.0
 27
0.0
 37
0.0
 40
19.9829876718256
 41
1.661211129296235
 42
50.0
 43
0.0
 44
0.0
 50
0.0
 51
0.0
 71
     0
 72
   100
 73
     1
 74
     0
 75
     0
 76
     0
 77
     0
 78
     0
  0
ENDTAB
  0
TABLE
  2
LTYPE
 70
     1
  0
LTYPE
  2
CONTINUOUS
 70
    64
  3
Solid line
 72
    65
 73
     0
 40
0.0
  0
ENDTAB
  0
TABLE
  2
LAYER
 70
     5
  0
LAYER
  2
0
 70
    64
 62
     7
  6
CONTINUOUS
  0
LAYER
  2
RK-LAVAT
 70
    64
 62
     7
  6
CONTINUOUS
  0
LAYER
  2
CNTRCUTR
 70
    64
 62
     7
  6
CONTINUOUS
  0
LAYER
  2
FK-FOOTP
 70
    64
 62
     7
  6
CONTINUOUS
  0
LAYER
  2
RK-DRAIN
 70
    64
 62
     7
  6
CONTINUOUS
  0
ENDTAB
  0
TABLE
  2
STYLE
 70
     1
  0
STYLE
  2
STANDARD
 70
     0
 40
0.0
 41
1.0
 50
0.0
 71
     0
 42
0.2
  3
txt
  4

  0
ENDTAB
  0
TABLE
  2
VIEW
 70
     0
  0
ENDTAB
  0
TABLE
  2
UCS
 70
     0
  0
ENDTAB
  0
TABLE
  2
APPID
 70
     3
  0
APPID
  2
ACAD
 70
    64
  0
APPID
  2
CDKT-SIZ
 70
    64
  0
APPID
  2
CDKT-STR2
 70
    64
  0
ENDTAB
  0
TABLE
  2
DIMSTYLE
 70
     0
  0
ENDTAB
  0
ENDSEC
  0
SECTION
  2
BLOCKS
  0
BLOCK
  8
0
  2
02904PLN
 70
    64
 10
0.0
 20
0.0
 30
0.0
  3
02904PLN
  0
LINE
  8
FK-FOOTP
 10
9.60617084045849
 20
14.13692768058569
 30
0.0
 11
9.60617084045849
 21
14.13692768058569
 31
0.0
  0
ARC
  8
FK-FOOTP
 10
6.899456226321285
 20
8.125000000000001
 30
0.0
 40
6.899456226321285
 50
153.8741127173766
 51
180.0
  0
ARC
  8
FK-FOOTP
 10
8.214726681358948
 20
7.479918604827235
 30
0.0
 40
8.364402087536989
 50
130.1827313976055
 51
153.8741127173766
  0
ARC
  8
FK-FOOTP
 10
9.066559577127458
 20
6.471294031554181
 30
0.0
 40
9.684607682178828
 50
109.281044724644
 51
130.1827313976055
  0
ARC
  8
FK-FOOTP
 10
9.620519116545805
 20
4.887754651311789
 30
0.0
 40
11.36224534868821
 50
89.99999999999998
 51
109.2810447246439
  0
ARC
  8
FK-FOOTP
 10
9.620519116545805
 20
4.887754651311803
 30
0.0
 40
11.36224534868819
 50
70.71895527535611
 51
89.99999999999998
  0
ARC
  8
FK-FOOTP
 10
10.17447865596416
 20
6.471294031554188
 30
0.0
 40
9.684607682178816
 50
49.81726860239456
 51
70.71895527535611
  0
ARC
  8
FK-FOOTP
 10
11.02631155173264
 20
7.479918604827206
 30
0.0
 40
8.364402087537023
 50
26.12588728262362
 51
49.81726860239456
  0
ARC
  8
FK-FOOTP
 10
12.3415820067703
 20
8.125000000000001
 30
0.0
 40
6.899456226321316
 50
0.000000000000059
 51
26.1258872826234
  0
ARC
  8
FK-FOOTP
 10
12.34158200677035
 20
8.125000000000001
 30
0.0
 40
6.899456226321263
 50
333.8741127173765
 51
0.000000000000059
  0
ARC
  8
FK-FOOTP
 10
11.02631155173268
 20
8.770081395172754
 30
0.0
 40
8.364402087536966
 50
310.1827313976055
 51
333.8741127173766
  0
ARC
  8
FK-FOOTP
 10
10.17447865596418
 20
9.778705968445786
 30
0.0
 40
9.684607682178782
 50
289.2810447246438
 51
310.1827313976055
  0
ARC
  8
FK-FOOTP
 10
9.620519116545812
 20
11.36224534868815
 30
0.0
 40
11.36224534868814
 50
270.0
 51
289.281044724644
  0
ARC
  8
FK-FOOTP
 10
9.620519116545812
 20
11.36224534868806
 30
0.0
 40
11.36224534868806
 50
250.7189552753557
 51
270.0
  0
ARC
  8
FK-FOOTP
 10
9.066559577127376
 20
9.778705968445722
 30
0.0
 40
9.684607682178699
 50
229.8172686023945
 51
250.7189552753562
  0
ARC
  8
FK-FOOTP
 10
8.214726681358973
 20
8.770081395172796
 30
0.0
 40
8.364402087537026
 50
206.1258872826234
 51
229.8172686023945
  0
ARC
  8
FK-FOOTP
 10
6.899456226321314
 20
8.125000000000001
 30
0.0
 40
6.899456226321312
 50
180.0
 51
206.1258872826232
  0
LINE
  8
FK-FOOTP
 10
17.61250889718117
 20
7.235406882586383
 30
0.0
 11
17.61250889718117
 21
7.235406882586383
 31
0.0
  0
LINE
  8
FK-FOOTP
 10
17.51429089216187
 20
6.321868970391998
 30
0.0
 11
17.61250889718117
 21
7.235406882586383
 31
0.0
  0
LINE
  8
FK-FOOTP
 10
17.22205533023888
 20
5.430825393997524
 30
0.0
 11
17.51429089216187
 21
6.321868970391998
 31
0.0
  0
LINE
  8
FK-FOOTP
 10
16.74299802091414
 20
4.584216602501628
 30
0.0
 11
17.22205533023888
 21
5.430825393997524
 31
0.0
  0
LINE
  8
FK-FOOTP
 10
16.08891494504328
 20
3.802888915004624
 30
0.0
 11
16.74299802091414
 21
4.584216602501628
 31
0.0
  0
LINE
  8
FK-FOOTP
 10
15.27591179848162
 20
3.106081211398725
 30
0.0
 11
16.08891494504328
 21
3.802888915004624
 31
0.0
  0
LINE
  8
FK-FOOTP
 10
14.32400741714284
 20
2.510951210228592
 30
0.0
 11
15.27591179848162
 21
3.106081211398725
 31
0.0
  0
LINE
  8
FK-FOOTP
 10
13.25664084650811
 20
2.032152987423836
 30
0.0
 11
14.32400741714284
 21
2.510951210228592
 31
0.0
  0
LINE
  8
FK-FOOTP
 10
12.10009419276925
 20
1.6814761440872
 30
0.0
 11
13.25664084650811
 21
2.032152987423836
 31
0.0
  0
LINE
  8
FK-FOOTP
 10
10.88284547415665
 20
1.467555507931345
 30
0.0
 11
12.10009419276925
 21
1.6814761440872
 31
0.0
  0
LINE
  8
FK-FOOTP
 10
9.634867392633124
 20
1.395658515048511
 30
0.0
 11
10.88284547415665
 21
1.467555507931345
 31
0.0
  0
LINE
  8
FK-FOOTP
 10
8.386889311109589
 20
1.467555507931345
 30
0.0
 11
9.634867392633124
 21
1.395658515048511
 31
0.0
  0
LINE
  8
FK-FOOTP
 10
7.169640592496991
 20
1.6814761440872
 30
0.0
 11
8.386889311109589
 21
1.467555507931345
 31
0.0
  0
LINE
  8
FK-FOOTP
 10
6.01309393875813
 20
2.032152987423836
 30
0.0
 11
7.169640592496991
 21
1.6814761440872
 31
0.0
  0
LINE
  8
FK-FOOTP
 10
4.945727368123394
 20
2.510951210228592
 30
0.0
 11
6.01309393875813
 21
2.032152987423836
 31
0.0
  0
LINE
  8
FK-FOOTP
 10
3.993822986784623
 20
3.106081211398725
 30
0.0
 11
4.945727368123394
 21
2.510951210228592
 31
0.0
  0
LINE
  8
FK-FOOTP
 10
3.180819840222964
 20
3.802888915004624
 30
0.0
 11
3.993822986784623
 21
3.106081211398725
 31
0.0
  0
LINE
  8
FK-FOOTP
 10
2.526736764352103
 20
4.584216602501628
 30
0.0
 11
3.180819840222964
 21
3.802888915004624
 31
0.0
  0
LINE
  8
FK-FOOTP
 10
2.047679455027362
 20
5.430825393997524
 30
0.0
 11
2.526736764352103
 21
4.584216602501628
 31
0.0
  0
LINE
  8
FK-FOOTP
 10
1.755443893104372
 20
6.321868970391998
 30
0.0
 11
2.047679455027362
 21
5.430825393997524
 31
0.0
  0
LINE
  8
FK-FOOTP
 10
1.657225888085072
 20
7.235406882586383
 30
0.0
 11
1.755443893104372
 21
6.321868970391998
 31
0.0
  0
LINE
  8
FK-FOOTP
 10
1.657225888085072
 20
7.235406882586383
 30
0.0
 11
1.657225888085072
 21
7.235406882586383
 31
0.0
  0
LINE
  8
FK-FOOTP
 10
1.755443893104372
 20
8.012026336196351
 30
0.0
 11
1.657225888085072
 21
7.235406882586383
 31
0.0
  0
LINE
  8
FK-FOOTP
 10
2.047679455027362
 20
8.769522840944484
 30
0.0
 11
1.755443893104372
 21
8.012026336196351
 31
0.0
  0
LINE
  8
FK-FOOTP
 10
2.526736764352103
 20
9.489244319710033
 30
0.0
 11
2.047679455027362
 21
8.769522840944484
 31
0.0
  0
LINE
  8
FK-FOOTP
 10
3.180819840222964
 20
10.15346884028488
 30
0.0
 11
2.526736764352103
 21
9.489244319710033
 31
0.0
  0
LINE
  8
FK-FOOTP
 10
3.993822986784623
 20
10.74584099126188
 30
0.0
 11
3.180819840222964
 21
10.15346884028488
 31
0.0
  0
LINE
  8
FK-FOOTP
 10
4.945727368123394
 20
11.25177460405025
 30
0.0
 11
3.993822986784623
 21
10.74584099126188
 31
0.0
  0
LINE
  8
FK-FOOTP
 10
6.01309393875813
 20
11.65881191385478
 30
0.0
 11
4.945727368123394
 21
11.25177460405025
 31
0.0
  0
LINE
  8
FK-FOOTP
 10
7.169640592496991
 20
11.95693031138421
 30
0.0
 11
6.01309393875813
 21
11.65881191385478
 31
0.0
  0
LINE
  8
FK-FOOTP
 10
8.386889311109589
 20
12.13878913229312
 30
0.0
 11
7.169640592496991
 21
11.95693031138421
 31
0.0
  0
LINE
  8
FK-FOOTP
 10
9.634867392633124
 20
12.19991040879794
 30
0.0
 11
8.386889311109589
 21
12.13878913229312
 31
0.0
  0
LINE
  8
FK-FOOTP
 10
10.88284547415665
 20
12.13878913229312
 30
0.0
 11
9.634867392633124
 21
12.19991040879794
 31
0.0
  0
LINE
  8
FK-FOOTP
 10
12.10009419276925
 20
11.95693031138421
 30
0.0
 11
10.88284547415665
 21
12.13878913229312
 31
0.0
  0
LINE
  8
FK-FOOTP
 10
13.25664084650811
 20
11.65881191385478
 30
0.0
 11
12.10009419276925
 21
11.95693031138421
 31
0.0
  0
LINE
  8
FK-FOOTP
 10
14.32400741714284
 20
11.25177460405025
 30
0.0
 11
13.25664084650811
 21
11.65881191385478
 31
0.0
  0
LINE
  8
FK-FOOTP
 10
15.27591179848162
 20
10.74584099126188
 30
0.0
 11
14.32400741714284
 21
11.25177460405025
 31
0.0
  0
LINE
  8
FK-FOOTP
 10
16.08891494504328
 20
10.15346884028488
 30
0.0
 11
15.27591179848162
 21
10.74584099126188
 31
0.0
  0
LINE
  8
FK-FOOTP
 10
16.74299802091414
 20
9.489244319710033
 30
0.0
 11
16.08891494504328
 21
10.15346884028488
 31
0.0
  0
LINE
  8
FK-FOOTP
 10
17.22205533023888
 20
8.769522840944484
 30
0.0
 11
16.74299802091414
 21
9.489244319710033
 31
0.0
  0
LINE
  8
FK-FOOTP
 10
17.51429089216187
 20
8.012026336196351
 30
0.0
 11
17.22205533023888
 21
8.769522840944484
 31
0.0
  0
LINE
  8
FK-FOOTP
 10
17.61250889718117
 20
7.235406882586383
 30
0.0
 11
17.51429089216187
 21
8.012026336196351
 31
0.0
  0
LINE
  8
FK-FOOTP
 10
17.61250889718117
 20
7.235406882586383
 30
0.0
 11
17.61250889718117
 21
7.235406882586383
 31
0.0
  0
ARC
  8
FK-FOOTP
 10
5.416474222962031
 20
7.235406882586383
 30
0.0
 40
4.304482826194991
 50
109.4999999968702
 51
157.4999999954983
  0
ARC
  8
FK-FOOTP
 10
13.85326056230421
 20
7.235406882586383
 30
0.0
 40
4.304482826194991
 50
22.4999999993569
 51
70.49999999798497
  0
CIRCLE
  8
FK-FOOTP
 10
9.620519116545802
 20
10.125
 30
0.0
 40
0.8895931174136316
  0
LINE
  8
FK-FOOTP
 10
16.22072611671146
 20
13.23298628708473
 30
0.0
 11
14.58502264275736
 21
11.12378970224919
 31
0.0
  0
LINE
  8
FK-FOOTP
 10
3.049008668554789
 20
13.23298628708473
 30
0.0
 11
4.684712142508884
 21
11.12378970224919
 31
0.0
  0
LINE
  8
FK-FOOTP
 10
3.981646614230365
 20
11.28162073920968
 30
0.0
 11
4.225567307714749
 21
10.8798690087648
 31
0.0
  0
LINE
  8
FK-FOOTP
 10
15.28808817103588
 20
11.28162073920968
 30
0.0
 11
15.04416747755149
 21
10.8798690087648
 31
0.0
  0
ENDBLK
  8
0
  0
BLOCK
  8
0
  2
STRAINS
 70
    64
 10
0.0
 20
0.0
 30
0.0
  3
STRAINS
  0
CIRCLE
  8
RK-DRAIN
 10
0.0
 20
0.0
 30
0.06
 40
0.75
  0
CIRCLE
  8
RK-DRAIN
 10
0.0
 20
0.0
 30
0.05
 40
1.25
  0
ENDBLK
  8
0
  0
ENDSEC
  0
SECTION
  2
ENTITIES
  0
POLYLINE
  8
CNTRCUTR
 66
     1
 10
0.0
 20
0.0
 30
6.02625
 70
     1
1001
CDKT-SIZ
1002
{
1010
19.18856
1020
-16.149824
1030
6.406252
1002
}
1001
CDKT-STR2
1070
    32
1010
9.632800449956022
1020
-2.040830372359961
1030
6.03
1040
4.712388980384689
  0
VERTEX
  8
CNTRCUTR
 10
9.691171536704437
 20
-15.54296309734222
 30
6.02625
  0
VERTEX
  8
CNTRCUTR
 10
11.67990934170454
 20
-15.35985853295838
 30
6.02625
  0
VERTEX
  8
CNTRCUTR
 10
13.74714992016792
 20
-14.70591360107052
 30
6.02625
  0
VERTEX
  8
CNTRCUTR
 10
15.99756375480549
 20
-13.3980237372948
 30
6.02625
  0
VERTEX
  8
CNTRCUTR
 10
17.30594385238138
 20
-12.06397607323543
 30
6.02625
  0
VERTEX
  8
CNTRCUTR
 10
18.1694747653684
 20
-10.38987704309029
 30
6.02625
  0
VERTEX
  8
CNTRCUTR
 10
18.535821176494
 20
-8.271095483326533
 30
6.02625
  0
VERTEX
  8
CNTRCUTR
 10
17.20127347089323
 20
-4.79210845921974
 30
6.02625
  0
VERTEX
  8
CNTRCUTR
 10
9.612668763241174
 20
-2.385591096335787
 30
6.02625
  0
VERTEX
  8
CNTRCUTR
 10
1.788555633976546
 20
-5.210633188554719
 30
6.02625
  0
VERTEX
  8
CNTRCUTR
 10
0.6895162993769511
 20
-8.218779882759227
 30
6.02625
  0
VERTEX
  8
CNTRCUTR
 10
0.9250247209895228
 20
-10.15445687813915
 30
6.02625
  0
VERTEX
  8
CNTRCUTR
 10
1.840890850026315
 20
-11.95934487210081
 30
6.02625
  0
VERTEX
  8
CNTRCUTR
 10
3.306276545140121
 20
-13.45033933786211
 30
6.02625
  0
VERTEX
  8
CNTRCUTR
 10
5.295014350140235
 20
-14.62744020021956
 30
6.02625
  0
VERTEX
  8
CNTRCUTR
 10
7.754768998365488
 20
-15.41217413352569
 30
6.02625
  0
SEQEND
  8
CNTRCUTR
  0
POLYLINE
  8
RK-LAVAT
 66
     1
 10
0.0
 20
0.0
 30
0.0
 70
    64
 71
     6
 72
     3
  0
VERTEX
  8
RK-LAVAT
 10
17.73632199999999
 20
-11.10161
 30
6.406251
 70
   192
  0
VERTEX
  8
RK-LAVAT
 10
17.900034
 20
-10.760784
 30
6.406251
 70
   192
  0
VERTEX
  8
RK-LAVAT
 10
17.26361
 20
-10.964933
 30
6.15124
 70
   192
  0
VERTEX
  8
RK-LAVAT
 10
17.41781999999999
 20
-10.65293
 30
6.15124
 70
   192
  0
VERTEX
  8
RK-LAVAT
 10
17.55385099999999
 20
-11.431496
 30
6.406251
 70
   192
  0
VERTEX
  8
RK-LAVAT
 10
17.091731
 20
-11.266922
 30
6.15124
 70
   192
  0
VERTEX
  8
RK-LAVAT
 10
17.353202
 20
-11.749719
 30
6.406252
 70
   192
  0
VERTEX
  8
RK-LAVAT
 10
16.90272899999999
 20
-11.558233
 30
6.15124
 70
   192
  0
VERTEX
  8
RK-LAVAT
 10
17.13495899999999
 20
-12.055552
 30
6.406252
 70
   192
  0
VERTEX
  8
RK-LAVAT
 10
16.697154
 20
-11.838203
 30
6.15124
 70
   192
  0
VERTEX
  8
RK-LAVAT
 10
16.89970299999999
 20
-12.348273
 30
6.406252
 70
   192
  0
VERTEX
  8
RK-LAVAT
 10
16.475555
 20
-12.106169
 30
6.15124
 70
   192
  0
VERTEX
  8
RK-LAVAT
 10
16.64801799999999
 20
-12.627156
 30
6.406252
 70
   192
  0
VERTEX
  8
RK-LAVAT
 10
16.238479
 20
-12.361467
 30
6.15124
 70
   192
  0
VERTEX
  8
RK-LAVAT
 10
16.38048499999999
 20
-12.891476
 30
6.406252
 70
   192
  0
VERTEX
  8
RK-LAVAT
 10
15.986475
 20
-12.603434
 30
6.15124
 70
   192
  0
VERTEX
  8
RK-LAVAT
 10
16.097688
 20
-13.140508
 30
6.406252
 70
   192
  0
VERTEX
  8
RK-LAVAT
 10
15.72009399999999
 20
-12.831407
 30
6.15124
 70
   192
  0
VERTEX
  8
RK-LAVAT
 10
15.800207
 20
-13.373529
 30
6.406252
 70
   192
  0
VERTEX
  8
RK-LAVAT
 10
15.439881
 20
-13.044721
 30
6.15124
 70
   192
  0
VERTEX
  8
RK-LAVAT
 10
14.52980799999999
 20
-14.200818
 30
6.406252
 70
   192
  0
VERTEX
  8
RK-LAVAT
 10
14.24322499999999
 20
-13.802048
 30
6.15124
 70
   192
  0
VERTEX
  8
RK-LAVAT
 10
13.17788799999999
 20
-14.821285
 30
6.406252
 70
   192
  0
VERTEX
  8
RK-LAVAT
 10
12.96978
 20
-14.370044
 30
6.15124
 70
   192
  0
VERTEX
  8
RK-LAVAT
 10
11.767737
 20
-15.23493
 30
6.406252
 70
   192
  0
VERTEX
  8
RK-LAVAT
 10
11.64148399999999
 20
-14.748708
 30
6.15124
 70
   192
  0
VERTEX
  8
RK-LAVAT
 10
10.322649
 20
-15.441751
 30
6.406252
 70
   192
  0
VERTEX
  8
RK-LAVAT
 10
10.28027899999999
 20
-14.938039
 30
6.15124
 70
   192
  0
VERTEX
  8
RK-LAVAT
 10
8.865914
 20
-15.441751
 30
6.406252
 70
   192
  0
VERTEX
  8
RK-LAVAT
 10
8.908103
 20
-14.938039
 30
6.15124
 70
   192
  0
VERTEX
  8
RK-LAVAT
 10
7.420824999999997
 20
-15.234929
 30
6.406252
 70
   192
  0
VERTEX
  8
RK-LAVAT
 10
7.546898000000002
 20
-14.748707
 30
6.15124
 70
   192
  0
VERTEX
  8
RK-LAVAT
 10
6.010674999999995
 20
-14.821285
 30
6.406251
 70
   192
  0
VERTEX
  8
RK-LAVAT
 10
6.218602
 20
-14.370044
 30
6.15124
 70
   192
  0
VERTEX
  8
RK-LAVAT
 10
4.658753999999998
 20
-14.200818
 30
6.406251
 70
   192
  0
VERTEX
  8
RK-LAVAT
 10
4.945156
 20
-13.802048
 30
6.15124
 70
   192
  0
VERTEX
  8
RK-LAVAT
 10
3.388355999999998
 20
-13.373529
 30
6.406251
 70
   192
  0
VERTEX
  8
RK-LAVAT
 10
3.748501
 20
-13.044721
 30
6.15124
 70
   192
  0
VERTEX
  8
RK-LAVAT
 10
3.090875999999997
 20
-13.140508
 30
6.406251
 70
   192
  0
VERTEX
  8
RK-LAVAT
 10
3.468289000000002
 20
-12.831407
 30
6.15124
 70
   192
  0
VERTEX
  8
RK-LAVAT
 10
2.808077999999998
 20
-12.891476
 30
6.406251
 70
   192
  0
VERTEX
  8
RK-LAVAT
 10
3.201906999999994
 20
-12.603434
 30
6.151238999999999
 70
   192
  0
VERTEX
  8
RK-LAVAT
 10
2.540544999999998
 20
-12.627156
 30
6.406251
 70
   192
  0
VERTEX
  8
RK-LAVAT
 10
2.949902999999995
 20
-12.361467
 30
6.151238999999999
 70
   192
  0
VERTEX
  8
RK-LAVAT
 10
2.288860000000003
 20
-12.348273
 30
6.406251
 70
   192
  0
VERTEX
  8
RK-LAVAT
 10
2.712827999999998
 20
-12.106169
 30
6.151238999999999
 70
   192
  0
VERTEX
  8
RK-LAVAT
 10
2.053603999999996
 20
-12.055552
 30
6.406251
 70
   192
  0
VERTEX
  8
RK-LAVAT
 10
2.491226999999998
 20
-11.838203
 30
6.151238999999999
 70
   192
  0
VERTEX
  8
RK-LAVAT
 10
1.835359999999997
 20
-11.749718
 30
6.406251
 70
   192
  0
VERTEX
  8
RK-LAVAT
 10
2.285652000000002
 20
-11.558233
 30
6.151238999999999
 70
   192
  0
VERTEX
  8
RK-LAVAT
 10
1.634711999999996
 20
-11.431496
 30
6.406251
 70
   192
  0
VERTEX
  8
RK-LAVAT
 10
2.096650999999997
 20
-11.266922
 30
6.151238999999999
 70
   192
  0
VERTEX
  8
RK-LAVAT
 10
1.452239999999999
 20
-11.10161
 30
6.406251
 70
   192
  0
VERTEX
  8
RK-LAVAT
 10
1.924772
 20
-10.964933
 30
6.151238999999999
 70
   192
  0
VERTEX
  8
RK-LAVAT
 10
1.288528000000003
 20
-10.760784
 30
6.406251
 70
   192
  0
VERTEX
  8
RK-LAVAT
 10
1.770562000000001
 20
-10.65293
 30
6.151238999999999
 70
   192
  0
VERTEX
  8
RK-LAVAT
 10
1.050875000000001
 20
-10.095071
 30
6.406251
 70
   192
  0
VERTEX
  8
RK-LAVAT
 10
1.546703999999994
 20
-10.043516
 30
6.151238999999999
 70
   192
  0
VERTEX
  8
RK-LAVAT
 10
0.9276900000000019
 20
-9.415555000000001
 30
6.406251
 70
   192
  0
VERTEX
  8
RK-LAVAT
 10
1.430668999999998
 20
-9.421464000000002
 30
6.151238999999999
 70
   192
  0
VERTEX
  8
RK-LAVAT
 10
0.9150740000000006
 20
-8.735001000000002
 30
6.406251
 70
   192
  0
VERTEX
  8
RK-LAVAT
 10
1.418786
 20
-8.798464000000002
 30
6.151238999999999
 70
   192
  0
VERTEX
  8
RK-LAVAT
 10
1.009126999999995
 20
-8.066179000000001
 30
6.406251
 70
   192
  0
VERTEX
  8
RK-LAVAT
 10
1.507380000000001
 20
-8.186202000000001
 30
6.151238999999999
 70
   192
  0
VERTEX
  8
RK-LAVAT
 10
1.205949
 20
-7.421855000000002
 30
6.40625
 70
   192
  0
VERTEX
  8
RK-LAVAT
 10
1.692776999999995
 20
-7.596367000000002
 30
6.151238999999999
 70
   192
  0
VERTEX
  8
RK-LAVAT
 10
1.501639999999998
 20
-6.814797000000002
 30
6.40625
 70
   192
  0
VERTEX
  8
RK-LAVAT
 10
1.971302999999995
 20
-7.040647000000001
 30
6.151238
 70
   192
  0
VERTEX
  8
RK-LAVAT
 10
1.892298999999997
 20
-6.257774000000003
 30
6.40625
 70
   192
  0
VERTEX
  8
RK-LAVAT
 10
2.339285999999997
 20
-6.530730000000001
 30
6.151238
 70
   192
  0
VERTEX
  8
RK-LAVAT
 10
2.374027000000001
 20
-5.763551000000001
 30
6.40625
 70
   192
  0
VERTEX
  8
RK-LAVAT
 10
2.793050999999994
 20
-6.078303000000001
 30
6.151238
 70
   192
  0
VERTEX
  8
RK-LAVAT
 10
2.942921999999999
 20
-5.344899000000001
 30
6.40625
 70
   192
  0
VERTEX
  8
RK-LAVAT
 10
3.328922999999999
 20
-5.695054000000002
 30
6.151238
 70
   192
  0
VERTEX
  8
RK-LAVAT
 10
3.629380999999998
 20
-4.981395000000002
 30
6.40625
 70
   192
  0
VERTEX
  8
RK-LAVAT
 10
3.975534999999997
 20
-5.362292000000001
 30
6.151238
 70
   192
  0
VERTEX
  8
RK-LAVAT
 10
4.332958999999998
 20
-4.657283000000001
 30
6.40625
 70
   192
  0
VERTEX
  8
RK-LAVAT
 10
4.638273000000001
 20
-5.065589000000002
 30
6.151238
 70
   192
  0
VERTEX
  8
RK-LAVAT
 10
5.051953000000001
 20
-4.373028000000001
 30
6.40625
 70
   192
  0
VERTEX
  8
RK-LAVAT
 10
5.315530999999996
 20
-4.805372000000001
 30
6.151238
 70
   192
  0
VERTEX
  8
RK-LAVAT
 10
5.784659999999998
 20
-4.129092000000001
 30
6.40625
 70
   192
  0
VERTEX
  8
RK-LAVAT
 10
6.005706999999997
 20
-4.582066000000001
 30
6.151238
 70
   192
  0
VERTEX
  8
RK-LAVAT
 10
6.529377
 20
-3.925943000000001
 30
6.40625
 70
   192
  0
VERTEX
  8
RK-LAVAT
 10
6.707195000000002
 20
-4.396097000000001
 30
6.151238
 70
   192
  0
VERTEX
  8
RK-LAVAT
 10
7.284399999999994
 20
-3.764044000000001
 30
6.40625
 70
   192
  0
VERTEX
  8
RK-LAVAT
 10
7.418392
 20
-4.247889000000002
 30
6.151238
 70
   192
  0
VERTEX
  8
RK-LAVAT
 10
8.048027000000001
 20
-3.643858000000001
 30
6.40625
 70
   192
  0
VERTEX
  8
RK-LAVAT
 10
8.137691999999997
 20
-4.137868000000002
 30
6.151238
 70
   192
  0
VERTEX
  8
RK-LAVAT
 10
8.818554999999999
 20
-3.565853000000002
 30
6.40625
 70
   192
  0
VERTEX
  8
RK-LAVAT
 10
8.863492999999994
 20
-4.066458
 30
6.151238
 70
   192
  0
VERTEX
  8
RK-LAVAT
 10
9.594280000000001
 20
-3.530491000000001
 30
6.40625
 70
   192
  0
VERTEX
  8
RK-LAVAT
 10
9.594189000000003
 20
-4.034087000000001
 30
6.151238
 70
   192
  0
VERTEX
  8
RK-LAVAT
 10
10.31832299999999
 20
-3.562156000000001
 30
6.40625
 70
   192
  0
VERTEX
  8
RK-LAVAT
 10
10.27620399999999
 20
-4.063076000000002
 30
6.151238
 70
   192
  0
VERTEX
  8
RK-LAVAT
 10
11.038095
 20
-3.631005000000001
 30
6.40625
 70
   192
  0
VERTEX
  8
RK-LAVAT
 10
10.954196
 20
-4.126101000000002
 30
6.151238
 70
   192
  0
VERTEX
  8
RK-LAVAT
 10
11.752205
 20
-3.736681000000002
 30
6.40625
 70
   192
  0
VERTEX
  8
RK-LAVAT
 10
11.626853
 20
-4.222840000000001
 30
6.151238
 70
   192
  0
VERTEX
  8
RK-LAVAT
 10
12.45925799999999
 20
-3.878828000000002
 30
6.40625
 70
   192
  0
VERTEX
  8
RK-LAVAT
 10
12.29286399999999
 20
-4.352966000000002
 30
6.151238999999999
 70
   192
  0
VERTEX
  8
RK-LAVAT
 10
13.15786299999999
 20
-4.057091000000001
 30
6.406251
 70
   192
  0
VERTEX
  8
RK-LAVAT
 10
12.950917
 20
-4.516155000000001
 30
6.151238999999999
 70
   192
  0
VERTEX
  8
RK-LAVAT
 10
13.846626
 20
-4.271116000000001
 30
6.406251
 70
   192
  0
VERTEX
  8
RK-LAVAT
 10
13.59969899999999
 20
-4.712080000000002
 30
6.151238999999999
 70
   192
  0
VERTEX
  8
RK-LAVAT
 10
14.524154
 20
-4.520546000000001
 30
6.406251
 70
   192
  0
VERTEX
  8
RK-LAVAT
 10
14.237899
 20
-4.940415000000001
 30
6.151238999999999
 70
   192
  0
VERTEX
  8
RK-LAVAT
 10
15.18905499999999
 20
-4.805026000000001
 30
6.406251
 70
   192
  0
VERTEX
  8
RK-LAVAT
 10
14.864205
 20
-5.200838000000002
 30
6.151238999999999
 70
   192
  0
VERTEX
  8
RK-LAVAT
 10
15.83993699999999
 20
-5.124201000000001
 30
6.406251
 70
   192
  0
VERTEX
  8
RK-LAVAT
 10
15.47730499999999
 20
-5.493021000000002
 30
6.151238999999999
 70
   192
  0
VERTEX
  8
RK-LAVAT
 10
16.496515
 20
-5.511306000000002
 30
6.406251
 70
   192
  0
VERTEX
  8
RK-LAVAT
 10
16.095771
 20
-5.847389000000001
 30
6.151238999999999
 70
   192
  0
VERTEX
  8
RK-LAVAT
 10
17.059459
 20
-5.994556000000001
 30
6.406251
 70
   192
  0
VERTEX
  8
RK-LAVAT
 10
16.626037
 20
-6.289772000000001
 30
6.151238999999999
 70
   192
  0
VERTEX
  8
RK-LAVAT
 10
17.523075
 20
-6.558374000000002
 30
6.406251
 70
   192
  0
VERTEX
  8
RK-LAVAT
 10
17.062742
 20
-6.805909000000001
 30
6.151238999999999
 70
   192
  0
VERTEX
  8
RK-LAVAT
 10
17.88167
 20
-7.187180000000001
 30
6.406251
 70
   192
  0
VERTEX
  8
RK-LAVAT
 10
17.400521
 20
-7.381539000000001
 30
6.151238999999999
 70
   192
  0
VERTEX
  8
RK-LAVAT
 10
18.129548
 20
-7.865396000000002
 30
6.406251
 70
   192
  0
VERTEX
  8
RK-LAVAT
 10
17.634012
 20
-8.002399000000002
 30
6.151238999999999
 70
   192
  0
VERTEX
  8
RK-LAVAT
 10
18.26101799999999
 20
-8.577443000000002
 30
6.406251
 70
   192
  0
VERTEX
  8
RK-LAVAT
 10
17.75785
 20
-8.654230000000001
 30
6.15124
 70
   192
  0
VERTEX
  8
RK-LAVAT
 10
18.27038599999999
 20
-9.307742000000001
 30
6.406251
 70
   192
  0
VERTEX
  8
RK-LAVAT
 10
17.766673
 20
-9.322769
 30
6.15124
 70
   192
  0
VERTEX
  8
RK-LAVAT
 10
18.151956
 20
-10.040716
 30
6.406251
 70
   192
  0
VERTEX
  8
RK-LAVAT
 10
17.655117
 20
-9.993757000000002
 30
6.15124
 70
   192
  0
VERTEX
  8
RK-LAVAT
 10
17.159802
 20
-10.935005
 30
5.896227999999999
 70
   192
  0
VERTEX
  8
RK-LAVAT
 10
17.311924
 20
-10.629338
 30
5.896227999999999
 70
   192
  0
VERTEX
  8
RK-LAVAT
 10
16.99024799999999
 20
-11.230861
 30
5.896227999999999
 70
   192
  0
VERTEX
  8
RK-LAVAT
 10
16.803804
 20
-11.516256
 30
5.896227999999999
 70
   192
  0
VERTEX
  8
RK-LAVAT
 10
16.601011
 20
-11.79054
 30
5.896228999999999
 70
   192
  0
VERTEX
  8
RK-LAVAT
 10
16.382411
 20
-12.053064
 30
5.896228999999999
 70
   192
  0
VERTEX
  8
RK-LAVAT
 10
16.148543
 20
-12.303177
 30
5.896228999999999
 70
   192
  0
VERTEX
  8
RK-LAVAT
 10
15.89995
 20
-12.54023
 30
5.896228999999999
 70
   192
  0
VERTEX
  8
RK-LAVAT
 10
15.637173
 20
-12.763573
 30
5.896228999999999
 70
   192
  0
VERTEX
  8
RK-LAVAT
 10
15.36075199999999
 20
-12.972555
 30
5.896228999999999
 70
   192
  0
VERTEX
  8
RK-LAVAT
 10
14.180291
 20
-13.714502
 30
5.896228999999999
 70
   192
  0
VERTEX
  8
RK-LAVAT
 10
12.92407899999999
 20
-14.270962
 30
5.896228999999999
 70
   192
  0
VERTEX
  8
RK-LAVAT
 10
11.61375899999999
 20
-14.641936
 30
5.896228999999999
 70
   192
  0
VERTEX
  8
RK-LAVAT
 10
10.27097399999999
 20
-14.827422
 30
5.896228999999999
 70
   192
  0
VERTEX
  8
RK-LAVAT
 10
8.917367999999999
 20
-14.827422
 30
5.896228999999999
 70
   192
  0
VERTEX
  8
RK-LAVAT
 10
7.574583999999997
 20
-14.641935
 30
5.896228999999999
 70
   192
  0
VERTEX
  8
RK-LAVAT
 10
6.264264
 20
-14.270962
 30
5.896227999999999
 70
   192
  0
VERTEX
  8
RK-LAVAT
 10
5.008050999999998
 20
-13.714502
 30
5.896227999999999
 70
   192
  0
VERTEX
  8
RK-LAVAT
 10
3.827590000000004
 20
-12.972555
 30
5.896227999999999
 70
   192
  0
VERTEX
  8
RK-LAVAT
 10
3.551170000000002
 20
-12.763573
 30
5.896227999999999
 70
   192
  0
VERTEX
  8
RK-LAVAT
 10
3.288393000000002
 20
-12.54023
 30
5.896227999999999
 70
   192
  0
VERTEX
  8
RK-LAVAT
 10
3.039800000000003
 20
-12.303177
 30
5.896227999999999
 70
   192
  0
VERTEX
  8
RK-LAVAT
 10
2.805932000000002
 20
-12.053064
 30
5.896227999999999
 70
   192
  0
VERTEX
  8
RK-LAVAT
 10
2.587331999999999
 20
-11.79054
 30
5.896227999999999
 70
   192
  0
VERTEX
  8
RK-LAVAT
 10
2.384539
 20
-11.516255
 30
5.896227999999999
 70
   192
  0
VERTEX
  8
RK-LAVAT
 10
2.198094999999998
 20
-11.23086
 30
5.896227999999999
 70
   192
  0
VERTEX
  8
RK-LAVAT
 10
2.028541
 20
-10.935005
 30
5.896227999999999
 70
   192
  0
VERTEX
  8
RK-LAVAT
 10
1.876417999999997
 20
-10.629338
 30
5.896227999999999
 70
   192
  0
VERTEX
  8
RK-LAVAT
 10
1.65559
 20
-10.0323
 30
5.896227
 70
   192
  0
VERTEX
  8
RK-LAVAT
 10
1.541124999999997
 20
-9.422882000000001
 30
5.896227
 70
   192
  0
VERTEX
  8
RK-LAVAT
 10
1.529402999999998
 20
-8.812533000000001
 30
5.896227
 70
   192
  0
VERTEX
  8
RK-LAVAT
 10
1.616796999999994
 20
-8.212706
 30
5.896227
 70
   192
  0
VERTEX
  8
RK-LAVAT
 10
1.799685
 20
-7.634850000000001
 30
5.896227
 70
   192
  0
VERTEX
  8
RK-LAVAT
 10
2.074442999999998
 20
-7.090416000000001
 30
5.896227
 70
   192
  0
VERTEX
  8
RK-LAVAT
 10
2.437445999999997
 20
-6.590854000000001
 30
5.896227
 70
   192
  0
VERTEX
  8
RK-LAVAT
 10
2.885070000000002
 20
-6.147615000000001
 30
5.896227
 70
   192
  0
VERTEX
  8
RK-LAVAT
 10
3.413689999999999
 20
-5.772150000000001
 30
5.896227
 70
   192
  0
VERTEX
  8
RK-LAVAT
 10
4.051551999999997
 20
-5.446146000000002
 30
5.896227
 70
   192
  0
VERTEX
  8
RK-LAVAT
 10
4.705321000000001
 20
-5.155468000000002
 30
5.896227
 70
   192
  0
VERTEX
  8
RK-LAVAT
 10
5.373414
 20
-4.900536000000002
 30
5.896227
 70
   192
  0
VERTEX
  8
RK-LAVAT
 10
6.054249999999999
 20
-4.681765000000002
 30
5.896227
 70
   192
  0
VERTEX
  8
RK-LAVAT
 10
6.746244999999998
 20
-4.499573000000001
 30
5.896227
 70
   192
  0
VERTEX
  8
RK-LAVAT
 10
7.447817000000004
 20
-4.354375000000002
 30
5.896227
 70
   192
  0
VERTEX
  8
RK-LAVAT
 10
8.157382999999999
 20
-4.246588000000002
 30
5.896227
 70
   192
  0
VERTEX
  8
RK-LAVAT
 10
8.873362000000003
 20
-4.176629000000001
 30
5.896227
 70
   192
  0
VERTEX
  8
RK-LAVAT
 10
9.594169999999994
 20
-4.144915000000001
 30
5.896227
 70
   192
  0
VERTEX
  8
RK-LAVAT
 10
10.26695499999999
 20
-4.173315000000002
 30
5.896227
 70
   192
  0
VERTEX
  8
RK-LAVAT
 10
10.93577099999999
 20
-4.235060000000002
 30
5.896227
 70
   192
  0
VERTEX
  8
RK-LAVAT
 10
11.599326
 20
-4.329835000000002
 30
5.896227
 70
   192
  0
VERTEX
  8
RK-LAVAT
 10
12.25632399999999
 20
-4.457318000000002
 30
5.896227
 70
   192
  0
VERTEX
  8
RK-LAVAT
 10
12.90547099999999
 20
-4.617192000000002
 30
5.896227
 70
   192
  0
VERTEX
  8
RK-LAVAT
 10
13.54547299999999
 20
-4.809138000000002
 30
5.896227
 70
   192
  0
VERTEX
  8
RK-LAVAT
 10
14.175037
 20
-5.032837000000002
 30
5.896227
 70
   192
  0
VERTEX
  8
RK-LAVAT
 10
14.79286699999999
 20
-5.287970000000001
 30
5.896227
 70
   192
  0
VERTEX
  8
RK-LAVAT
 10
15.39766999999999
 20
-5.574219000000001
 30
5.896227
 70
   192
  0
VERTEX
  8
RK-LAVAT
 10
16.007766
 20
-5.921391000000001
 30
5.896227
 70
   192
  0
VERTEX
  8
RK-LAVAT
 10
16.530856
 20
-6.354790000000003
 30
5.896227999999999
 70
   192
  0
VERTEX
  8
RK-LAVAT
 10
16.961652
 20
-6.860445000000002
 30
5.896227999999999
 70
   192
  0
VERTEX
  8
RK-LAVAT
 10
17.29486
 20
-7.424384000000001
 30
5.896227999999999
 70
   192
  0
VERTEX
  8
RK-LAVAT
 10
17.52518999999999
 20
-8.032636000000001
 30
5.896227999999999
 70
   192
  0
VERTEX
  8
RK-LAVAT
 10
17.64735299999999
 20
-8.671229000000002
 30
5.896227999999999
 70
   192
  0
VERTEX
  8
RK-LAVAT
 10
17.656057
 20
-9.326191000000001
 30
5.896227999999999
 70
   192
  0
VERTEX
  8
RK-LAVAT
 10
17.54601
 20
-9.983552000000001
 30
5.896227999999999
 70
   192
  0
VERTEX
  8
RK-LAVAT
 10
17.116178
 20
-10.909312
 30
5.641217
 70
   192
  0
VERTEX
  8
RK-LAVAT
 10
17.267424
 20
-10.605279
 30
5.641217
 70
   192
  0
VERTEX
  8
RK-LAVAT
 10
16.94760299999999
 20
-11.203588
 30
5.641217
 70
   192
  0
VERTEX
  8
RK-LAVAT
 10
16.76223399999999
 20
-11.487458
 30
5.641217
 70
   192
  0
VERTEX
  8
RK-LAVAT
 10
16.56061
 20
-11.760278
 30
5.641217
 70
   192
  0
VERTEX
  8
RK-LAVAT
 10
16.34326899999999
 20
-12.021399
 30
5.641217
 70
   192
  0
VERTEX
  8
RK-LAVAT
 10
16.11075
 20
-12.270177
 30
5.641217
 70
   192
  0
VERTEX
  8
RK-LAVAT
 10
15.86358999999999
 20
-12.505963
 30
5.641217
 70
   192
  0
VERTEX
  8
RK-LAVAT
 10
15.602328
 20
-12.728113
 30
5.641217
 70
   192
  0
VERTEX
  8
RK-LAVAT
 10
15.327501
 20
-12.935979
 30
5.641217
 70
   192
  0
VERTEX
  8
RK-LAVAT
 10
14.15384399999999
 20
-13.673962
 30
5.641217
 70
   192
  0
VERTEX
  8
RK-LAVAT
 10
12.90487399999999
 20
-14.22745
 30
5.641217
 70
   192
  0
VERTEX
  8
RK-LAVAT
 10
11.60210799999999
 20
-14.596443
 30
5.641217
 70
   192
  0
VERTEX
  8
RK-LAVAT
 10
10.26706499999999
 20
-14.780938
 30
5.641217
 70
   192
  0
VERTEX
  8
RK-LAVAT
 10
8.921262000000002
 20
-14.780938
 30
5.641217
 70
   192
  0
VERTEX
  8
RK-LAVAT
 10
7.586217999999998
 20
-14.596442
 30
5.641217
 70
   192
  0
VERTEX
  8
RK-LAVAT
 10
6.283452
 20
-14.227451
 30
5.641217
 70
   192
  0
VERTEX
  8
RK-LAVAT
 10
5.034482
 20
-13.673963
 30
5.641217
 70
   192
  0
VERTEX
  8
RK-LAVAT
 10
3.860825999999999
 20
-12.935979
 30
5.641217
 70
   192
  0
VERTEX
  8
RK-LAVAT
 10
3.585998999999997
 20
-12.728113
 30
5.641216
 70
   192
  0
VERTEX
  8
RK-LAVAT
 10
3.324737000000002
 20
-12.505963
 30
5.641216
 70
   192
  0
VERTEX
  8
RK-LAVAT
 10
3.077576999999994
 20
-12.270176
 30
5.641216
 70
   192
  0
VERTEX
  8
RK-LAVAT
 10
2.845057999999998
 20
-12.021399
 30
5.641216
 70
   192
  0
VERTEX
  8
RK-LAVAT
 10
2.627717
 20
-11.760277
 30
5.641216
 70
   192
  0
VERTEX
  8
RK-LAVAT
 10
2.426092999999998
 20
-11.487458
 30
5.641216
 70
   192
  0
VERTEX
  8
RK-LAVAT
 10
2.240724000000003
 20
-11.203588
 30
5.641216
 70
   192
  0
VERTEX
  8
RK-LAVAT
 10
2.072148000000002
 20
-10.909312
 30
5.641216
 70
   192
  0
VERTEX
  8
RK-LAVAT
 10
1.920902999999999
 20
-10.605279
 30
5.641216
 70
   192
  0
VERTEX
  8
RK-LAVAT
 10
1.701347000000001
 20
-10.011429
 30
5.641216
 70
   192
  0
VERTEX
  8
RK-LAVAT
 10
1.587542000000002
 20
-9.405266000000001
 30
5.641216
 70
   192
  0
VERTEX
  8
RK-LAVAT
 10
1.575886999999998
 20
-8.798178000000001
 30
5.641216
 70
   192
  0
VERTEX
  8
RK-LAVAT
 10
1.662777999999999
 20
-8.201555000000002
 30
5.641216
 70
   192
  0
VERTEX
  8
RK-LAVAT
 10
1.844612000000001
 20
-7.626785000000001
 30
5.641216
 70
   192
  0
VERTEX
  8
RK-LAVAT
 10
2.117785999999998
 20
-7.085259000000002
 30
5.641214999999999
 70
   192
  0
VERTEX
  8
RK-LAVAT
 10
2.478696000000002
 20
-6.588366000000002
 30
5.641214999999999
 70
   192
  0
VERTEX
  8
RK-LAVAT
 10
2.923739000000001
 20
-6.147495000000001
 30
5.641214999999999
 70
   192
  0
VERTEX
  8
RK-LAVAT
 10
3.449313
 20
-5.774035000000003
 30
5.641214999999999
 70
   192
  0
VERTEX
  8
RK-LAVAT
 10
4.083496999999997
 20
-5.449772000000001
 30
5.641214999999999
 70
   192
  0
VERTEX
  8
RK-LAVAT
 10
4.733497000000003
 20
-5.160647
 30
5.641214999999999
 70
   192
  0
VERTEX
  8
RK-LAVAT
 10
5.397738
 20
-4.907077000000001
 30
5.641214999999999
 70
   192
  0
VERTEX
  8
RK-LAVAT
 10
6.074648999999997
 20
-4.689475000000001
 30
5.641214999999999
 70
   192
  0
VERTEX
  8
RK-LAVAT
 10
6.762654999999998
 20
-4.508255000000001
 30
5.641214999999999
 70
   192
  0
VERTEX
  8
RK-LAVAT
 10
7.460181999999999
 20
-4.363832000000002
 30
5.641214999999999
 70
   192
  0
VERTEX
  8
RK-LAVAT
 10
8.165657999999996
 20
-4.256621000000002
 30
5.641214999999999
 70
   192
  0
VERTEX
  8
RK-LAVAT
 10
8.877508999999999
 20
-4.187036000000002
 30
5.641214999999999
 70
   192
  0
VERTEX
  8
RK-LAVAT
 10
9.594162
 20
-4.155492000000002
 30
5.641214999999999
 70
   192
  0
VERTEX
  8
RK-LAVAT
 10
10.263068
 20
-4.183739000000002
 30
5.641214999999999
 70
   192
  0
VERTEX
  8
RK-LAVAT
 10
10.92802899999999
 20
-4.245155000000002
 30
5.641214999999999
 70
   192
  0
VERTEX
  8
RK-LAVAT
 10
11.58775799999999
 20
-4.339423000000001
 30
5.641214999999999
 70
   192
  0
VERTEX
  8
RK-LAVAT
 10
12.24096899999999
 20
-4.466226000000002
 30
5.641216
 70
   192
  0
VERTEX
  8
RK-LAVAT
 10
12.886374
 20
-4.625246000000002
 30
5.641216
 70
   192
  0
VERTEX
  8
RK-LAVAT
 10
13.522687
 20
-4.816167000000001
 30
5.641216
 70
   192
  0
VERTEX
  8
RK-LAVAT
 10
14.14861999999999
 20
-5.038670000000001
 30
5.641216
 70
   192
  0
VERTEX
  8
RK-LAVAT
 10
14.76288899999999
 20
-5.292441000000001
 30
5.641216
 70
   192
  0
VERTEX
  8
RK-LAVAT
 10
15.364205
 20
-5.577161000000002
 30
5.641216
 70
   192
  0
VERTEX
  8
RK-LAVAT
 10
15.970784
 20
-5.922479
 30
5.641216
 70
   192
  0
VERTEX
  8
RK-LAVAT
 10
16.49085899999999
 20
-6.353563000000002
 30
5.641216
 70
   192
  0
VERTEX
  8
RK-LAVAT
 10
16.91917099999999
 20
-6.856516
 30
5.641216
 70
   192
  0
VERTEX
  8
RK-LAVAT
 10
17.250458
 20
-7.417444000000001
 30
5.641216
 70
   192
  0
VERTEX
  8
RK-LAVAT
 10
17.479461
 20
-8.022446000000002
 30
5.641216
 70
   192
  0
VERTEX
  8
RK-LAVAT
 10
17.60091799999999
 20
-8.657628000000002
 30
5.641217
 70
   192
  0
VERTEX
  8
RK-LAVAT
 10
17.609573
 20
-9.309092000000001
 30
5.641217
 70
   192
  0
VERTEX
  8
RK-LAVAT
 10
17.500161
 20
-9.962941000000002
 30
5.641217
 70
   192
  0
VERTEX
  8
RK-LAVAT
 10
16.98772699999999
 20
-10.82231
 30
4.890088
 70
   192
  0
VERTEX
  8
RK-LAVAT
 10
17.13638999999999
 20
-10.522193
 30
4.890088
 70
   192
  0
VERTEX
  8
RK-LAVAT
 10
16.82202799999999
 20
-11.112795
 30
4.890088
 70
   192
  0
VERTEX
  8
RK-LAVAT
 10
16.63982499999999
 20
-11.393008
 30
4.890088
 70
   192
  0
VERTEX
  8
RK-LAVAT
 10
16.441643
 20
-11.662313
 30
4.890088
 70
   192
  0
VERTEX
  8
RK-LAVAT
 10
16.228013
 20
-11.920071
 30
4.890088
 70
   192
  0
VERTEX
  8
RK-LAVAT
 10
15.999464
 20
-12.165644
 30
4.890088
 70
   192
  0
VERTEX
  8
RK-LAVAT
 10
15.756524
 20
-12.398393
 30
4.890088
 70
   192
  0
VERTEX
  8
RK-LAVAT
 10
15.49972199999999
 20
-12.617681
 30
4.890088
 70
   192
  0
VERTEX
  8
RK-LAVAT
 10
15.22958799999999
 20
-12.822869
 30
4.890088
 70
   192
  0
VERTEX
  8
RK-LAVAT
 10
14.07597
 20
-13.551347
 30
4.890088
 70
   192
  0
VERTEX
  8
RK-LAVAT
 10
12.84832399999999
 20
-14.097705
 30
4.890088
 70
   192
  0
VERTEX
  8
RK-LAVAT
 10
11.56780099999999
 20
-14.461943
 30
4.890088
 70
   192
  0
VERTEX
  8
RK-LAVAT
 10
10.255551
 20
-14.644062
 30
4.890088
 70
   192
  0
VERTEX
  8
RK-LAVAT
 10
8.932725999999998
 20
-14.644062
 30
4.890088
 70
   192
  0
VERTEX
  8
RK-LAVAT
 10
7.620476
 20
-14.461942
 30
4.890088
 70
   192
  0
VERTEX
  8
RK-LAVAT
 10
6.339953999999995
 20
-14.097705
 30
4.890088
 70
   192
  0
VERTEX
  8
RK-LAVAT
 10
5.112306999999997
 20
-13.551347
 30
4.890088
 70
   192
  0
VERTEX
  8
RK-LAVAT
 10
3.95869
 20
-12.822869
 30
4.890088
 70
   192
  0
VERTEX
  8
RK-LAVAT
 10
3.688555999999994
 20
-12.617681
 30
4.890087
 70
   192
  0
VERTEX
  8
RK-LAVAT
 10
3.431754000000001
 20
-12.398393
 30
4.890087
 70
   192
  0
VERTEX
  8
RK-LAVAT
 10
3.188813999999997
 20
-12.165644
 30
4.890087
 70
   192
  0
VERTEX
  8
RK-LAVAT
 10
2.960264999999996
 20
-11.920071
 30
4.890087
 70
   192
  0
VERTEX
  8
RK-LAVAT
 10
2.746634000000003
 20
-11.662313
 30
4.890087
 70
   192
  0
VERTEX
  8
RK-LAVAT
 10
2.548452999999998
 20
-11.393008
 30
4.890087
 70
   192
  0
VERTEX
  8
RK-LAVAT
 10
2.366248999999999
 20
-11.112794
 30
4.890087
 70
   192
  0
VERTEX
  8
RK-LAVAT
 10
2.200551
 20
-10.82231
 30
4.890087
 70
   192
  0
VERTEX
  8
RK-LAVAT
 10
2.051888000000001
 20
-10.522193
 30
4.890087
 70
   192
  0
VERTEX
  8
RK-LAVAT
 10
1.836080999999996
 20
-9.935993000000001
 30
4.890087
 70
   192
  0
VERTEX
  8
RK-LAVAT
 10
1.724219000000001
 20
-9.337639000000002
 30
4.890087
 70
   192
  0
VERTEX
  8
RK-LAVAT
 10
1.712762999999998
 20
-8.738371
 30
4.890087
 70
   192
  0
VERTEX
  8
RK-LAVAT
 10
1.798170000000002
 20
-8.149433000000001
 30
4.890087
 70
   192
  0
VERTEX
  8
RK-LAVAT
 10
1.976898999999999
 20
-7.582068000000001
 30
4.890087
 70
   192
  0
VERTEX
  8
RK-LAVAT
 10
2.245408999999998
 20
-7.047518000000001
 30
4.890086
 70
   192
  0
VERTEX
  8
RK-LAVAT
 10
2.600157999999996
 20
-6.557025000000001
 30
4.890086
 70
   192
  0
VERTEX
  8
RK-LAVAT
 10
3.037601999999996
 20
-6.121834000000001
 30
4.890086
 70
   192
  0
VERTEX
  8
RK-LAVAT
 10
3.554202
 20
-5.753185000000001
 30
4.890086
 70
   192
  0
VERTEX
  8
RK-LAVAT
 10
4.177558999999998
 20
-5.433099000000002
 30
4.890086
 70
   192
  0
VERTEX
  8
RK-LAVAT
 10
4.816461
 20
-5.147698000000001
 30
4.890086
 70
   192
  0
VERTEX
  8
RK-LAVAT
 10
5.469362
 20
-4.897395000000001
 30
4.890086
 70
   192
  0
VERTEX
  8
RK-LAVAT
 10
6.134715000000003
 20
-4.682595000000002
 30
4.890086
 70
   192
  0
VERTEX
  8
RK-LAVAT
 10
6.810973999999998
 20
-4.503711000000002
 30
4.890086
 70
   192
  0
VERTEX
  8
RK-LAVAT
 10
7.496591999999996
 20
-4.361149000000002
 30
4.890086
 70
   192
  0
VERTEX
  8
RK-LAVAT
 10
8.190023
 20
-4.255318000000002
 30
4.890086
 70
   192
  0
VERTEX
  8
RK-LAVAT
 10
8.88972
 20
-4.186629000000001
 30
4.890086
 70
   192
  0
VERTEX
  8
RK-LAVAT
 10
9.594136999999999
 20
-4.155492000000002
 30
4.890086
 70
   192
  0
VERTEX
  8
RK-LAVAT
 10
10.25162299999999
 20
-4.183375000000001
 30
4.890086
 70
   192
  0
VERTEX
  8
RK-LAVAT
 10
10.905231
 20
-4.244000000000001
 30
4.890086
 70
   192
  0
VERTEX
  8
RK-LAVAT
 10
11.55369599999999
 20
-4.337053000000002
 30
4.890086
 70
   192
  0
VERTEX
  8
RK-LAVAT
 10
12.19575399999999
 20
-4.462223000000001
 30
4.890087
 70
   192
  0
VERTEX
  8
RK-LAVAT
 10
12.830139
 20
-4.619195000000001
 30
4.890087
 70
   192
  0
VERTEX
  8
RK-LAVAT
 10
13.45558799999999
 20
-4.807656000000001
 30
4.890087
 70
   192
  0
VERTEX
  8
RK-LAVAT
 10
14.07083499999999
 20
-5.027293000000002
 30
4.890087
 70
   192
  0
VERTEX
  8
RK-LAVAT
 10
14.67461599999999
 20
-5.277795000000001
 30
4.890087
 70
   192
  0
VERTEX
  8
RK-LAVAT
 10
15.26566599999999
 20
-5.558847000000001
 30
4.890087
 70
   192
  0
VERTEX
  8
RK-LAVAT
 10
15.86188799999999
 20
-5.899716000000001
 30
4.890087
 70
   192
  0
VERTEX
  8
RK-LAVAT
 10
16.37308299999999
 20
-6.325247000000002
 30
4.890087
 70
   192
  0
VERTEX
  8
RK-LAVAT
 10
16.794082
 20
-6.821722000000002
 30
4.890087
 70
   192
  0
VERTEX
  8
RK-LAVAT
 10
17.119713
 20
-7.375423000000001
 30
4.890087
 70
   192
  0
VERTEX
  8
RK-LAVAT
 10
17.344806
 20
-7.972632000000001
 30
4.890087
 70
   192
  0
VERTEX
  8
RK-LAVAT
 10
17.46418999999999
 20
-8.599632000000001
 30
4.890088
 70
   192
  0
VERTEX
  8
RK-LAVAT
 10
17.472697
 20
-9.242704000000001
 30
4.890088
 70
   192
  0
VERTEX
  8
RK-LAVAT
 10
17.36515299999999
 20
-9.888130000000002
 30
4.890088
 70
   192
  0
VERTEX
  8
RK-LAVAT
 10
16.8593
 20
-10.735325
 30
4.138959
 70
   192
  0
VERTEX
  8
RK-LAVAT
 10
17.005381
 20
-10.439124
 30
4.138959
 70
   192
  0
VERTEX
  8
RK-LAVAT
 10
16.69647999999999
 20
-11.02202
 30
4.138959
 70
   192
  0
VERTEX
  8
RK-LAVAT
 10
16.51743999999999
 20
-11.298577
 30
4.138959
 70
   192
  0
VERTEX
  8
RK-LAVAT
 10
16.3227
 20
-11.564369
 30
4.138959
 70
   192
  0
VERTEX
  8
RK-LAVAT
 10
16.11277999999999
 20
-11.818763
 30
4.138959
 70
   192
  0
VERTEX
  8
RK-LAVAT
 10
15.8882
 20
-12.061132
 30
4.138959
 70
   192
  0
VERTEX
  8
RK-LAVAT
 10
15.649479
 20
-12.290844
 30
4.138959
 70
   192
  0
VERTEX
  8
RK-LAVAT
 10
15.397138
 20
-12.507271
 30
4.138959
 70
   192
  0
VERTEX
  8
RK-LAVAT
 10
15.13169399999999
 20
-12.709782
 30
4.138959
 70
   192
  0
VERTEX
  8
RK-LAVAT
 10
13.99811099999999
 20
-13.428754
 30
4.138959
 70
   192
  0
VERTEX
  8
RK-LAVAT
 10
12.791785
 20
-13.967984
 30
4.138959
 70
   192
  0
VERTEX
  8
RK-LAVAT
 10
11.53350099999999
 20
-14.327471
 30
4.138959
 70
   192
  0
VERTEX
  8
RK-LAVAT
 10
10.24404
 20
-14.507213
 30
4.138959
 70
   192
  0
VERTEX
  8
RK-LAVAT
 10
8.944188
 20
-14.507213
 30
4.138959
 70
   192
  0
VERTEX
  8
RK-LAVAT
 10
7.654727999999995
 20
-14.32747
 30
4.138959
 70
   192
  0
VERTEX
  8
RK-LAVAT
 10
6.396443999999998
 20
-13.967984
 30
4.138959
 70
   192
  0
VERTEX
  8
RK-LAVAT
 10
5.190118000000001
 20
-13.428755
 30
4.138959
 70
   192
  0
VERTEX
  8
RK-LAVAT
 10
4.056535
 20
-12.709782
 30
4.138959
 70
   192
  0
VERTEX
  8
RK-LAVAT
 10
3.791091999999995
 20
-12.507271
 30
4.138959
 70
   192
  0
VERTEX
  8
RK-LAVAT
 10
3.538749999999996
 20
-12.290844
 30
4.138959
 70
   192
  0
VERTEX
  8
RK-LAVAT
 10
3.300028999999998
 20
-12.061132
 30
4.138959
 70
   192
  0
VERTEX
  8
RK-LAVAT
 10
3.075448999999995
 20
-11.818763
 30
4.138959
 70
   192
  0
VERTEX
  8
RK-LAVAT
 10
2.865528999999998
 20
-11.564368
 30
4.138959
 70
   192
  0
VERTEX
  8
RK-LAVAT
 10
2.670789000000002
 20
-11.298577
 30
4.138959
 70
   192
  0
VERTEX
  8
RK-LAVAT
 10
2.491749000000002
 20
-11.022019
 30
4.138959
 70
   192
  0
VERTEX
  8
RK-LAVAT
 10
2.328928999999998
 20
-10.735325
 30
4.138959
 70
   192
  0
VERTEX
  8
RK-LAVAT
 10
2.182847999999996
 20
-10.439124
 30
4.138959
 70
   192
  0
VERTEX
  8
RK-LAVAT
 10
1.970788000000002
 20
-9.860573000000002
 30
4.138957999999999
 70
   192
  0
VERTEX
  8
RK-LAVAT
 10
1.860868999999997
 20
-9.270025000000002
 30
4.138957999999999
 70
   192
  0
VERTEX
  8
RK-LAVAT
 10
1.849613000000001
 20
-8.678576000000001
 30
4.138957999999999
 70
   192
  0
VERTEX
  8
RK-LAVAT
 10
1.933536
 20
-8.097323000000002
 30
4.138957999999999
 70
   192
  0
VERTEX
  8
RK-LAVAT
 10
2.109162000000001
 20
-7.537360000000001
 30
4.138957999999999
 70
   192
  0
VERTEX
  8
RK-LAVAT
 10
2.373008000000002
 20
-7.009784000000001
 30
4.138957999999999
 70
   192
  0
VERTEX
  8
RK-LAVAT
 10
2.721595999999994
 20
-6.525692000000001
 30
4.138957999999999
 70
   192
  0
VERTEX
  8
RK-LAVAT
 10
3.151443000000003
 20
-6.096178000000001
 30
4.138957999999999
 70
   192
  0
VERTEX
  8
RK-LAVAT
 10
3.659071999999998
 20
-5.732339000000003
 30
4.138957999999999
 70
   192
  0
VERTEX
  8
RK-LAVAT
 10
4.271601999999997
 20
-5.416428000000001
 30
4.138957999999999
 70
   192
  0
VERTEX
  8
RK-LAVAT
 10
4.899408999999995
 20
-5.134752000000002
 30
4.138957999999999
 70
   192
  0
VERTEX
  8
RK-LAVAT
 10
5.540971000000002
 20
-4.887714000000002
 30
4.138957999999999
 70
   192
  0
VERTEX
  8
RK-LAVAT
 10
6.194769999999994
 20
-4.675718000000001
 30
4.138957999999999
 70
   192
  0
VERTEX
  8
RK-LAVAT
 10
6.859283999999998
 20
-4.499166000000002
 30
4.138957999999999
 70
   192
  0
VERTEX
  8
RK-LAVAT
 10
7.532996
 20
-4.358465000000002
 30
4.138957999999999
 70
   192
  0
VERTEX
  8
RK-LAVAT
 10
8.214383999999999
 20
-4.254016000000001
 30
4.138957999999999
 70
   192
  0
VERTEX
  8
RK-LAVAT
 10
8.901928999999999
 20
-4.186223000000001
 30
4.138957999999999
 70
   192
  0
VERTEX
  8
RK-LAVAT
 10
9.594112999999996
 20
-4.155491000000001
 30
4.138957999999999
 70
   192
  0
VERTEX
  8
RK-LAVAT
 10
10.24017999999999
 20
-4.183011000000002
 30
4.138957999999999
 70
   192
  0
VERTEX
  8
RK-LAVAT
 10
10.882437
 20
-4.242845000000002
 30
4.138957999999999
 70
   192
  0
VERTEX
  8
RK-LAVAT
 10
11.51964099999999
 20
-4.334684000000001
 30
4.138957999999999
 70
   192
  0
VERTEX
  8
RK-LAVAT
 10
12.150548
 20
-4.458220000000002
 30
4.138957999999999
 70
   192
  0
VERTEX
  8
RK-LAVAT
 10
12.773917
 20
-4.613145000000001
 30
4.138957999999999
 70
   192
  0
VERTEX
  8
RK-LAVAT
 10
13.388503
 20
-4.799146000000002
 30
4.138957999999999
 70
   192
  0
VERTEX
  8
RK-LAVAT
 10
13.99306499999999
 20
-5.015919000000002
 30
4.138957999999999
 70
   192
  0
VERTEX
  8
RK-LAVAT
 10
14.58636
 20
-5.263152000000001
 30
4.138957999999999
 70
   192
  0
VERTEX
  8
RK-LAVAT
 10
15.167146
 20
-5.540537000000002
 30
4.138957999999999
 70
   192
  0
VERTEX
  8
RK-LAVAT
 10
15.753013
 20
-5.876958000000001
 30
4.138957999999999
 70
   192
  0
VERTEX
  8
RK-LAVAT
 10
16.255331
 20
-6.296937000000001
 30
4.138959
 70
   192
  0
VERTEX
  8
RK-LAVAT
 10
16.669019
 20
-6.786934000000002
 30
4.138959
 70
   192
  0
VERTEX
  8
RK-LAVAT
 10
16.988994
 20
-7.333411000000001
 30
4.138959
 70
   192
  0
VERTEX
  8
RK-LAVAT
 10
17.210178
 20
-7.922828000000001
 30
4.138959
 70
   192
  0
VERTEX
  8
RK-LAVAT
 10
17.327489
 20
-8.541647000000001
 30
4.138959
 70
   192
  0
VERTEX
  8
RK-LAVAT
 10
17.335848
 20
-9.176329000000002
 30
4.138959
 70
   192
  0
VERTEX
  8
RK-LAVAT
 10
17.230172
 20
-9.813334000000001
 30
4.138959
 70
   192
  0
VERTEX
  8
RK-LAVAT
 10
16.682361
 20
-10.615482
 30
3.38783
 70
   192
  0
VERTEX
  8
RK-LAVAT
 10
16.82488499999999
 20
-10.324675
 30
3.38783
 70
   192
  0
VERTEX
  8
RK-LAVAT
 10
16.523505
 20
-10.896954
 30
3.38783
 70
   192
  0
VERTEX
  8
RK-LAVAT
 10
16.348825
 20
-11.168475
 30
3.38783
 70
   192
  0
VERTEX
  8
RK-LAVAT
 10
16.158827
 20
-11.429425
 30
3.38783
 70
   192
  0
VERTEX
  8
RK-LAVAT
 10
15.95401899999999
 20
-11.679186
 30
3.38783
 70
   192
  0
VERTEX
  8
RK-LAVAT
 10
15.73490699999999
 20
-11.91714
 30
3.38783
 70
   192
  0
VERTEX
  8
RK-LAVAT
 10
15.501999
 20
-12.142669
 30
3.38783
 70
   192
  0
VERTEX
  8
RK-LAVAT
 10
15.255802
 20
-12.355154
 30
3.38783
 70
   192
  0
VERTEX
  8
RK-LAVAT
 10
14.99682199999999
 20
-12.553977
 30
3.38783
 70
   192
  0
VERTEX
  8
RK-LAVAT
 10
13.89084099999999
 20
-13.259853
 30
3.38783
 70
   192
  0
VERTEX
  8
RK-LAVAT
 10
12.71388899999999
 20
-13.789262
 30
3.38783
 70
   192
  0
VERTEX
  8
RK-LAVAT
 10
11.48624299999999
 20
-14.1422
 30
3.38783
 70
   192
  0
VERTEX
  8
RK-LAVAT
 10
10.22818099999999
 20
-14.318669
 30
3.38783
 70
   192
  0
VERTEX
  8
RK-LAVAT
 10
8.959979999999998
 20
-14.318669
 30
3.38783
 70
   192
  0
VERTEX
  8
RK-LAVAT
 10
7.701917999999995
 20
-14.1422
 30
3.38783
 70
   192
  0
VERTEX
  8
RK-LAVAT
 10
6.474272000000002
 20
-13.789262
 30
3.38783
 70
   192
  0
VERTEX
  8
RK-LAVAT
 10
5.297318999999998
 20
-13.259854
 30
3.38783
 70
   192
  0
VERTEX
  8
RK-LAVAT
 10
4.191339000000002
 20
-12.553977
 30
3.38783
 70
   192
  0
VERTEX
  8
RK-LAVAT
 10
3.932359999999999
 20
-12.355154
 30
3.38783
 70
   192
  0
VERTEX
  8
RK-LAVAT
 10
3.686161999999999
 20
-12.142669
 30
3.38783
 70
   192
  0
VERTEX
  8
RK-LAVAT
 10
3.453253999999997
 20
-11.91714
 30
3.387828999999999
 70
   192
  0
VERTEX
  8
RK-LAVAT
 10
3.234141999999994
 20
-11.679186
 30
3.387828999999999
 70
   192
  0
VERTEX
  8
RK-LAVAT
 10
3.029333999999995
 20
-11.429425
 30
3.387828999999999
 70
   192
  0
VERTEX
  8
RK-LAVAT
 10
2.839335999999999
 20
-11.168475
 30
3.387828999999999
 70
   192
  0
VERTEX
  8
RK-LAVAT
 10
2.664655999999997
 20
-10.896954
 30
3.387828999999999
 70
   192
  0
VERTEX
  8
RK-LAVAT
 10
2.505799999999997
 20
-10.615482
 30
3.387828999999999
 70
   192
  0
VERTEX
  8
RK-LAVAT
 10
2.363274999999998
 20
-10.324675
 30
3.387828999999999
 70
   192
  0
VERTEX
  8
RK-LAVAT
 10
2.156380000000002
 20
-9.756662000000002
 30
3.387828999999999
 70
   192
  0
VERTEX
  8
RK-LAVAT
 10
2.049136999999998
 20
-9.17687
 30
3.387828999999999
 70
   192
  0
VERTEX
  8
RK-LAVAT
 10
2.038154999999999
 20
-8.596194000000002
 30
3.387828999999999
 70
   192
  0
VERTEX
  8
RK-LAVAT
 10
2.120034999999997
 20
-8.025527000000002
 30
3.387828999999999
 70
   192
  0
VERTEX
  8
RK-LAVAT
 10
2.291383999999997
 20
-7.475764000000001
 30
3.387828999999999
 70
   192
  0
VERTEX
  8
RK-LAVAT
 10
2.548806000000002
 20
-6.957797000000001
 30
3.387828999999999
 70
   192
  0
VERTEX
  8
RK-LAVAT
 10
2.888904999999997
 20
-6.482522000000001
 30
3.387828999999999
 70
   192
  0
VERTEX
  8
RK-LAVAT
 10
3.308286999999996
 20
-6.060831000000002
 30
3.387827999999999
 70
   192
  0
VERTEX
  8
RK-LAVAT
 10
3.803553999999994
 20
-5.703619000000001
 30
3.387827999999999
 70
   192
  0
VERTEX
  8
RK-LAVAT
 10
4.401169999999996
 20
-5.393463000000002
 30
3.387827999999999
 70
   192
  0
VERTEX
  8
RK-LAVAT
 10
5.01369
 20
-5.116917000000002
 30
3.387827999999999
 70
   192
  0
VERTEX
  8
RK-LAVAT
 10
5.63963
 20
-4.874379000000001
 30
3.387827999999999
 70
   192
  0
VERTEX
  8
RK-LAVAT
 10
6.277508999999998
 20
-4.666243000000001
 30
3.387827999999999
 70
   192
  0
VERTEX
  8
RK-LAVAT
 10
6.925843000000003
 20
-4.492907000000002
 30
3.387827999999999
 70
   192
  0
VERTEX
  8
RK-LAVAT
 10
7.583148999999995
 20
-4.354769000000001
 30
3.387827999999999
 70
   192
  0
VERTEX
  8
RK-LAVAT
 10
8.247946000000002
 20
-4.252222000000001
 30
3.387827999999999
 70
   192
  0
VERTEX
  8
RK-LAVAT
 10
8.918749999999999
 20
-4.185664000000002
 30
3.387827999999999
 70
   192
  0
VERTEX
  8
RK-LAVAT
 10
9.594078999999997
 20
-4.155492000000002
 30
3.387827999999999
 70
   192
  0
VERTEX
  8
RK-LAVAT
 10
10.22441499999999
 20
-4.182510000000002
 30
3.387828999999999
 70
   192
  0
VERTEX
  8
RK-LAVAT
 10
10.85103299999999
 20
-4.241255000000002
 30
3.387828999999999
 70
   192
  0
VERTEX
  8
RK-LAVAT
 10
11.47272099999999
 20
-4.331422000000001
 30
3.387828999999999
 70
   192
  0
VERTEX
  8
RK-LAVAT
 10
12.088266
 20
-4.452707000000001
 30
3.387828999999999
 70
   192
  0
VERTEX
  8
RK-LAVAT
 10
12.696455
 20
-4.604810000000002
 30
3.387828999999999
 70
   192
  0
VERTEX
  8
RK-LAVAT
 10
13.296077
 20
-4.787424000000001
 30
3.387828999999999
 70
   192
  0
VERTEX
  8
RK-LAVAT
 10
13.885918
 20
-5.000248
 30
3.387828999999999
 70
   192
  0
VERTEX
  8
RK-LAVAT
 10
14.464766
 20
-5.242978000000002
 30
3.387828999999999
 70
   192
  0
VERTEX
  8
RK-LAVAT
 10
15.03140999999999
 20
-5.515311000000002
 30
3.387828999999999
 70
   192
  0
VERTEX
  8
RK-LAVAT
 10
15.60301199999999
 20
-5.845604000000001
 30
3.387828999999999
 70
   192
  0
VERTEX
  8
RK-LAVAT
 10
16.09309899999999
 20
-6.257934000000002
 30
3.387828999999999
 70
   192
  0
VERTEX
  8
RK-LAVAT
 10
16.496713
 20
-6.739006000000001
 30
3.387828999999999
 70
   192
  0
VERTEX
  8
RK-LAVAT
 10
16.80889699999999
 20
-7.275530000000001
 30
3.387828999999999
 70
   192
  0
VERTEX
  8
RK-LAVAT
 10
17.02469499999999
 20
-7.854211000000002
 30
3.387828999999999
 70
   192
  0
VERTEX
  8
RK-LAVAT
 10
17.13914999999999
 20
-8.461759
 30
3.38783
 70
   192
  0
VERTEX
  8
RK-LAVAT
 10
17.14730499999999
 20
-9.084881000000002
 30
3.38783
 70
   192
  0
VERTEX
  8
RK-LAVAT
 10
17.044202
 20
-9.710283000000002
 30
3.38783
 70
   192
  0
VERTEX
  8
RK-LAVAT
 10
16.295843
 20
-10.353688
 30
2.476624
 70
   192
  0
VERTEX
  8
RK-LAVAT
 10
16.430597
 20
-10.074666
 30
2.476624
 70
   192
  0
VERTEX
  8
RK-LAVAT
 10
16.14564799999999
 20
-10.623754
 30
2.476624
 70
   192
  0
VERTEX
  8
RK-LAVAT
 10
15.98049099999999
 20
-10.884271
 30
2.476624
 70
   192
  0
VERTEX
  8
RK-LAVAT
 10
15.80085199999999
 20
-11.134646
 30
2.476624
 70
   192
  0
VERTEX
  8
RK-LAVAT
 10
15.607209
 20
-11.374286
 30
2.476625
 70
   192
  0
VERTEX
  8
RK-LAVAT
 10
15.400043
 20
-11.602597
 30
2.476625
 70
   192
  0
VERTEX
  8
RK-LAVAT
 10
15.179833
 20
-11.818985
 30
2.476625
 70
   192
  0
VERTEX
  8
RK-LAVAT
 10
14.947058
 20
-12.022859
 30
2.476625
 70
   192
  0
VERTEX
  8
RK-LAVAT
 10
14.702197
 20
-12.213625
 30
2.476625
 70
   192
  0
VERTEX
  8
RK-LAVAT
 10
13.65651399999999
 20
-12.890896
 30
2.476625
 70
   192
  0
VERTEX
  8
RK-LAVAT
 10
12.543727
 20
-13.398849
 30
2.476625
 70
   192
  0
VERTEX
  8
RK-LAVAT
 10
11.383011
 20
-13.737484
 30
2.476625
 70
   192
  0
VERTEX
  8
RK-LAVAT
 10
10.19353699999999
 20
-13.906802
 30
2.476625
 70
   192
  0
VERTEX
  8
RK-LAVAT
 10
8.994476999999999
 20
-13.906802
 30
2.476625
 70
   192
  0
VERTEX
  8
RK-LAVAT
 10
7.805003000000002
 20
-13.737484
 30
2.476625
 70
   192
  0
VERTEX
  8
RK-LAVAT
 10
6.644286999999994
 20
-13.39885
 30
2.476624
 70
   192
  0
VERTEX
  8
RK-LAVAT
 10
5.531500999999995
 20
-12.890896
 30
2.476624
 70
   192
  0
VERTEX
  8
RK-LAVAT
 10
4.485817
 20
-12.213625
 30
2.476624
 70
   192
  0
VERTEX
  8
RK-LAVAT
 10
4.240956999999998
 20
-12.022859
 30
2.476624
 70
   192
  0
VERTEX
  8
RK-LAVAT
 10
4.008182000000001
 20
-11.818985
 30
2.476624
 70
   192
  0
VERTEX
  8
RK-LAVAT
 10
3.787971000000002
 20
-11.602597
 30
2.476624
 70
   192
  0
VERTEX
  8
RK-LAVAT
 10
3.580805999999999
 20
-11.374285
 30
2.476624
 70
   192
  0
VERTEX
  8
RK-LAVAT
 10
3.387162999999997
 20
-11.134646
 30
2.476624
 70
   192
  0
VERTEX
  8
RK-LAVAT
 10
3.207523999999995
 20
-10.884271
 30
2.476624
 70
   192
  0
VERTEX
  8
RK-LAVAT
 10
3.042367000000002
 20
-10.623754
 30
2.476624
 70
   192
  0
VERTEX
  8
RK-LAVAT
 10
2.892171999999998
 20
-10.353688
 30
2.476624
 70
   192
  0
VERTEX
  8
RK-LAVAT
 10
2.757417999999997
 20
-10.074666
 30
2.476624
 70
   192
  0
VERTEX
  8
RK-LAVAT
 10
2.561802000000003
 20
-9.529672000000001
 30
2.476624
 70
   192
  0
VERTEX
  8
RK-LAVAT
 10
2.460405999999995
 20
-8.973377000000002
 30
2.476623
 70
   192
  0
VERTEX
  8
RK-LAVAT
 10
2.450022
 20
-8.416233000000001
 30
2.476623
 70
   192
  0
VERTEX
  8
RK-LAVAT
 10
2.527438999999997
 20
-7.868692000000002
 30
2.476623
 70
   192
  0
VERTEX
  8
RK-LAVAT
 10
2.689444999999995
 20
-7.341208000000001
 30
2.476623
 70
   192
  0
VERTEX
  8
RK-LAVAT
 10
2.932832999999998
 20
-6.844233
 30
2.476623
 70
   192
  0
VERTEX
  8
RK-LAVAT
 10
3.254391000000001
 20
-6.388218000000001
 30
2.476623
 70
   192
  0
VERTEX
  8
RK-LAVAT
 10
3.650907999999997
 20
-5.983616000000001
 30
2.476623
 70
   192
  0
VERTEX
  8
RK-LAVAT
 10
4.119173999999997
 20
-5.640880000000002
 30
2.476623
 70
   192
  0
VERTEX
  8
RK-LAVAT
 10
4.684208999999999
 20
-5.343292000000001
 30
2.476623
 70
   192
  0
VERTEX
  8
RK-LAVAT
 10
5.263333999999996
 20
-5.077954000000001
 30
2.476623
 70
   192
  0
VERTEX
  8
RK-LAVAT
 10
5.855149
 20
-4.845245000000002
 30
2.476623
 70
   192
  0
VERTEX
  8
RK-LAVAT
 10
6.458251
 20
-4.645544000000001
 30
2.476623
 70
   192
  0
VERTEX
  8
RK-LAVAT
 10
7.071238999999994
 20
-4.479233000000002
 30
2.476623
 70
   192
  0
VERTEX
  8
RK-LAVAT
 10
7.692709999999994
 20
-4.346691000000001
 30
2.476623
 70
   192
  0
VERTEX
  8
RK-LAVAT
 10
8.321262
 20
-4.248301000000001
 30
2.476623
 70
   192
  0
VERTEX
  8
RK-LAVAT
 10
8.955495000000002
 20
-4.184440000000002
 30
2.476623
 70
   192
  0
VERTEX
  8
RK-LAVAT
 10
9.594005999999996
 20
-4.155491000000001
 30
2.476623
 70
   192
  0
VERTEX
  8
RK-LAVAT
 10
10.18997599999999
 20
-4.181415000000001
 30
2.476623
 70
   192
  0
VERTEX
  8
RK-LAVAT
 10
10.782432
 20
-4.237778000000002
 30
2.476623
 70
   192
  0
VERTEX
  8
RK-LAVAT
 10
11.37022599999999
 20
-4.324291000000002
 30
2.476623
 70
   192
  0
VERTEX
  8
RK-LAVAT
 10
11.95221199999999
 20
-4.440662000000001
 30
2.476623
 70
   192
  0
VERTEX
  8
RK-LAVAT
 10
12.52724399999999
 20
-4.586600000000002
 30
2.476623
 70
   192
  0
VERTEX
  8
RK-LAVAT
 10
13.09417499999999
 20
-4.761813000000001
 30
2.476623
 70
   192
  0
VERTEX
  8
RK-LAVAT
 10
13.65185899999999
 20
-4.966012
 30
2.476623
 70
   192
  0
VERTEX
  8
RK-LAVAT
 10
14.19914899999999
 20
-5.198906000000002
 30
2.476623
 70
   192
  0
VERTEX
  8
RK-LAVAT
 10
14.73489999999999
 20
-5.460202000000002
 30
2.476623
 70
   192
  0
VERTEX
  8
RK-LAVAT
 10
15.27533899999999
 20
-5.777112000000002
 30
2.476624
 70
   192
  0
VERTEX
  8
RK-LAVAT
 10
15.73870599999999
 20
-6.172731000000002
 30
2.476624
 70
   192
  0
VERTEX
  8
RK-LAVAT
 10
16.12031599999999
 20
-6.634308000000002
 30
2.476624
 70
   192
  0
VERTEX
  8
RK-LAVAT
 10
16.41548
 20
-7.149089000000001
 30
2.476624
 70
   192
  0
VERTEX
  8
RK-LAVAT
 10
16.619513
 20
-7.704319000000001
 30
2.476624
 70
   192
  0
VERTEX
  8
RK-LAVAT
 10
16.727728
 20
-8.287246000000001
 30
2.476624
 70
   192
  0
VERTEX
  8
RK-LAVAT
 10
16.735439
 20
-8.885115000000002
 30
2.476624
 70
   192
  0
VERTEX
  8
RK-LAVAT
 10
16.637956
 20
-9.485173000000001
 30
2.476624
 70
   192
  0
VERTEX
  8
RK-LAVAT
 10
15.65822999999999
 20
-9.921825000000001
 30
1.565419
 70
   192
  0
VERTEX
  8
RK-LAVAT
 10
15.78016599999999
 20
-9.662244000000001
 30
1.565419
 70
   192
  0
VERTEX
  8
RK-LAVAT
 10
15.52232199999999
 20
-10.173074
 30
1.565419
 70
   192
  0
VERTEX
  8
RK-LAVAT
 10
15.37287499999999
 20
-10.415439
 30
1.565419
 70
   192
  0
VERTEX
  8
RK-LAVAT
 10
15.21032299999999
 20
-10.648369
 30
1.565419
 70
   192
  0
VERTEX
  8
RK-LAVAT
 10
15.035101
 20
-10.871312
 30
1.565419
 70
   192
  0
VERTEX
  8
RK-LAVAT
 10
14.84764
 20
-11.083715
 30
1.565419
 70
   192
  0
VERTEX
  8
RK-LAVAT
 10
14.648377
 20
-11.285027
 30
1.565419
 70
   192
  0
VERTEX
  8
RK-LAVAT
 10
14.43774399999999
 20
-11.474696
 30
1.565419
 70
   192
  0
VERTEX
  8
RK-LAVAT
 10
14.21617499999999
 20
-11.652169
 30
1.565419
 70
   192
  0
VERTEX
  8
RK-LAVAT
 10
13.269959
 20
-12.282251
 30
1.565419
 70
   192
  0
VERTEX
  8
RK-LAVAT
 10
12.263023
 20
-12.754812
 30
1.565419
 70
   192
  0
VERTEX
  8
RK-LAVAT
 10
11.212717
 20
-13.069853
 30
1.565419
 70
   192
  0
VERTEX
  8
RK-LAVAT
 10
10.136388
 20
-13.227374
 30
1.565419
 70
   192
  0
VERTEX
  8
RK-LAVAT
 10
9.051384999999999
 20
-13.227374
 30
1.565419
 70
   192
  0
VERTEX
  8
RK-LAVAT
 10
7.975055999999998
 20
-13.069853
 30
1.565419
 70
   192
  0
VERTEX
  8
RK-LAVAT
 10
6.924748999999994
 20
-12.754812
 30
1.565419
 70
   192
  0
VERTEX
  8
RK-LAVAT
 10
5.917813999999996
 20
-12.282251
 30
1.565418
 70
   192
  0
VERTEX
  8
RK-LAVAT
 10
4.971596999999999
 20
-11.652169
 30
1.565418
 70
   192
  0
VERTEX
  8
RK-LAVAT
 10
4.750028000000003
 20
-11.474695
 30
1.565418
 70
   192
  0
VERTEX
  8
RK-LAVAT
 10
4.539395999999999
 20
-11.285027
 30
1.565418
 70
   192
  0
VERTEX
  8
RK-LAVAT
 10
4.340132
 20
-11.083715
 30
1.565418
 70
   192
  0
VERTEX
  8
RK-LAVAT
 10
4.152671999999999
 20
-10.871312
 30
1.565418
 70
   192
  0
VERTEX
  8
RK-LAVAT
 10
3.977448999999996
 20
-10.648369
 30
1.565418
 70
   192
  0
VERTEX
  8
RK-LAVAT
 10
3.814896999999998
 20
-10.415439
 30
1.565418
 70
   192
  0
VERTEX
  8
RK-LAVAT
 10
3.665451
 20
-10.173074
 30
1.565418
 70
   192
  0
VERTEX
  8
RK-LAVAT
 10
3.529543
 20
-9.921825000000001
 30
1.565418
 70
   192
  0
VERTEX
  8
RK-LAVAT
 10
3.407605999999997
 20
-9.662244000000001
 30
1.565418
 70
   192
  0
VERTEX
  8
RK-LAVAT
 10
3.230597999999996
 20
-9.155223000000002
 30
1.565418
 70
   192
  0
VERTEX
  8
RK-LAVAT
 10
3.138847000000001
 20
-8.637688000000002
 30
1.565418
 70
   192
  0
VERTEX
  8
RK-LAVAT
 10
3.129450999999999
 20
-8.119363000000001
 30
1.565418
 70
   192
  0
VERTEX
  8
RK-LAVAT
 10
3.199504000000001
 20
-7.609973000000001
 30
1.565418
 70
   192
  0
VERTEX
  8
RK-LAVAT
 10
3.346099999999996
 20
-7.119242000000001
 30
1.565417
 70
   192
  0
VERTEX
  8
RK-LAVAT
 10
3.566335999999996
 20
-6.656893000000001
 30
1.565417
 70
   192
  0
VERTEX
  8
RK-LAVAT
 10
3.857305999999997
 20
-6.232651000000002
 30
1.565417
 70
   192
  0
VERTEX
  8
RK-LAVAT
 10
4.216105999999999
 20
-5.856241000000002
 30
1.565417
 70
   192
  0
VERTEX
  8
RK-LAVAT
 10
4.639829999999999
 20
-5.537385000000002
 30
1.565417
 70
   192
  0
VERTEX
  8
RK-LAVAT
 10
5.151117000000002
 20
-5.260533000000002
 30
1.565417
 70
   192
  0
VERTEX
  8
RK-LAVAT
 10
5.675155999999997
 20
-5.013682000000002
 30
1.565417
 70
   192
  0
VERTEX
  8
RK-LAVAT
 10
6.210674999999998
 20
-4.797186000000001
 30
1.565417
 70
   192
  0
VERTEX
  8
RK-LAVAT
 10
6.756409999999998
 20
-4.611400000000001
 30
1.565417
 70
   192
  0
VERTEX
  8
RK-LAVAT
 10
7.311088000000001
 20
-4.456677000000002
 30
1.565417
 70
   192
  0
VERTEX
  8
RK-LAVAT
 10
7.873443999999995
 20
-4.333370000000002
 30
1.565417
 70
   192
  0
VERTEX
  8
RK-LAVAT
 10
8.442206999999999
 20
-4.241835000000001
 30
1.565417
 70
   192
  0
VERTEX
  8
RK-LAVAT
 10
9.016110999999998
 20
-4.182424000000002
 30
1.565417
 70
   192
  0
VERTEX
  8
RK-LAVAT
 10
9.593885000000003
 20
-4.155491000000001
 30
1.565417
 70
   192
  0
VERTEX
  8
RK-LAVAT
 10
10.133166
 20
-4.179609000000001
 30
1.565417
 70
   192
  0
VERTEX
  8
RK-LAVAT
 10
10.66926599999999
 20
-4.232045000000001
 30
1.565417
 70
   192
  0
VERTEX
  8
RK-LAVAT
 10
11.201148
 20
-4.312530000000002
 30
1.565417
 70
   192
  0
VERTEX
  8
RK-LAVAT
 10
11.72777399999999
 20
-4.420793000000001
 30
1.565417
 70
   192
  0
VERTEX
  8
RK-LAVAT
 10
12.24810799999999
 20
-4.556563000000002
 30
1.565417
 70
   192
  0
VERTEX
  8
RK-LAVAT
 10
12.761111
 20
-4.719569000000001
 30
1.565418
 70
   192
  0
VERTEX
  8
RK-LAVAT
 10
13.265747
 20
-4.909539000000002
 30
1.565418
 70
   192
  0
VERTEX
  8
RK-LAVAT
 10
13.76097799999999
 20
-5.126206000000001
 30
1.565418
 70
   192
  0
VERTEX
  8
RK-LAVAT
 10
14.24576699999999
 20
-5.369296000000002
 30
1.565418
 70
   192
  0
VERTEX
  8
RK-LAVAT
 10
14.734798
 20
-5.664125000000002
 30
1.565418
 70
   192
  0
VERTEX
  8
RK-LAVAT
 10
15.154089
 20
-6.032179000000001
 30
1.565418
 70
   192
  0
VERTEX
  8
RK-LAVAT
 10
15.49939999999999
 20
-6.461595
 30
1.565418
 70
   192
  0
VERTEX
  8
RK-LAVAT
 10
15.766487
 20
-6.940508000000003
 30
1.565418
 70
   192
  0
VERTEX
  8
RK-LAVAT
 10
15.95111299999999
 20
-7.457052000000002
 30
1.565418
 70
   192
  0
VERTEX
  8
RK-LAVAT
 10
16.04903399999999
 20
-7.999363000000002
 30
1.565418
 70
   192
  0
VERTEX
  8
RK-LAVAT
 10
16.056011
 20
-8.555576000000002
 30
1.565418
 70
   192
  0
VERTEX
  8
RK-LAVAT
 10
15.96780099999999
 20
-9.113824000000001
 30
1.565418
 70
   192
  0
VERTEX
  8
RK-LAVAT
 10
14.573548
 20
-9.242225000000001
 30
0.6542129999999995
 70
   192
  0
VERTEX
  8
RK-LAVAT
 10
14.67367799999999
 20
-9.020041000000002
 30
0.6542129999999995
 70
   192
  0
VERTEX
  8
RK-LAVAT
 10
14.46194399999999
 20
-9.457277000000001
 30
0.6542129999999995
 70
   192
  0
VERTEX
  8
RK-LAVAT
 10
14.33922199999999
 20
-9.664726000000001
 30
0.6542129999999995
 70
   192
  0
VERTEX
  8
RK-LAVAT
 10
14.20573899999999
 20
-9.864099000000001
 30
0.6542129999999995
 70
   192
  0
VERTEX
  8
RK-LAVAT
 10
14.061851
 20
-10.054923
 30
0.6542129999999995
 70
   192
  0
VERTEX
  8
RK-LAVAT
 10
13.90791499999999
 20
-10.236726
 30
0.6542129999999995
 70
   192
  0
VERTEX
  8
RK-LAVAT
 10
13.744285
 20
-10.409036
 30
0.6542129999999995
 70
   192
  0
VERTEX
  8
RK-LAVAT
 10
13.57131899999999
 20
-10.57138
 30
0.6542129999999995
 70
   192
  0
VERTEX
  8
RK-LAVAT
 10
13.38937299999999
 20
-10.723285
 30
0.6542129999999995
 70
   192
  0
VERTEX
  8
RK-LAVAT
 10
12.61236699999999
 20
-11.262593
 30
0.6542129999999995
 70
   192
  0
VERTEX
  8
RK-LAVAT
 10
11.7855
 20
-11.667075
 30
0.6542129999999995
 70
   192
  0
VERTEX
  8
RK-LAVAT
 10
10.923018
 20
-11.936729
 30
0.6542129999999995
 70
   192
  0
VERTEX
  8
RK-LAVAT
 10
10.03916699999999
 20
-12.071556
 30
0.6542129999999995
 70
   192
  0
VERTEX
  8
RK-LAVAT
 10
9.148192999999995
 20
-12.071556
 30
0.6542129999999995
 70
   192
  0
VERTEX
  8
RK-LAVAT
 10
8.264342000000002
 20
-11.936729
 30
0.6542129999999995
 70
   192
  0
VERTEX
  8
RK-LAVAT
 10
7.401860000000002
 20
-11.667075
 30
0.6542129999999995
 70
   192
  0
VERTEX
  8
RK-LAVAT
 10
6.574992999999995
 20
-11.262594
 30
0.6542129999999995
 70
   192
  0
VERTEX
  8
RK-LAVAT
 10
5.797986999999995
 20
-10.723285
 30
0.6542129999999995
 70
   192
  0
VERTEX
  8
RK-LAVAT
 10
5.616040999999999
 20
-10.571379
 30
0.6542129999999995
 70
   192
  0
VERTEX
  8
RK-LAVAT
 10
5.443074999999996
 20
-10.409036
 30
0.6542129999999995
 70
   192
  0
VERTEX
  8
RK-LAVAT
 10
5.279445999999996
 20
-10.236726
 30
0.6542129999999995
 70
   192
  0
VERTEX
  8
RK-LAVAT
 10
5.125508999999997
 20
-10.054923
 30
0.6542120000000003
 70
   192
  0
VERTEX
  8
RK-LAVAT
 10
4.981621
 20
-9.864099000000001
 30
0.6542120000000003
 70
   192
  0
VERTEX
  8
RK-LAVAT
 10
4.848137999999995
 20
-9.664726000000001
 30
0.6542120000000003
 70
   192
  0
VERTEX
  8
RK-LAVAT
 10
4.725416999999996
 20
-9.457277000000001
 30
0.6542120000000003
 70
   192
  0
VERTEX
  8
RK-LAVAT
 10
4.613811999999999
 20
-9.242225000000001
 30
0.6542120000000003
 70
   192
  0
VERTEX
  8
RK-LAVAT
 10
4.513681999999999
 20
-9.020041000000002
 30
0.6542120000000003
 70
   192
  0
VERTEX
  8
RK-LAVAT
 10
4.368326999999997
 20
-8.586064000000002
 30
0.6542120000000003
 70
   192
  0
VERTEX
  8
RK-LAVAT
 10
4.292984
 20
-8.143088000000002
 30
0.6542120000000003
 70
   192
  0
VERTEX
  8
RK-LAVAT
 10
4.285269000000003
 20
-7.699437000000001
 30
0.6542120000000003
 70
   192
  0
VERTEX
  8
RK-LAVAT
 10
4.342794000000001
 20
-7.263433
 30
0.6542120000000003
 70
   192
  0
VERTEX
  8
RK-LAVAT
 10
4.463174999999996
 20
-6.843399000000001
 30
0.6542120000000003
 70
   192
  0
VERTEX
  8
RK-LAVAT
 10
4.644026
 20
-6.447659000000001
 30
0.6542120000000003
 70
   192
  0
VERTEX
  8
RK-LAVAT
 10
4.882963
 20
-6.084536000000001
 30
0.6542120000000003
 70
   192
  0
VERTEX
  8
RK-LAVAT
 10
5.177598999999997
 20
-5.762353000000002
 30
0.6542120000000003
 70
   192
  0
VERTEX
  8
RK-LAVAT
 10
5.525549000000001
 20
-5.489434000000002
 30
0.6542120000000003
 70
   192
  0
VERTEX
  8
RK-LAVAT
 10
5.945403999999999
 20
-5.252466000000001
 30
0.6542120000000003
 70
   192
  0
VERTEX
  8
RK-LAVAT
 10
6.375728999999996
 20
-5.041178000000002
 30
0.6542120000000003
 70
   192
  0
VERTEX
  8
RK-LAVAT
 10
6.815483000000003
 20
-4.855872000000001
 30
0.6542120000000003
 70
   192
  0
VERTEX
  8
RK-LAVAT
 10
7.263623999999996
 20
-4.696852000000001
 30
0.6542120000000003
 70
   192
  0
VERTEX
  8
RK-LAVAT
 10
7.719111000000001
 20
-4.564419
 30
0.6542120000000003
 70
   192
  0
VERTEX
  8
RK-LAVAT
 10
8.180900999999995
 20
-4.458877000000001
 30
0.6542120000000003
 70
   192
  0
VERTEX
  8
RK-LAVAT
 10
8.647954000000002
 20
-4.380529000000001
 30
0.6542120000000003
 70
   192
  0
VERTEX
  8
RK-LAVAT
 10
9.119226999999998
 20
-4.329677000000001
 30
0.6542120000000003
 70
   192
  0
VERTEX
  8
RK-LAVAT
 10
9.593678999999998
 20
-4.306625000000002
 30
0.6542120000000003
 70
   192
  0
VERTEX
  8
RK-LAVAT
 10
10.03652099999999
 20
-4.327268000000001
 30
0.6542120000000003
 70
   192
  0
VERTEX
  8
RK-LAVAT
 10
10.47675099999999
 20
-4.372150000000001
 30
0.6542120000000003
 70
   192
  0
VERTEX
  8
RK-LAVAT
 10
10.91351799999999
 20
-4.441039000000001
 30
0.6542120000000003
 70
   192
  0
VERTEX
  8
RK-LAVAT
 10
11.345968
 20
-4.533705000000001
 30
0.6542120000000003
 70
   192
  0
VERTEX
  8
RK-LAVAT
 10
11.773252
 20
-4.649915000000001
 30
0.6542120000000003
 70
   192
  0
VERTEX
  8
RK-LAVAT
 10
12.19451599999999
 20
-4.789437000000001
 30
0.6542120000000003
 70
   192
  0
VERTEX
  8
RK-LAVAT
 10
12.608909
 20
-4.952040000000001
 30
0.6542120000000003
 70
   192
  0
VERTEX
  8
RK-LAVAT
 10
13.015578
 20
-5.137491000000002
 30
0.6542120000000003
 70
   192
  0
VERTEX
  8
RK-LAVAT
 10
13.41367299999999
 20
-5.345561000000001
 30
0.6542120000000003
 70
   192
  0
VERTEX
  8
RK-LAVAT
 10
13.81525199999999
 20
-5.597915000000002
 30
0.6542120000000003
 70
   192
  0
VERTEX
  8
RK-LAVAT
 10
14.15956199999999
 20
-5.912945000000002
 30
0.6542120000000003
 70
   192
  0
VERTEX
  8
RK-LAVAT
 10
14.443121
 20
-6.280497000000002
 30
0.6542120000000003
 70
   192
  0
VERTEX
  8
RK-LAVAT
 10
14.662446
 20
-6.690415000000001
 30
0.6542120000000003
 70
   192
  0
VERTEX
  8
RK-LAVAT
 10
14.814055
 20
-7.132543000000001
 30
0.6542120000000003
 70
   192
  0
VERTEX
  8
RK-LAVAT
 10
14.894465
 20
-7.596725000000001
 30
0.6542129999999995
 70
   192
  0
VERTEX
  8
RK-LAVAT
 10
14.900194
 20
-8.072806000000001
 30
0.6542129999999995
 70
   192
  0
VERTEX
  8
RK-LAVAT
 10
14.82775899999999
 20
-8.550630000000001
 30
0.6542129999999995
 70
   192
  0
VERTEX
  8
RK-LAVAT
 10
14.17199799999999
 20
-9.025081000000001
 30
0.4361420000000003
 70
   192
  0
VERTEX
  8
RK-LAVAT
 10
14.26405699999999
 20
-8.819447000000002
 30
0.4361420000000003
 70
   192
  0
VERTEX
  8
RK-LAVAT
 10
14.06939199999999
 20
-9.224116000000002
 30
0.4361420000000003
 70
   192
  0
VERTEX
  8
RK-LAVAT
 10
13.956564
 20
-9.416113000000002
 30
0.4361420000000003
 70
   192
  0
VERTEX
  8
RK-LAVAT
 10
13.83384299999999
 20
-9.600636000000001
 30
0.4361420000000003
 70
   192
  0
VERTEX
  8
RK-LAVAT
 10
13.701555
 20
-9.777246000000001
 30
0.4361420000000003
 70
   192
  0
VERTEX
  8
RK-LAVAT
 10
13.56002799999999
 20
-9.945508000000002
 30
0.4361420000000003
 70
   192
  0
VERTEX
  8
RK-LAVAT
 10
13.40958999999999
 20
-10.104983
 30
0.4361420000000003
 70
   192
  0
VERTEX
  8
RK-LAVAT
 10
13.250569
 20
-10.255235
 30
0.4361420000000003
 70
   192
  0
VERTEX
  8
RK-LAVAT
 10
13.08329099999999
 20
-10.395826
 30
0.4361420000000003
 70
   192
  0
VERTEX
  8
RK-LAVAT
 10
12.368927
 20
-10.894965
 30
0.4361420000000003
 70
   192
  0
VERTEX
  8
RK-LAVAT
 10
11.60872099999999
 20
-11.269319
 30
0.4361420000000003
 70
   192
  0
VERTEX
  8
RK-LAVAT
 10
10.81577199999999
 20
-11.518888
 30
0.4361420000000003
 70
   192
  0
VERTEX
  8
RK-LAVAT
 10
10.003176
 20
-11.643672
 30
0.4361420000000003
 70
   192
  0
VERTEX
  8
RK-LAVAT
 10
9.184031
 20
-11.643672
 30
0.4361420000000003
 70
   192
  0
VERTEX
  8
RK-LAVAT
 10
8.371435999999999
 20
-11.518888
 30
0.4361420000000003
 70
   192
  0
VERTEX
  8
RK-LAVAT
 10
7.578486999999999
 20
-11.269319
 30
0.4361420000000003
 70
   192
  0
VERTEX
  8
RK-LAVAT
 10
6.818281000000002
 20
-10.894965
 30
0.4361420000000003
 70
   192
  0
VERTEX
  8
RK-LAVAT
 10
6.103916000000001
 20
-10.395826
 30
0.4361420000000003
 70
   192
  0
VERTEX
  8
RK-LAVAT
 10
5.936639000000003
 20
-10.255235
 30
0.4361420000000003
 70
   192
  0
VERTEX
  8
RK-LAVAT
 10
5.777616999999995
 20
-10.104983
 30
0.4361420000000003
 70
   192
  0
VERTEX
  8
RK-LAVAT
 10
5.627179000000001
 20
-9.945508000000002
 30
0.4361420000000003
 70
   192
  0
VERTEX
  8
RK-LAVAT
 10
5.485653000000002
 20
-9.777246000000001
 30
0.4361420000000003
 70
   192
  0
VERTEX
  8
RK-LAVAT
 10
5.353365
 20
-9.600635000000002
 30
0.4361420000000003
 70
   192
  0
VERTEX
  8
RK-LAVAT
 10
5.230643000000004
 20
-9.416113000000002
 30
0.4361420000000003
 70
   192
  0
VERTEX
  8
RK-LAVAT
 10
5.117814999999996
 20
-9.224116000000002
 30
0.4361420000000003
 70
   192
  0
VERTEX
  8
RK-LAVAT
 10
5.015209000000002
 20
-9.025081000000001
 30
0.4361420000000003
 70
   192
  0
VERTEX
  8
RK-LAVAT
 10
4.923151
 20
-8.819447000000002
 30
0.4361420000000003
 70
   192
  0
VERTEX
  8
RK-LAVAT
 10
4.789514999999997
 20
-8.417794
 30
0.4361420000000003
 70
   192
  0
VERTEX
  8
RK-LAVAT
 10
4.720245999999999
 20
-8.007813000000002
 30
0.4361420000000003
 70
   192
  0
VERTEX
  8
RK-LAVAT
 10
4.713151999999997
 20
-7.597206000000001
 30
0.4361420000000003
 70
   192
  0
VERTEX
  8
RK-LAVAT
 10
4.76604
 20
-7.193678000000002
 30
0.4361410000000002
 70
   192
  0
VERTEX
  8
RK-LAVAT
 10
4.876715999999998
 20
-6.804930000000002
 30
0.4361410000000002
 70
   192
  0
VERTEX
  8
RK-LAVAT
 10
5.042987
 20
-6.438666000000001
 30
0.4361410000000002
 70
   192
  0
VERTEX
  8
RK-LAVAT
 10
5.262660999999997
 20
-6.102590000000001
 30
0.4361410000000002
 70
   192
  0
VERTEX
  8
RK-LAVAT
 10
5.533542999999998
 20
-5.804405
 30
0.4361410000000002
 70
   192
  0
VERTEX
  8
RK-LAVAT
 10
5.853441999999997
 20
-5.551814000000002
 30
0.4361410000000002
 70
   192
  0
VERTEX
  8
RK-LAVAT
 10
6.239447999999999
 20
-5.332497000000001
 30
0.4361410000000002
 70
   192
  0
VERTEX
  8
RK-LAVAT
 10
6.635081000000003
 20
-5.136946000000001
 30
0.4361410000000002
 70
   192
  0
VERTEX
  8
RK-LAVAT
 10
7.039382999999997
 20
-4.965443000000002
 30
0.4361410000000002
 70
   192
  0
VERTEX
  8
RK-LAVAT
 10
7.451394999999994
 20
-4.818266000000001
 30
0.4361410000000002
 70
   192
  0
VERTEX
  8
RK-LAVAT
 10
7.870160999999999
 20
-4.695698000000001
 30
0.4361410000000002
 70
   192
  0
VERTEX
  8
RK-LAVAT
 10
8.294721999999996
 20
-4.598017000000002
 30
0.4361410000000002
 70
   192
  0
VERTEX
  8
RK-LAVAT
 10
8.724121
 20
-4.525504000000001
 30
0.4361410000000002
 70
   192
  0
VERTEX
  8
RK-LAVAT
 10
9.157400999999996
 20
-4.478441000000001
 30
0.4361410000000002
 70
   192
  0
VERTEX
  8
RK-LAVAT
 10
9.593602999999998
 20
-4.457105000000002
 30
0.4361410000000002
 70
   192
  0
VERTEX
  8
RK-LAVAT
 10
10.000743
 20
-4.476210000000001
 30
0.4361410000000002
 70
   192
  0
VERTEX
  8
RK-LAVAT
 10
10.40548299999999
 20
-4.517749000000002
 30
0.4361410000000002
 70
   192
  0
VERTEX
  8
RK-LAVAT
 10
10.80703699999999
 20
-4.581508000000001
 30
0.4361410000000002
 70
   192
  0
VERTEX
  8
RK-LAVAT
 10
11.20462399999999
 20
-4.667271000000001
 30
0.4361410000000002
 70
   192
  0
VERTEX
  8
RK-LAVAT
 10
11.59746
 20
-4.774825000000001
 30
0.4361410000000002
 70
   192
  0
VERTEX
  8
RK-LAVAT
 10
11.98476199999999
 20
-4.903956000000002
 30
0.4361410000000002
 70
   192
  0
VERTEX
  8
RK-LAVAT
 10
12.365747
 20
-5.054446000000002
 30
0.4361410000000002
 70
   192
  0
VERTEX
  8
RK-LAVAT
 10
12.739631
 20
-5.226086000000002
 30
0.4361420000000003
 70
   192
  0
VERTEX
  8
RK-LAVAT
 10
13.105632
 20
-5.418658000000002
 30
0.4361420000000003
 70
   192
  0
VERTEX
  8
RK-LAVAT
 10
13.474836
 20
-5.652215000000001
 30
0.4361420000000003
 70
   192
  0
VERTEX
  8
RK-LAVAT
 10
13.791388
 20
-5.943780000000002
 30
0.4361420000000003
 70
   192
  0
VERTEX
  8
RK-LAVAT
 10
14.052087
 20
-6.283955000000002
 30
0.4361420000000003
 70
   192
  0
VERTEX
  8
RK-LAVAT
 10
14.25373
 20
-6.663341
 30
0.4361420000000003
 70
   192
  0
VERTEX
  8
RK-LAVAT
 10
14.39311599999999
 20
-7.072537000000002
 30
0.4361420000000003
 70
   192
  0
VERTEX
  8
RK-LAVAT
 10
14.467043
 20
-7.502145000000002
 30
0.4361420000000003
 70
   192
  0
VERTEX
  8
RK-LAVAT
 10
14.472311
 20
-7.942765000000001
 30
0.4361420000000003
 70
   192
  0
VERTEX
  8
RK-LAVAT
 10
14.405715
 20
-8.384999000000002
 30
0.4361420000000003
 70
   192
  0
VERTEX
  8
RK-LAVAT
 10
13.62912499999999
 20
-8.74604
 30
0.2180720000000003
 70
   192
  0
VERTEX
  8
RK-LAVAT
 10
13.71026999999999
 20
-8.563920000000001
 30
0.2180720000000003
 70
   192
  0
VERTEX
  8
RK-LAVAT
 10
13.53868299999999
 20
-8.922315000000001
 30
0.2180720000000003
 70
   192
  0
VERTEX
  8
RK-LAVAT
 10
13.43923099999999
 20
-9.092358
 30
0.2180720000000003
 70
   192
  0
VERTEX
  8
RK-LAVAT
 10
13.331058
 20
-9.255780000000001
 30
0.2180720000000003
 70
   192
  0
VERTEX
  8
RK-LAVAT
 10
13.21445299999999
 20
-9.412196000000001
 30
0.2180720000000003
 70
   192
  0
VERTEX
  8
RK-LAVAT
 10
13.089704
 20
-9.561217000000002
 30
0.2180720000000003
 70
   192
  0
VERTEX
  8
RK-LAVAT
 10
12.95710099999999
 20
-9.702456000000001
 30
0.2180720000000003
 70
   192
  0
VERTEX
  8
RK-LAVAT
 10
12.81693199999999
 20
-9.835527000000002
 30
0.2180720000000003
 70
   192
  0
VERTEX
  8
RK-LAVAT
 10
12.66948499999999
 20
-9.960041000000002
 30
0.2180720000000003
 70
   192
  0
VERTEX
  8
RK-LAVAT
 10
12.03980799999999
 20
-10.402103
 30
0.2180720000000003
 70
   192
  0
VERTEX
  8
RK-LAVAT
 10
11.36972499999999
 20
-10.73365
 30
0.2180720000000003
 70
   192
  0
VERTEX
  8
RK-LAVAT
 10
10.67077999999999
 20
-10.954681
 30
0.2180720000000003
 70
   192
  0
VERTEX
  8
RK-LAVAT
 10
9.954517999999996
 20
-11.065197
 30
0.2180720000000003
 70
   192
  0
VERTEX
  8
RK-LAVAT
 10
9.232484000000003
 20
-11.065197
 30
0.2180720000000003
 70
   192
  0
VERTEX
  8
RK-LAVAT
 10
8.516222000000002
 20
-10.954681
 30
0.2180720000000003
 70
   192
  0
VERTEX
  8
RK-LAVAT
 10
7.817277
 20
-10.73365
 30
0.2180720000000003
 70
   192
  0
VERTEX
  8
RK-LAVAT
 10
7.147194000000002
 20
-10.402104
 30
0.2180720000000003
 70
   192
  0
VERTEX
  8
RK-LAVAT
 10
6.517517000000001
 20
-9.960041000000002
 30
0.2180720000000003
 70
   192
  0
VERTEX
  8
RK-LAVAT
 10
6.370070000000001
 20
-9.835527000000002
 30
0.2180720000000003
 70
   192
  0
VERTEX
  8
RK-LAVAT
 10
6.229901000000001
 20
-9.702456000000001
 30
0.2180710000000001
 70
   192
  0
VERTEX
  8
RK-LAVAT
 10
6.097297999999998
 20
-9.561217000000002
 30
0.2180710000000001
 70
   192
  0
VERTEX
  8
RK-LAVAT
 10
5.972548999999997
 20
-9.412195000000002
 30
0.2180710000000001
 70
   192
  0
VERTEX
  8
RK-LAVAT
 10
5.855943999999997
 20
-9.255780000000001
 30
0.2180710000000001
 70
   192
  0
VERTEX
  8
RK-LAVAT
 10
5.747771000000003
 20
-9.092358
 30
0.2180710000000001
 70
   192
  0
VERTEX
  8
RK-LAVAT
 10
5.648319000000004
 20
-8.922315000000001
 30
0.2180710000000001
 70
   192
  0
VERTEX
  8
RK-LAVAT
 10
5.557875999999996
 20
-8.74604
 30
0.2180710000000001
 70
   192
  0
VERTEX
  8
RK-LAVAT
 10
5.476732000000001
 20
-8.563920000000001
 30
0.2180710000000001
 70
   192
  0
VERTEX
  8
RK-LAVAT
 10
5.358938999999995
 20
-8.208196
 30
0.2180710000000001
 70
   192
  0
VERTEX
  8
RK-LAVAT
 10
5.297881
 20
-7.845096000000001
 30
0.2180710000000001
 70
   192
  0
VERTEX
  8
RK-LAVAT
 10
5.291627999999999
 20
-7.481442000000003
 30
0.2180710000000001
 70
   192
  0
VERTEX
  8
RK-LAVAT
 10
5.338246000000001
 20
-7.124057000000002
 30
0.2180710000000001
 70
   192
  0
VERTEX
  8
RK-LAVAT
 10
5.435801000000001
 20
-6.779762000000001
 30
0.2180710000000001
 70
   192
  0
VERTEX
  8
RK-LAVAT
 10
5.582361999999999
 20
-6.455381
 30
0.2180710000000001
 70
   192
  0
VERTEX
  8
RK-LAVAT
 10
5.775993000000003
 20
-6.157735000000002
 30
0.2180710000000001
 70
   192
  0
VERTEX
  8
RK-LAVAT
 10
6.014762000000001
 20
-5.893647000000001
 30
0.2180710000000001
 70
   192
  0
VERTEX
  8
RK-LAVAT
 10
6.296736999999996
 20
-5.669940000000002
 30
0.2180710000000001
 70
   192
  0
VERTEX
  8
RK-LAVAT
 10
6.636981999999999
 20
-5.475701
 30
0.2180710000000001
 70
   192
  0
VERTEX
  8
RK-LAVAT
 10
6.985711999999995
 20
-5.302511000000002
 30
0.2180710000000001
 70
   192
  0
VERTEX
  8
RK-LAVAT
 10
7.342084000000003
 20
-5.150620000000001
 30
0.2180710000000001
 70
   192
  0
VERTEX
  8
RK-LAVAT
 10
7.705251999999997
 20
-5.020273000000001
 30
0.2180710000000001
 70
   192
  0
VERTEX
  8
RK-LAVAT
 10
8.074372999999997
 20
-4.911720000000002
 30
0.2180710000000001
 70
   192
  0
VERTEX
  8
RK-LAVAT
 10
8.448601999999997
 20
-4.825209
 30
0.2180710000000001
 70
   192
  0
VERTEX
  8
RK-LAVAT
 10
8.827096
 20
-4.760988000000001
 30
0.2180710000000001
 70
   192
  0
VERTEX
  8
RK-LAVAT
 10
9.209009999999995
 20
-4.719305000000002
 30
0.2180710000000001
 70
   192
  0
VERTEX
  8
RK-LAVAT
 10
9.593499999999995
 20
-4.700410000000001
 30
0.2180710000000001
 70
   192
  0
VERTEX
  8
RK-LAVAT
 10
9.952373999999995
 20
-4.717330000000002
 30
0.2180710000000001
 70
   192
  0
VERTEX
  8
RK-LAVAT
 10
10.30913099999999
 20
-4.754119000000001
 30
0.2180710000000001
 70
   192
  0
VERTEX
  8
RK-LAVAT
 10
10.66308099999999
 20
-4.810587000000001
 30
0.2180710000000001
 70
   192
  0
VERTEX
  8
RK-LAVAT
 10
11.01353399999999
 20
-4.886544000000002
 30
0.2180710000000001
 70
   192
  0
VERTEX
  8
RK-LAVAT
 10
11.35979899999999
 20
-4.981799000000002
 30
0.2180710000000001
 70
   192
  0
VERTEX
  8
RK-LAVAT
 10
11.701187
 20
-5.096163000000002
 30
0.2180710000000001
 70
   192
  0
VERTEX
  8
RK-LAVAT
 10
12.03700599999999
 20
-5.229446000000002
 30
0.2180710000000001
 70
   192
  0
VERTEX
  8
RK-LAVAT
 10
12.36656599999999
 20
-5.381458000000002
 30
0.2180710000000001
 70
   192
  0
VERTEX
  8
RK-LAVAT
 10
12.689177
 20
-5.552010000000002
 30
0.2180710000000001
 70
   192
  0
VERTEX
  8
RK-LAVAT
 10
13.014612
 20
-5.758859000000002
 30
0.2180710000000001
 70
   192
  0
VERTEX
  8
RK-LAVAT
 10
13.29363599999999
 20
-6.017085000000001
 30
0.2180710000000001
 70
   192
  0
VERTEX
  8
RK-LAVAT
 10
13.52342899999999
 20
-6.318361000000001
 30
0.2180710000000001
 70
   192
  0
VERTEX
  8
RK-LAVAT
 10
13.701167
 20
-6.654364000000002
 30
0.2180710000000001
 70
   192
  0
VERTEX
  8
RK-LAVAT
 10
13.82402899999999
 20
-7.016768
 30
0.2180710000000001
 70
   192
  0
VERTEX
  8
RK-LAVAT
 10
13.88919199999999
 20
-7.397251000000002
 30
0.2180710000000001
 70
   192
  0
VERTEX
  8
RK-LAVAT
 10
13.893835
 20
-7.787487000000002
 30
0.2180720000000003
 70
   192
  0
VERTEX
  8
RK-LAVAT
 10
13.83513499999999
 20
-8.179151
 30
0.2180720000000003
 70
   192
  0
VERTEX
  8
RK-LAVAT
 10
12.261464
 20
-8.076619
 30
0.0000010000000001
 70
   192
  0
VERTEX
  8
RK-LAVAT
 10
12.31511399999999
 20
-7.956374000000002
 30
0.0000010000000001
 70
   192
  0
VERTEX
  8
RK-LAVAT
 10
12.20166599999999
 20
-8.193005000000002
 30
0.0000010000000001
 70
   192
  0
VERTEX
  8
RK-LAVAT
 10
12.135912
 20
-8.305275000000001
 30
0.0000010000000001
 70
   192
  0
VERTEX
  8
RK-LAVAT
 10
12.064391
 20
-8.413175000000002
 30
0.0000010000000001
 70
   192
  0
VERTEX
  8
RK-LAVAT
 10
11.987296
 20
-8.516448000000002
 30
0.0000010000000001
 70
   192
  0
VERTEX
  8
RK-LAVAT
 10
11.904816
 20
-8.614839000000001
 30
0.0000010000000001
 70
   192
  0
VERTEX
  8
RK-LAVAT
 10
11.81714299999999
 20
-8.708093000000001
 30
0.0000010000000001
 70
   192
  0
VERTEX
  8
RK-LAVAT
 10
11.72446799999999
 20
-8.795953
 30
0.0000010000000001
 70
   192
  0
VERTEX
  8
RK-LAVAT
 10
11.626981
 20
-8.878163000000002
 30
0.0000010000000001
 70
   192
  0
VERTEX
  8
RK-LAVAT
 10
11.21065899999999
 20
-9.170035000000002
 30
0.0000010000000001
 70
   192
  0
VERTEX
  8
RK-LAVAT
 10
10.76762199999999
 20
-9.388939000000002
 30
0.0000010000000001
 70
   192
  0
VERTEX
  8
RK-LAVAT
 10
10.305502
 20
-9.534875000000001
 30
0.0000010000000001
 70
   192
  0
VERTEX
  8
RK-LAVAT
 10
9.831932999999995
 20
-9.607842000000001
 30
0.0000010000000001
 70
   192
  0
VERTEX
  8
RK-LAVAT
 10
9.354547
 20
-9.607842000000001
 30
0.0000010000000001
 70
   192
  0
VERTEX
  8
RK-LAVAT
 10
8.880978000000002
 20
-9.534875000000001
 30
0.0000010000000001
 70
   192
  0
VERTEX
  8
RK-LAVAT
 10
8.418859000000001
 20
-9.388939000000002
 30
0.0000010000000001
 70
   192
  0
VERTEX
  8
RK-LAVAT
 10
7.975820999999999
 20
-9.170035000000002
 30
0.0000010000000001
 70
   192
  0
VERTEX
  8
RK-LAVAT
 10
7.559500000000003
 20
-8.878163000000002
 30
0.0000010000000001
 70
   192
  0
VERTEX
  8
RK-LAVAT
 10
7.462013000000002
 20
-8.795953
 30
0.0000010000000001
 70
   192
  0
VERTEX
  8
RK-LAVAT
 10
7.369336999999998
 20
-8.708093000000001
 30
0.0000010000000001
 70
   192
  0
VERTEX
  8
RK-LAVAT
 10
7.281663999999995
 20
-8.614839000000001
 30
0.0000010000000001
 70
   192
  0
VERTEX
  8
RK-LAVAT
 10
7.199185000000003
 20
-8.516448000000002
 30
0.0000010000000001
 70
   192
  0
VERTEX
  8
RK-LAVAT
 10
7.122088999999999
 20
-8.413175000000002
 30
0.0000010000000001
 70
   192
  0
VERTEX
  8
RK-LAVAT
 10
7.050568000000001
 20
-8.305275000000001
 30
0.0000010000000001
 70
   192
  0
VERTEX
  8
RK-LAVAT
 10
6.984814000000003
 20
-8.193005000000002
 30
0.0000010000000001
 70
   192
  0
VERTEX
  8
RK-LAVAT
 10
6.925017
 20
-8.076619
 30
0.0000010000000001
 70
   192
  0
VERTEX
  8
RK-LAVAT
 10
6.871365999999998
 20
-7.956374000000002
 30
0.0000010000000001
 70
   192
  0
VERTEX
  8
RK-LAVAT
 10
6.793485
 20
-7.721507
 30
0.0000010000000001
 70
   192
  0
VERTEX
  8
RK-LAVAT
 10
6.753115999999995
 20
-7.481771000000001
 30
0.0000010000000001
 70
   192
  0
VERTEX
  8
RK-LAVAT
 10
6.748982000000001
 20
-7.241668000000002
 30
0.0000010000000001
 70
   192
  0
VERTEX
  8
RK-LAVAT
 10
6.779804000000002
 20
-7.005704000000001
 30
0.0000010000000001
 70
   192
  0
VERTEX
  8
RK-LAVAT
 10
6.844303999999997
 20
-6.778384
 30
0.0000010000000001
 70
   192
  0
VERTEX
  8
RK-LAVAT
 10
6.941205
 20
-6.564211000000002
 30
0.0
 70
   192
  0
VERTEX
  8
RK-LAVAT
 10
7.069227999999998
 20
-6.367690000000001
 30
0.0
 70
   192
  0
VERTEX
  8
RK-LAVAT
 10
7.227094999999994
 20
-6.193326
 30
0.0
 70
   192
  0
VERTEX
  8
RK-LAVAT
 10
7.413526999999998
 20
-6.045623
 30
0.0
 70
   192
  0
VERTEX
  8
RK-LAVAT
 10
7.638486000000003
 20
-5.917377000000001
 30
0.0
 70
   192
  0
VERTEX
  8
RK-LAVAT
 10
7.869054999999999
 20
-5.803029000000002
 30
0.0
 70
   192
  0
VERTEX
  8
RK-LAVAT
 10
8.104676000000001
 20
-5.702742000000002
 30
0.0
 70
   192
  0
VERTEX
  8
RK-LAVAT
 10
8.344791000000004
 20
-5.616681000000001
 30
0.0
 70
   192
  0
VERTEX
  8
RK-LAVAT
 10
8.588842000000003
 20
-5.545008000000001
 30
0.0
 70
   192
  0
VERTEX
  8
RK-LAVAT
 10
8.836270000000002
 20
-5.487890000000001
 30
0.0
 70
   192
  0
VERTEX
  8
RK-LAVAT
 10
9.086518000000001
 20
-5.445487000000001
 30
0.0
 70
   192
  0
VERTEX
  8
RK-LAVAT
 10
9.339026999999997
 20
-5.417966000000001
 30
0.0
 70
   192
  0
VERTEX
  8
RK-LAVAT
 10
9.593239999999997
 20
-5.405491000000001
 30
0.0
 70
   192
  0
VERTEX
  8
RK-LAVAT
 10
9.830514999999994
 20
-5.416662000000002
 30
0.0
 70
   192
  0
VERTEX
  8
RK-LAVAT
 10
10.06639199999999
 20
-5.440953000000002
 30
0.0
 70
   192
  0
VERTEX
  8
RK-LAVAT
 10
10.30041199999999
 20
-5.478235000000001
 30
0.0
 70
   192
  0
VERTEX
  8
RK-LAVAT
 10
10.53211999999999
 20
-5.528386000000002
 30
0.0
 70
   192
  0
VERTEX
  8
RK-LAVAT
 10
10.76106
 20
-5.591278000000002
 30
0.0000010000000001
 70
   192
  0
VERTEX
  8
RK-LAVAT
 10
10.986774
 20
-5.666787000000001
 30
0.0000010000000001
 70
   192
  0
VERTEX
  8
RK-LAVAT
 10
11.208806
 20
-5.754787000000002
 30
0.0000010000000001
 70
   192
  0
VERTEX
  8
RK-LAVAT
 10
11.42670099999999
 20
-5.855153000000003
 30
0.0000010000000001
 70
   192
  0
VERTEX
  8
RK-LAVAT
 10
11.640001
 20
-5.967760000000001
 30
0.0000010000000001
 70
   192
  0
VERTEX
  8
RK-LAVAT
 10
11.85516699999999
 20
-6.104332000000001
 30
0.0000010000000001
 70
   192
  0
VERTEX
  8
RK-LAVAT
 10
12.03964999999999
 20
-6.274826000000002
 30
0.0000010000000001
 70
   192
  0
VERTEX
  8
RK-LAVAT
 10
12.191581
 20
-6.473743000000002
 30
0.0000010000000001
 70
   192
  0
VERTEX
  8
RK-LAVAT
 10
12.309096
 20
-6.695589000000001
 30
0.0000010000000001
 70
   192
  0
VERTEX
  8
RK-LAVAT
 10
12.390328
 20
-6.934867000000002
 30
0.0000010000000001
 70
   192
  0
VERTEX
  8
RK-LAVAT
 10
12.433412
 20
-7.186081000000001
 30
0.0000010000000001
 70
   192
  0
VERTEX
  8
RK-LAVAT
 10
12.436482
 20
-7.443734
 30
0.0000010000000001
 70
   192
  0
VERTEX
  8
RK-LAVAT
 10
12.39767099999999
 20
-7.702330000000001
 30
0.0000010000000001
 70
   192
  0
VERTEX
  8
RK-LAVAT
 10
2.789862999999998
 20
-2.953112
 30
6.40625
 70
   192
  0
VERTEX
  8
RK-LAVAT
 10
2.726643000000001
 20
-2.878813
 30
6.396643
 70
   192
  0
VERTEX
  8
RK-LAVAT
 10
1.803876999999999
 20
-3.862869000000001
 30
6.396643
 70
   192
  0
VERTEX
  8
RK-LAVAT
 10
1.881206
 20
-3.922328000000002
 30
6.40625
 70
   192
  0
VERTEX
  8
RK-LAVAT
 10
14.56786899999999
 20
-14.916737
 30
6.184034999999999
 70
   192
  0
VERTEX
  8
RK-LAVAT
 10
16.396635
 20
-13.795964
 30
6.097591999999999
 70
   192
  0
VERTEX
  8
RK-LAVAT
 10
16.367962
 20
-13.759731
 30
6.184034999999999
 70
   192
  0
VERTEX
  8
RK-LAVAT
 10
14.588922
 20
-14.957867
 30
6.097591999999999
 70
   192
  0
VERTEX
  8
RK-LAVAT
 10
12.57664499999999
 20
-15.70033
 30
6.184034999999999
 70
   192
  0
VERTEX
  8
RK-LAVAT
 10
12.58926999999999
 20
-15.744777
 30
6.097591999999999
 70
   192
  0
VERTEX
  8
RK-LAVAT
 10
10.47081
 20
-16.080398
 30
6.184034999999999
 70
   192
  0
VERTEX
  8
RK-LAVAT
 10
10.47451999999999
 20
-16.126453
 30
6.097591999999999
 70
   192
  0
VERTEX
  8
RK-LAVAT
 10
8.331288999999998
 20
-16.042335
 30
6.184034999999999
 70
   192
  0
VERTEX
  8
RK-LAVAT
 10
8.325945
 20
-16.088229
 30
6.097591999999999
 70
   192
  0
VERTEX
  8
RK-LAVAT
 10
6.240306999999997
 20
-15.587604
 30
6.184034999999999
 70
   192
  0
VERTEX
  8
RK-LAVAT
 10
6.226109999999998
 20
-15.631573
 30
6.097591999999999
 70
   192
  0
VERTEX
  8
RK-LAVAT
 10
4.278212999999999
 20
-14.733679
 30
6.184034999999999
 70
   192
  0
VERTEX
  8
RK-LAVAT
 10
4.255712
 20
-14.774035
 30
6.097591999999999
 70
   192
  0
VERTEX
  8
RK-LAVAT
 10
14.539537
 20
-14.861385
 30
6.259802999999999
 70
   192
  0
VERTEX
  8
RK-LAVAT
 10
16.32937599999999
 20
-13.71097
 30
6.259802999999999
 70
   192
  0
VERTEX
  8
RK-LAVAT
 10
12.559656
 20
-15.640514
 30
6.259802999999999
 70
   192
  0
VERTEX
  8
RK-LAVAT
 10
10.465816
 20
-16.018417
 30
6.259802999999999
 70
   192
  0
VERTEX
  8
RK-LAVAT
 10
8.338485999999999
 20
-15.980571
 30
6.259802999999999
 70
   192
  0
VERTEX
  8
RK-LAVAT
 10
6.259412999999998
 20
-15.52843
 30
6.259802999999999
 70
   192
  0
VERTEX
  8
RK-LAVAT
 10
4.308497999999998
 20
-14.67937
 30
6.259802999999999
 70
   192
  0
VERTEX
  8
RK-LAVAT
 10
14.505014
 20
-14.793938
 30
6.321984999999999
 70
   192
  0
VERTEX
  8
RK-LAVAT
 10
16.28235799999999
 20
-13.651555
 30
6.321984999999999
 70
   192
  0
VERTEX
  8
RK-LAVAT
 10
12.538956
 20
-15.567629
 30
6.321984999999999
 70
   192
  0
VERTEX
  8
RK-LAVAT
 10
10.459734
 20
-15.942894
 30
6.321984999999999
 70
   192
  0
VERTEX
  8
RK-LAVAT
 10
8.347252000000001
 20
-15.905312
 30
6.321984999999999
 70
   192
  0
VERTEX
  8
RK-LAVAT
 10
6.282693999999999
 20
-15.456327
 30
6.321984999999999
 70
   192
  0
VERTEX
  8
RK-LAVAT
 10
4.345397999999999
 20
-14.613195
 30
6.321984999999999
 70
   192
  0
VERTEX
  8
RK-LAVAT
 10
14.465628
 20
-14.716989
 30
6.36819
 70
   192
  0
VERTEX
  8
RK-LAVAT
 10
16.228716
 20
-13.583768
 30
6.36819
 70
   192
  0
VERTEX
  8
RK-LAVAT
 10
12.515337
 20
-15.484474
 30
6.36819
 70
   192
  0
VERTEX
  8
RK-LAVAT
 10
10.45279099999999
 20
-15.856729
 30
6.36819
 70
   192
  0
VERTEX
  8
RK-LAVAT
 10
8.357253999999997
 20
-15.819449
 30
6.36819
 70
   192
  0
VERTEX
  8
RK-LAVAT
 10
6.309253999999999
 20
-15.374066
 30
6.36819
 70
   192
  0
VERTEX
  8
RK-LAVAT
 10
4.387496999999999
 20
-14.537695
 30
6.36819
 70
   192
  0
VERTEX
  8
RK-LAVAT
 10
14.422892
 20
-14.633495
 30
6.396643
 70
   192
  0
VERTEX
  8
RK-LAVAT
 10
16.170511
 20
-13.510216
 30
6.396643
 70
   192
  0
VERTEX
  8
RK-LAVAT
 10
12.48971
 20
-15.394246
 30
6.396643
 70
   192
  0
VERTEX
  8
RK-LAVAT
 10
10.44526099999999
 20
-15.763237
 30
6.396643
 70
   192
  0
VERTEX
  8
RK-LAVAT
 10
8.368106999999998
 20
-15.726282
 30
6.396643
 70
   192
  0
VERTEX
  8
RK-LAVAT
 10
6.338073999999998
 20
-15.284806
 30
6.396643
 70
   192
  0
VERTEX
  8
RK-LAVAT
 10
4.433175999999999
 20
-14.455774
 30
6.396643
 70
   192
  0
VERTEX
  8
RK-LAVAT
 10
14.378446
 20
-14.546663
 30
6.40625
 70
   192
  0
VERTEX
  8
RK-LAVAT
 10
16.10998099999999
 20
-13.433723
 30
6.40625
 70
   192
  0
VERTEX
  8
RK-LAVAT
 10
12.463058
 20
-15.300413
 30
6.40625
 70
   192
  0
VERTEX
  8
RK-LAVAT
 10
10.43742699999999
 20
-15.666005
 30
6.40625
 70
   192
  0
VERTEX
  8
RK-LAVAT
 10
8.379393
 20
-15.629392
 30
6.40625
 70
   192
  0
VERTEX
  8
RK-LAVAT
 10
6.368045999999999
 20
-15.19198
 30
6.40625
 70
   192
  0
VERTEX
  8
RK-LAVAT
 10
4.480679999999999
 20
-14.370578
 30
6.40625
 70
   192
  0
VERTEX
  8
RK-LAVAT
 10
16.713127
 20
-13.566557
 30
6.02625
 70
   192
  0
VERTEX
  8
RK-LAVAT
 10
16.697683
 20
-13.548911
 30
6.097591999999999
 70
   192
  0
VERTEX
  8
RK-LAVAT
 10
16.411184
 20
-13.81435
 30
6.02625
 70
   192
  0
VERTEX
  8
RK-LAVAT
 10
14.59960499999999
 20
-14.978738
 30
6.02625
 70
   192
  0
VERTEX
  8
RK-LAVAT
 10
12.59567399999999
 20
-15.767331
 30
6.02625
 70
   192
  0
VERTEX
  8
RK-LAVAT
 10
10.476402
 20
-16.149824
 30
6.02625
 70
   192
  0
VERTEX
  8
RK-LAVAT
 10
8.323232999999998
 20
-16.111519
 30
6.02625
 70
   192
  0
VERTEX
  8
RK-LAVAT
 10
6.218906
 20
-15.653886
 30
6.02625
 70
   192
  0
VERTEX
  8
RK-LAVAT
 10
4.244293
 20
-14.794513
 30
6.02625
 70
   192
  0
VERTEX
  8
RK-LAVAT
 10
2.490876999999999
 20
-13.548911
 30
6.097591999999999
 70
   192
  0
VERTEX
  8
RK-LAVAT
 10
2.475433
 20
-13.566557
 30
6.02625
 70
   192
  0
VERTEX
  8
RK-LAVAT
 10
16.66725
 20
-13.514139
 30
6.184034999999999
 70
   192
  0
VERTEX
  8
RK-LAVAT
 10
2.522437999999999
 20
-13.512851
 30
6.186581
 70
   192
  0
VERTEX
  8
RK-LAVAT
 10
2.524148999999999
 20
-13.510896
 30
6.190379
 70
   192
  0
VERTEX
  8
RK-LAVAT
 10
16.62629299999999
 20
-13.467343
 30
6.259802999999999
 70
   192
  0
VERTEX
  8
RK-LAVAT
 10
2.562267
 20
-13.467343
 30
6.259802999999999
 70
   192
  0
VERTEX
  8
RK-LAVAT
 10
16.57638699999999
 20
-13.410322
 30
6.321984999999999
 70
   192
  0
VERTEX
  8
RK-LAVAT
 10
2.612171
 20
-13.410322
 30
6.321984999999999
 70
   192
  0
VERTEX
  8
RK-LAVAT
 10
2.586231000000001
 20
-13.439997
 30
6.292754999999999
 70
   192
  0
VERTEX
  8
RK-LAVAT
 10
16.519451
 20
-13.345267
 30
6.36819
 70
   192
  0
VERTEX
  8
RK-LAVAT
 10
2.669109
 20
-13.345267
 30
6.36819
 70
   192
  0
VERTEX
  8
RK-LAVAT
 10
2.639908
 20
-13.37866
 30
6.347210999999999
 70
   192
  0
VERTEX
  8
RK-LAVAT
 10
16.45767
 20
-13.274677
 30
6.396643
 70
   192
  0
VERTEX
  8
RK-LAVAT
 10
2.730887999999998
 20
-13.274677
 30
6.396643
 70
   192
  0
VERTEX
  8
RK-LAVAT
 10
2.699548999999999
 20
-13.310506
 30
6.384719999999999
 70
   192
  0
VERTEX
  8
RK-LAVAT
 10
16.39345499999999
 20
-13.201305
 30
6.40625
 70
   192
  0
VERTEX
  8
RK-LAVAT
 10
2.795138999999998
 20
-13.201267
 30
6.40625
 70
   192
  0
VERTEX
  8
RK-LAVAT
 10
1.018336999999998
 20
-11.682775
 30
6.184034999999999
 70
   192
  0
VERTEX
  8
RK-LAVAT
 10
1.807776999999999
 20
-12.865818
 30
6.097591999999999
 70
   192
  0
VERTEX
  8
RK-LAVAT
 10
1.842547999999998
 20
-12.835388
 30
6.184034999999999
 70
   192
  0
VERTEX
  8
RK-LAVAT
 10
0.978299999999999
 20
-11.705837
 30
6.097591999999999
 70
   192
  0
VERTEX
  8
RK-LAVAT
 10
0.4348299999999999
 20
-10.391514
 30
6.184034999999999
 70
   192
  0
VERTEX
  8
RK-LAVAT
 10
0.3910599999999995
 20
-10.406322
 30
6.097591999999999
 70
   192
  0
VERTEX
  8
RK-LAVAT
 10
0.1144449999999999
 20
-9.011227000000001
 30
6.184034999999999
 70
   192
  0
VERTEX
  8
RK-LAVAT
 10
0.0686300000000006
 20
-9.017212
 30
6.097591999999999
 70
   192
  0
VERTEX
  8
RK-LAVAT
 10
0.0694960000000009
 20
-7.594959000000001
 30
6.184034999999999
 70
   192
  0
VERTEX
  8
RK-LAVAT
 10
0.0233939999999997
 20
-7.591891000000001
 30
6.097591999999999
 70
   192
  0
VERTEX
  8
RK-LAVAT
 10
0.3017139999999987
 20
-6.197134000000001
 30
6.184034999999999
 70
   192
  0
VERTEX
  8
RK-LAVAT
 10
0.2570949999999996
 20
-6.185131000000001
 30
6.097591999999999
 70
   192
  0
VERTEX
  8
RK-LAVAT
 10
0.8021699999999984
 20
-4.871472000000002
 30
6.184034999999999
 70
   192
  0
VERTEX
  8
RK-LAVAT
 10
0.7607499999999999
 20
-4.850994000000001
 30
6.097591999999999
 70
   192
  0
VERTEX
  8
RK-LAVAT
 10
1.551633999999999
 20
-3.668916000000002
 30
6.184034999999999
 70
   192
  0
VERTEX
  8
RK-LAVAT
 10
1.515005
 20
-3.640751000000001
 30
6.097591999999999
 70
   192
  0
VERTEX
  8
RK-LAVAT
 10
1.072219999999999
 20
-11.651738
 30
6.259802999999999
 70
   192
  0
VERTEX
  8
RK-LAVAT
 10
1.889338999999999
 20
-12.794435
 30
6.259802999999999
 70
   192
  0
VERTEX
  8
RK-LAVAT
 10
0.4937319999999997
 20
-10.371585
 30
6.259802999999999
 70
   192
  0
VERTEX
  8
RK-LAVAT
 10
0.1761020000000002
 20
-9.003173
 30
6.259802999999999
 70
   192
  0
VERTEX
  8
RK-LAVAT
 10
0.1315419999999996
 20
-7.599087000000001
 30
6.259802999999999
 70
   192
  0
VERTEX
  8
RK-LAVAT
 10
0.3617589999999993
 20
-6.213288
 30
6.259802999999999
 70
   192
  0
VERTEX
  8
RK-LAVAT
 10
0.8579100000000003
 20
-4.899030000000001
 30
6.259802999999999
 70
   192
  0
VERTEX
  8
RK-LAVAT
 10
1.600928999999998
 20
-3.706819000000001
 30
6.259802999999999
 70
   192
  0
VERTEX
  8
RK-LAVAT
 10
1.137874
 20
-11.613919
 30
6.321984999999999
 70
   192
  0
VERTEX
  8
RK-LAVAT
 10
1.946353999999999
 20
-12.744535
 30
6.321984999999999
 70
   192
  0
VERTEX
  8
RK-LAVAT
 10
0.5655020000000004
 20
-10.347302
 30
6.321984999999999
 70
   192
  0
VERTEX
  8
RK-LAVAT
 10
0.2512319999999999
 20
-8.993358
 30
6.321984999999999
 70
   192
  0
VERTEX
  8
RK-LAVAT
 10
0.2071419999999993
 20
-7.604118000000001
 30
6.321984999999999
 70
   192
  0
VERTEX
  8
RK-LAVAT
 10
0.4349270000000001
 20
-6.232971
 30
6.321984999999999
 70
   192
  0
VERTEX
  8
RK-LAVAT
 10
0.9258309999999987
 20
-4.932609000000001
 30
6.321984999999999
 70
   192
  0
VERTEX
  8
RK-LAVAT
 10
1.660993000000001
 20
-3.753003000000001
 30
6.321984999999999
 70
   192
  0
VERTEX
  8
RK-LAVAT
 10
1.21278
 20
-11.570773
 30
6.36819
 70
   192
  0
VERTEX
  8
RK-LAVAT
 10
2.011402
 20
-12.687604
 30
6.36819
 70
   192
  0
VERTEX
  8
RK-LAVAT
 10
0.6473859999999992
 20
-10.319597
 30
6.36819
 70
   192
  0
VERTEX
  8
RK-LAVAT
 10
0.3369479999999996
 20
-8.98216
 30
6.36819
 70
   192
  0
VERTEX
  8
RK-LAVAT
 10
0.2933959999999995
 20
-7.609858
 30
6.36819
 70
   192
  0
VERTEX
  8
RK-LAVAT
 10
0.5184020000000001
 20
-6.255428000000001
 30
6.36819
 70
   192
  0
VERTEX
  8
RK-LAVAT
 10
1.003321999999998
 20
-4.970919000000002
 30
6.36819
 70
   192
  0
VERTEX
  8
RK-LAVAT
 10
1.729521
 20
-3.805695000000001
 30
6.36819
 70
   192
  0
VERTEX
  8
RK-LAVAT
 10
1.294055999999999
 20
-11.523955
 30
6.396643
 70
   192
  0
VERTEX
  8
RK-LAVAT
 10
2.081984999999999
 20
-12.62583
 30
6.396643
 70
   192
  0
VERTEX
  8
RK-LAVAT
 10
0.7362350000000007
 20
-10.289536
 30
6.396643
 70
   192
  0
VERTEX
  8
RK-LAVAT
 10
0.4299540000000004
 20
-8.970010000000002
 30
6.396643
 70
   192
  0
VERTEX
  8
RK-LAVAT
 10
0.3869860000000003
 20
-7.616086000000001
 30
6.396643
 70
   192
  0
VERTEX
  8
RK-LAVAT
 10
0.6089779999999987
 20
-6.279795000000001
 30
6.396643
 70
   192
  0
VERTEX
  8
RK-LAVAT
 10
1.087405999999999
 20
-5.012488000000001
 30
6.396643
 70
   192
  0
VERTEX
  8
RK-LAVAT
 10
1.378581999999999
 20
-11.475267
 30
6.40625
 70
   192
  0
VERTEX
  8
RK-LAVAT
 10
2.155387999999998
 20
-12.561587
 30
6.40625
 70
   192
  0
VERTEX
  8
RK-LAVAT
 10
0.8286339999999992
 20
-10.258274
 30
6.40625
 70
   192
  0
VERTEX
  8
RK-LAVAT
 10
0.5266759999999984
 20
-8.957375000000002
 30
6.40625
 70
   192
  0
VERTEX
  8
RK-LAVAT
 10
0.4843139999999995
 20
-7.622563000000001
 30
6.40625
 70
   192
  0
VERTEX
  8
RK-LAVAT
 10
0.7031740000000007
 20
-6.305135
 30
6.40625
 70
   192
  0
VERTEX
  8
RK-LAVAT
 10
1.174846999999999
 20
-5.055719000000001
 30
6.40625
 70
   192
  0
VERTEX
  8
RK-LAVAT
 10
1.790134
 20
-12.88126
 30
6.02625
 70
   192
  0
VERTEX
  8
RK-LAVAT
 10
0.9579830000000004
 20
-11.717541
 30
6.02625
 70
   192
  0
VERTEX
  8
RK-LAVAT
 10
0.3688509999999994
 20
-10.413837
 30
6.02625
 70
   192
  0
VERTEX
  8
RK-LAVAT
 10
0.0453799999999998
 20
-9.02025
 30
6.02625
 70
   192
  0
VERTEX
  8
RK-LAVAT
 10
0.0
 20
-7.590334000000001
 30
6.02625
 70
   192
  0
VERTEX
  8
RK-LAVAT
 10
0.2344530000000002
 20
-6.179040000000001
 30
6.02625
 70
   192
  0
VERTEX
  8
RK-LAVAT
 10
0.7397309999999991
 20
-4.840603000000001
 30
6.02625
 70
   192
  0
VERTEX
  8
RK-LAVAT
 10
1.496418
 20
-3.626459
 30
6.02625
 70
   192
  0
VERTEX
  8
RK-LAVAT
 10
2.475278999999998
 20
-2.583401000000002
 30
6.02625
 70
   192
  0
VERTEX
  8
RK-LAVAT
 10
2.490475000000001
 20
-2.601260000000001
 30
6.097591999999999
 70
   192
  0
VERTEX
  8
RK-LAVAT
 10
2.521304999999999
 20
-13.514145
 30
6.184034999999999
 70
   192
  0
VERTEX
  8
RK-LAVAT
 10
2.520419999999999
 20
-2.636453000000001
 30
6.184034999999999
 70
   192
  0
VERTEX
  8
RK-LAVAT
 10
2.560722000000001
 20
-2.683816000000001
 30
6.259802999999999
 70
   192
  0
VERTEX
  8
RK-LAVAT
 10
2.539343
 20
-2.658736000000001
 30
6.223447
 70
   192
  0
VERTEX
  8
RK-LAVAT
 10
2.609826999999999
 20
-2.741527000000001
 30
6.321984999999999
 70
   192
  0
VERTEX
  8
RK-LAVAT
 10
2.665850999999999
 20
-2.807369000000001
 30
6.36819
 70
   192
  0
VERTEX
  8
RK-LAVAT
 10
2.558963999999999
 20
-13.471117
 30
6.253709999999999
 70
   192
  0
VERTEX
  8
RK-LAVAT
 10
2.665022
 20
-13.349936
 30
6.364873
 70
   192
  0
VERTEX
  8
RK-LAVAT
 10
2.611675000000001
 20
-13.41089
 30
6.321363999999999
 70
   192
  0
VERTEX
  8
RK-LAVAT
 10
2.730300999999998
 20
-13.27535
 30
6.396371
 70
   192
  0
VERTEX
  8
RK-LAVAT
 10
2.764029999999999
 20
-13.236811
 30
6.401601
 70
   192
  0
VERTEX
  8
RK-LAVAT
 10
2.794938999999999
 20
-13.201496
 30
6.406114
 70
   192
  0
VERTEX
  8
RK-LAVAT
 10
2.521881
 20
-13.513486
 30
6.185299999999999
 70
   192
  0
VERTEX
  8
RK-LAVAT
 10
18.170221
 20
-4.467050000000002
 30
6.184034999999999
 70
   192
  0
VERTEX
  8
RK-LAVAT
 10
17.380781
 20
-3.284007
 30
6.097591999999999
 70
   192
  0
VERTEX
  8
RK-LAVAT
 10
17.346014
 20
-3.314437000000001
 30
6.184034999999999
 70
   192
  0
VERTEX
  8
RK-LAVAT
 10
18.21026
 20
-4.443987000000001
 30
6.097591999999999
 70
   192
  0
VERTEX
  8
RK-LAVAT
 10
18.753731
 20
-5.758311000000002
 30
6.184034999999999
 70
   192
  0
VERTEX
  8
RK-LAVAT
 10
18.797499
 20
-5.743502000000002
 30
6.097591999999999
 70
   192
  0
VERTEX
  8
RK-LAVAT
 10
19.074116
 20
-7.138598000000001
 30
6.184034999999999
 70
   192
  0
VERTEX
  8
RK-LAVAT
 10
19.11992999999999
 20
-7.132612000000001
 30
6.097591999999999
 70
   192
  0
VERTEX
  8
RK-LAVAT
 10
19.11906199999999
 20
-8.554866
 30
6.184034999999999
 70
   192
  0
VERTEX
  8
RK-LAVAT
 10
19.165167
 20
-8.557934000000001
 30
6.097591999999999
 70
   192
  0
VERTEX
  8
RK-LAVAT
 10
18.886846
 20
-9.952691000000001
 30
6.184034999999999
 70
   192
  0
VERTEX
  8
RK-LAVAT
 10
18.931465
 20
-9.964694000000001
 30
6.097591999999999
 70
   192
  0
VERTEX
  8
RK-LAVAT
 10
18.38639099999999
 20
-11.278353
 30
6.184034999999999
 70
   192
  0
VERTEX
  8
RK-LAVAT
 10
18.427811
 20
-11.29883
 30
6.097591999999999
 70
   192
  0
VERTEX
  8
RK-LAVAT
 10
17.636927
 20
-12.480909
 30
6.184034999999999
 70
   192
  0
VERTEX
  8
RK-LAVAT
 10
17.67355499999999
 20
-12.509073
 30
6.097591999999999
 70
   192
  0
VERTEX
  8
RK-LAVAT
 10
18.116341
 20
-4.498087000000001
 30
6.259802999999999
 70
   192
  0
VERTEX
  8
RK-LAVAT
 10
17.299221
 20
-3.355389000000002
 30
6.259802999999999
 70
   192
  0
VERTEX
  8
RK-LAVAT
 10
18.69482999999999
 20
-5.778240000000002
 30
6.259802999999999
 70
   192
  0
VERTEX
  8
RK-LAVAT
 10
19.012459
 20
-7.146652000000002
 30
6.259802999999999
 70
   192
  0
VERTEX
  8
RK-LAVAT
 10
19.05701799999999
 20
-8.550737000000001
 30
6.259802999999999
 70
   192
  0
VERTEX
  8
RK-LAVAT
 10
18.82679899999999
 20
-9.936537000000001
 30
6.259802999999999
 70
   192
  0
VERTEX
  8
RK-LAVAT
 10
18.330648
 20
-11.250795
 30
6.259802999999999
 70
   192
  0
VERTEX
  8
RK-LAVAT
 10
17.58763099999999
 20
-12.443006
 30
6.259802999999999
 70
   192
  0
VERTEX
  8
RK-LAVAT
 10
18.050686
 20
-4.535905000000001
 30
6.321984999999999
 70
   192
  0
VERTEX
  8
RK-LAVAT
 10
17.24220599999999
 20
-3.40529
 30
6.321984999999999
 70
   192
  0
VERTEX
  8
RK-LAVAT
 10
18.623058
 20
-5.802523
 30
6.321984999999999
 70
   192
  0
VERTEX
  8
RK-LAVAT
 10
18.937328
 20
-7.156467000000001
 30
6.321984999999999
 70
   192
  0
VERTEX
  8
RK-LAVAT
 10
18.98141899999999
 20
-8.545706000000002
 30
6.321984999999999
 70
   192
  0
VERTEX
  8
RK-LAVAT
 10
18.753633
 20
-9.916854
 30
6.321984999999999
 70
   192
  0
VERTEX
  8
RK-LAVAT
 10
18.262728
 20
-11.217216
 30
6.321984999999999
 70
   192
  0
VERTEX
  8
RK-LAVAT
 10
17.527567
 20
-12.396821
 30
6.321984999999999
 70
   192
  0
VERTEX
  8
RK-LAVAT
 10
17.97577999999999
 20
-4.579052000000002
 30
6.36819
 70
   192
  0
VERTEX
  8
RK-LAVAT
 10
17.17715599999999
 20
-3.462221000000001
 30
6.36819
 70
   192
  0
VERTEX
  8
RK-LAVAT
 10
18.54117399999999
 20
-5.830227000000002
 30
6.36819
 70
   192
  0
VERTEX
  8
RK-LAVAT
 10
18.85161399999999
 20
-7.167664000000002
 30
6.36819
 70
   192
  0
VERTEX
  8
RK-LAVAT
 10
18.895164
 20
-8.539967
 30
6.36819
 70
   192
  0
VERTEX
  8
RK-LAVAT
 10
18.670156
 20
-9.894397000000001
 30
6.36819
 70
   192
  0
VERTEX
  8
RK-LAVAT
 10
18.18523799999999
 20
-11.178906
 30
6.36819
 70
   192
  0
VERTEX
  8
RK-LAVAT
 10
17.45904
 20
-12.344129
 30
6.36819
 70
   192
  0
VERTEX
  8
RK-LAVAT
 10
17.894503
 20
-4.625869000000001
 30
6.396643
 70
   192
  0
VERTEX
  8
RK-LAVAT
 10
17.106577
 20
-3.523995000000001
 30
6.396643
 70
   192
  0
VERTEX
  8
RK-LAVAT
 10
18.452326
 20
-5.860289000000001
 30
6.396643
 70
   192
  0
VERTEX
  8
RK-LAVAT
 10
18.75860599999999
 20
-7.179814000000002
 30
6.396643
 70
   192
  0
VERTEX
  8
RK-LAVAT
 10
18.801575
 20
-8.533739
 30
6.396643
 70
   192
  0
VERTEX
  8
RK-LAVAT
 10
18.57957999999999
 20
-9.870030000000001
 30
6.396643
 70
   192
  0
VERTEX
  8
RK-LAVAT
 10
18.101154
 20
-11.137336
 30
6.396643
 70
   192
  0
VERTEX
  8
RK-LAVAT
 10
17.384684
 20
-12.286955
 30
6.396643
 70
   192
  0
VERTEX
  8
RK-LAVAT
 10
17.809978
 20
-4.674557000000001
 30
6.40625
 70
   192
  0
VERTEX
  8
RK-LAVAT
 10
17.033173
 20
-3.588238
 30
6.40625
 70
   192
  0
VERTEX
  8
RK-LAVAT
 10
18.35992599999999
 20
-5.891551000000001
 30
6.40625
 70
   192
  0
VERTEX
  8
RK-LAVAT
 10
18.66188199999999
 20
-7.192450000000001
 30
6.40625
 70
   192
  0
VERTEX
  8
RK-LAVAT
 10
18.704245
 20
-8.527262
 30
6.40625
 70
   192
  0
VERTEX
  8
RK-LAVAT
 10
18.485386
 20
-9.844689000000002
 30
6.40625
 70
   192
  0
VERTEX
  8
RK-LAVAT
 10
18.013714
 20
-11.094106
 30
6.40625
 70
   192
  0
VERTEX
  8
RK-LAVAT
 10
17.307354
 20
-12.227496
 30
6.40625
 70
   192
  0
VERTEX
  8
RK-LAVAT
 10
16.698086
 20
-2.601260000000001
 30
6.097591999999999
 70
   192
  0
VERTEX
  8
RK-LAVAT
 10
17.398426
 20
-3.268565
 30
6.02625
 70
   192
  0
VERTEX
  8
RK-LAVAT
 10
16.713282
 20
-2.583401000000002
 30
6.02625
 70
   192
  0
VERTEX
  8
RK-LAVAT
 10
18.230577
 20
-4.432284000000001
 30
6.02625
 70
   192
  0
VERTEX
  8
RK-LAVAT
 10
18.81970799999999
 20
-5.735988
 30
6.02625
 70
   192
  0
VERTEX
  8
RK-LAVAT
 10
19.143181
 20
-7.129575000000001
 30
6.02625
 70
   192
  0
VERTEX
  8
RK-LAVAT
 10
19.18856
 20
-8.559491000000001
 30
6.02625
 70
   192
  0
VERTEX
  8
RK-LAVAT
 10
18.954107
 20
-9.970785000000002
 30
6.02625
 70
   192
  0
VERTEX
  8
RK-LAVAT
 10
18.448828
 20
-11.309222
 30
6.02625
 70
   192
  0
VERTEX
  8
RK-LAVAT
 10
17.692142
 20
-12.523365
 30
6.02625
 70
   192
  0
VERTEX
  8
RK-LAVAT
 10
16.66813799999999
 20
-2.636453000000001
 30
6.184034999999999
 70
   192
  0
VERTEX
  8
RK-LAVAT
 10
16.68386799999999
 20
-13.533127
 30
6.141948
 70
   192
  0
VERTEX
  8
RK-LAVAT
 10
16.62784
 20
-2.683816000000001
 30
6.259802999999999
 70
   192
  0
VERTEX
  8
RK-LAVAT
 10
16.648004
 20
-13.49215
 30
6.223447
 70
   192
  0
VERTEX
  8
RK-LAVAT
 10
16.578733
 20
-2.741527000000001
 30
6.321984999999999
 70
   192
  0
VERTEX
  8
RK-LAVAT
 10
16.60236
 20
-13.439995
 30
6.292754999999999
 70
   192
  0
VERTEX
  8
RK-LAVAT
 10
16.52270899999999
 20
-2.807369000000001
 30
6.36819
 70
   192
  0
VERTEX
  8
RK-LAVAT
 10
16.548683
 20
-13.378668
 30
6.347210999999999
 70
   192
  0
VERTEX
  8
RK-LAVAT
 10
16.46191799999999
 20
-2.878813
 30
6.396643
 70
   192
  0
VERTEX
  8
RK-LAVAT
 10
16.489044
 20
-13.310525
 30
6.384719999999999
 70
   192
  0
VERTEX
  8
RK-LAVAT
 10
16.398697
 20
-2.953112
 30
6.40625
 70
   192
  0
VERTEX
  8
RK-LAVAT
 10
16.425732
 20
-13.238184
 30
6.403842
 70
   192
  0
VERTEX
  8
RK-LAVAT
 10
4.620688999999998
 20
-1.233088
 30
6.184034999999999
 70
   192
  0
VERTEX
  8
RK-LAVAT
 10
2.791926999999999
 20
-2.353861000000001
 30
6.097591999999999
 70
   192
  0
VERTEX
  8
RK-LAVAT
 10
2.820597999999998
 20
-2.390094000000001
 30
6.184034999999999
 70
   192
  0
VERTEX
  8
RK-LAVAT
 10
4.599637999999998
 20
-1.191958000000001
 30
6.097591999999999
 70
   192
  0
VERTEX
  8
RK-LAVAT
 10
6.611914999999999
 20
-0.4494950000000007
 30
6.184034999999999
 70
   192
  0
VERTEX
  8
RK-LAVAT
 10
6.599290999999997
 20
-0.4050480000000008
 30
6.097591999999999
 70
   192
  0
VERTEX
  8
RK-LAVAT
 10
8.717750000000002
 20
-0.0694270000000028
 30
6.184034999999999
 70
   192
  0
VERTEX
  8
RK-LAVAT
 10
8.714040999999998
 20
-0.0233710000000027
 30
6.097591999999999
 70
   192
  0
VERTEX
  8
RK-LAVAT
 10
10.85726899999999
 20
-0.1074900000000021
 30
6.184034999999999
 70
   192
  0
VERTEX
  8
RK-LAVAT
 10
10.862615
 20
-0.0615950000000023
 30
6.097591999999999
 70
   192
  0
VERTEX
  8
RK-LAVAT
 10
12.94825399999999
 20
-0.5622210000000028
 30
6.184034999999999
 70
   192
  0
VERTEX
  8
RK-LAVAT
 10
12.96245
 20
-0.5182510000000012
 30
6.097591999999999
 70
   192
  0
VERTEX
  8
RK-LAVAT
 10
14.910347
 20
-1.416145000000001
 30
6.184034999999999
 70
   192
  0
VERTEX
  8
RK-LAVAT
 10
14.932848
 20
-1.37579
 30
6.097591999999999
 70
   192
  0
VERTEX
  8
RK-LAVAT
 10
4.649022999999999
 20
-1.288440000000001
 30
6.259802999999999
 70
   192
  0
VERTEX
  8
RK-LAVAT
 10
2.859184
 20
-2.438854
 30
6.259802999999999
 70
   192
  0
VERTEX
  8
RK-LAVAT
 10
6.628903999999998
 20
-0.5093110000000021
 30
6.259802999999999
 70
   192
  0
VERTEX
  8
RK-LAVAT
 10
8.722743999999998
 20
-0.1314080000000022
 30
6.259802999999999
 70
   192
  0
VERTEX
  8
RK-LAVAT
 10
10.850075
 20
-0.1692540000000005
 30
6.259802999999999
 70
   192
  0
VERTEX
  8
RK-LAVAT
 10
12.92914799999999
 20
-0.6213950000000015
 30
6.259802999999999
 70
   192
  0
VERTEX
  8
RK-LAVAT
 10
14.880064
 20
-1.470454000000001
 30
6.259802999999999
 70
   192
  0
VERTEX
  8
RK-LAVAT
 10
4.683543999999997
 20
-1.355886000000001
 30
6.321984999999999
 70
   192
  0
VERTEX
  8
RK-LAVAT
 10
2.906202
 20
-2.498270000000001
 30
6.321984999999999
 70
   192
  0
VERTEX
  8
RK-LAVAT
 10
6.649605000000001
 20
-0.5821960000000033
 30
6.321984999999999
 70
   192
  0
VERTEX
  8
RK-LAVAT
 10
8.728825999999997
 20
-0.2069310000000009
 30
6.321984999999999
 70
   192
  0
VERTEX
  8
RK-LAVAT
 10
10.841308
 20
-0.2445130000000013
 30
6.321984999999999
 70
   192
  0
VERTEX
  8
RK-LAVAT
 10
12.905867
 20
-0.6934980000000018
 30
6.321984999999999
 70
   192
  0
VERTEX
  8
RK-LAVAT
 10
14.84316199999999
 20
-1.536630000000002
 30
6.321984999999999
 70
   192
  0
VERTEX
  8
RK-LAVAT
 10
4.722933000000001
 20
-1.432836000000001
 30
6.36819
 70
   192
  0
VERTEX
  8
RK-LAVAT
 10
2.959843000000001
 20
-2.566056000000001
 30
6.36819
 70
   192
  0
VERTEX
  8
RK-LAVAT
 10
6.673223
 20
-0.6653510000000012
 30
6.36819
 70
   192
  0
VERTEX
  8
RK-LAVAT
 10
8.735768999999997
 20
-0.293096000000002
 30
6.36819
 70
   192
  0
VERTEX
  8
RK-LAVAT
 10
10.831306
 20
-0.3303760000000011
 30
6.36819
 70
   192
  0
VERTEX
  8
RK-LAVAT
 10
12.87930699999999
 20
-0.7757590000000026
 30
6.36819
 70
   192
  0
VERTEX
  8
RK-LAVAT
 10
14.801063
 20
-1.612130000000002
 30
6.36819
 70
   192
  0
VERTEX
  8
RK-LAVAT
 10
4.765668999999999
 20
-1.516330000000001
 30
6.396643
 70
   192
  0
VERTEX
  8
RK-LAVAT
 10
3.018047000000001
 20
-2.639609000000001
 30
6.396643
 70
   192
  0
VERTEX
  8
RK-LAVAT
 10
6.698850999999997
 20
-0.7555779999999999
 30
6.396643
 70
   192
  0
VERTEX
  8
RK-LAVAT
 10
8.743299
 20
-0.3865890000000025
 30
6.396643
 70
   192
  0
VERTEX
  8
RK-LAVAT
 10
10.82045399999999
 20
-0.4235430000000023
 30
6.396643
 70
   192
  0
VERTEX
  8
RK-LAVAT
 10
12.850487
 20
-0.8650180000000027
 30
6.396643
 70
   192
  0
VERTEX
  8
RK-LAVAT
 10
14.755384
 20
-1.694051000000001
 30
6.396643
 70
   192
  0
VERTEX
  8
RK-LAVAT
 10
4.810113999999998
 20
-1.603162000000001
 30
6.40625
 70
   192
  0
VERTEX
  8
RK-LAVAT
 10
3.078578999999999
 20
-2.716101000000001
 30
6.40625
 70
   192
  0
VERTEX
  8
RK-LAVAT
 10
6.725501999999998
 20
-0.8494120000000027
 30
6.40625
 70
   192
  0
VERTEX
  8
RK-LAVAT
 10
8.751132999999999
 20
-0.4838190000000005
 30
6.40625
 70
   192
  0
VERTEX
  8
RK-LAVAT
 10
10.809168
 20
-0.5204330000000024
 30
6.40625
 70
   192
  0
VERTEX
  8
RK-LAVAT
 10
12.820515
 20
-0.9578450000000007
 30
6.40625
 70
   192
  0
VERTEX
  8
RK-LAVAT
 10
14.70787999999999
 20
-1.779247000000001
 30
6.40625
 70
   192
  0
VERTEX
  8
RK-LAVAT
 10
2.777375999999998
 20
-2.335475000000002
 30
6.02625
 70
   192
  0
VERTEX
  8
RK-LAVAT
 10
4.588954999999998
 20
-1.171087000000001
 30
6.02625
 70
   192
  0
VERTEX
  8
RK-LAVAT
 10
6.592886
 20
-0.3824940000000012
 30
6.02625
 70
   192
  0
VERTEX
  8
RK-LAVAT
 10
8.712156
 20
0.0
 30
6.02625
 70
   192
  0
VERTEX
  8
RK-LAVAT
 10
10.865328
 20
-0.0383060000000004
 30
6.02625
 70
   192
  0
VERTEX
  8
RK-LAVAT
 10
12.96965399999999
 20
-0.4959390000000017
 30
6.02625
 70
   192
  0
VERTEX
  8
RK-LAVAT
 10
14.944267
 20
-1.355312000000001
 30
6.02625
 70
   192
  0
VERTEX
  8
RK-LAVAT
 10
16.684492
 20
-2.617235
 30
6.141948
 70
   192
  0
VERTEX
  8
RK-LAVAT
 10
16.649202
 20
-2.658708000000002
 30
6.223447
 70
   192
  0
VERTEX
  8
RK-LAVAT
 10
16.604288
 20
-2.711494000000001
 30
6.292754999999999
 70
   192
  0
VERTEX
  8
RK-LAVAT
 10
16.55147399999999
 20
-2.773563000000001
 30
6.347210999999999
 70
   192
  0
VERTEX
  8
RK-LAVAT
 10
16.49278799999999
 20
-2.842531000000001
 30
6.384719999999999
 70
   192
  0
VERTEX
  8
RK-LAVAT
 10
16.43048999999999
 20
-2.915747000000001
 30
6.403842
 70
   192
  0
VERTEX
  8
RK-LAVAT
 10
0.9960059999999995
 20
-9.815008000000002
 30
6.40625
 70
   192
  0
VERTEX
  8
RK-LAVAT
 10
0.9138789999999996
 20
-8.981162000000001
 30
6.40625
 70
   192
  0
VERTEX
  8
RK-LAVAT
 10
1.239231
 20
-10.616809
 30
6.40625
 70
   192
  0
VERTEX
  8
RK-LAVAT
 10
1.294912
 20
-10.745247
 30
6.40625
 70
   192
  0
VERTEX
  8
RK-LAVAT
 10
1.831165
 20
-11.716898
 30
6.40625
 70
   192
  0
VERTEX
  8
RK-LAVAT
 10
2.646411999999999
 20
-12.71028
 30
6.40625
 70
   192
  0
VERTEX
  8
RK-LAVAT
 10
3.393125000000001
 20
-13.352377
 30
6.40625
 70
   192
  0
VERTEX
  8
RK-LAVAT
 10
3.903628999999998
 20
-13.716572
 30
6.40625
 70
   192
  0
VERTEX
  8
RK-LAVAT
 10
5.674492
 20
-14.663118
 30
6.40625
 70
   192
  0
VERTEX
  8
RK-LAVAT
 10
7.595988999999999
 20
-15.245998
 30
6.40625
 70
   192
  0
VERTEX
  8
RK-LAVAT
 10
9.594280000000001
 20
-15.442811
 30
6.40625
 70
   192
  0
VERTEX
  8
RK-LAVAT
 10
11.592571
 20
-15.245998
 30
6.40625
 70
   192
  0
VERTEX
  8
RK-LAVAT
 10
13.514068
 20
-14.663118
 30
6.40625
 70
   192
  0
VERTEX
  8
RK-LAVAT
 10
15.284929
 20
-13.716572
 30
6.40625
 70
   192
  0
VERTEX
  8
RK-LAVAT
 10
15.795435
 20
-13.352377
 30
6.40625
 70
   192
  0
VERTEX
  8
RK-LAVAT
 10
16.542148
 20
-12.71028
 30
6.40625
 70
   192
  0
VERTEX
  8
RK-LAVAT
 10
17.357395
 20
-11.716898
 30
6.40625
 70
   192
  0
VERTEX
  8
RK-LAVAT
 10
17.893648
 20
-10.745247
 30
6.40625
 70
   192
  0
VERTEX
  8
RK-LAVAT
 10
17.949329
 20
-10.616809
 30
6.40625
 70
   192
  0
VERTEX
  8
RK-LAVAT
 10
18.19255199999999
 20
-9.815008000000002
 30
6.40625
 70
   192
  0
VERTEX
  8
RK-LAVAT
 10
18.274679
 20
-8.981162000000001
 30
6.40625
 70
   192
  0
VERTEX
  8
RK-LAVAT
 10
18.19255199999999
 20
-8.147317000000001
 30
6.40625
 70
   192
  0
VERTEX
  8
RK-LAVAT
 10
17.949329
 20
-7.345516000000001
 30
6.40625
 70
   192
  0
VERTEX
  8
RK-LAVAT
 10
17.554356
 20
-6.606572000000001
 30
6.40625
 70
   192
  0
VERTEX
  8
RK-LAVAT
 10
17.02281
 20
-5.958882
 30
6.40625
 70
   192
  0
VERTEX
  8
RK-LAVAT
 10
0.9960059999999995
 20
-8.147317000000001
 30
6.40625
 70
   192
  0
VERTEX
  8
RK-LAVAT
 10
16.37512
 20
-5.427337000000001
 30
6.40625
 70
   192
  0
VERTEX
  8
RK-LAVAT
 10
16.24052399999999
 20
-5.341000000000001
 30
6.40625
 70
   192
  0
VERTEX
  8
RK-LAVAT
 10
14.71109
 20
-4.595787000000001
 30
6.40625
 70
   192
  0
VERTEX
  8
RK-LAVAT
 10
12.080255
 20
-3.797733000000002
 30
6.40625
 70
   192
  0
VERTEX
  8
RK-LAVAT
 10
7.108305000000001
 20
-3.797733000000002
 30
6.40625
 70
   192
  0
VERTEX
  8
RK-LAVAT
 10
1.239231
 20
-7.345516000000001
 30
6.40625
 70
   192
  0
VERTEX
  8
RK-LAVAT
 10
1.634204999999999
 20
-6.606572000000001
 30
6.40625
 70
   192
  0
VERTEX
  8
RK-LAVAT
 10
4.47747
 20
-4.595787000000001
 30
6.40625
 70
   192
  0
VERTEX
  8
RK-LAVAT
 10
3.353424
 20
-5.120777000000002
 30
6.40625
 70
   192
  0
VERTEX
  8
RK-LAVAT
 10
2.813437999999997
 20
-5.427337000000001
 30
6.40625
 70
   192
  0
VERTEX
  8
RK-LAVAT
 10
2.16575
 20
-5.958882
 30
6.40625
 70
   192
  0
VERTEX
  8
RK-LAVAT
 10
0.0
 20
0.0
 30
0.0
 70
   128
 71
     1
 72
    -2
 73
     3
  0
VERTEX
  8
RK-LAVAT
 10
0.0
 20
0.0
 30
0.0
 70
   128
 71
     2
 72
     4
 73
    -3
  0
VERTEX
  8
RK-LAVAT
 10
0.0
 20
0.0
 30
0.0
 70
   128
 71
     5
 72
    -1
 73
     6
  0
VERTEX
  8
RK-LAVAT
 10
0.0
 20
0.0
 30
0.0
 70
   128
 71
     1
 72
     3
 73
    -6
  0
VERTEX
  8
RK-LAVAT
 10
0.0
 20
0.0
 30
0.0
 70
   128
 71
     7
 72
    -5
 73
     8
  0
VERTEX
  8
RK-LAVAT
 10
0.0
 20
0.0
 30
0.0
 70
   128
 71
     5
 72
     6
 73
    -8
  0
VERTEX
  8
RK-LAVAT
 10
0.0
 20
0.0
 30
0.0
 70
   128
 71
     9
 72
    -7
 73
    10
  0
VERTEX
  8
RK-LAVAT
 10
0.0
 20
0.0
 30
0.0
 70
   128
 71
     7
 72
     8
 73
   -10
  0
VERTEX
  8
RK-LAVAT
 10
0.0
 20
0.0
 30
0.0
 70
   128
 71
    11
 72
    -9
 73
    12
  0
VERTEX
  8
RK-LAVAT
 10
0.0
 20
0.0
 30
0.0
 70
   128
 71
     9
 72
    10
 73
   -12
  0
VERTEX
  8
RK-LAVAT
 10
0.0
 20
0.0
 30
0.0
 70
   128
 71
    13
 72
   -11
 73
    14
  0
VERTEX
  8
RK-LAVAT
 10
0.0
 20
0.0
 30
0.0
 70
   128
 71
    11
 72
    12
 73
   -14
  0
VERTEX
  8
RK-LAVAT
 10
0.0
 20
0.0
 30
0.0
 70
   128
 71
    15
 72
   -13
 73
    16
  0
VERTEX
  8
RK-LAVAT
 10
0.0
 20
0.0
 30
0.0
 70
   128
 71
    13
 72
    14
 73
   -16
  0
VERTEX
  8
RK-LAVAT
 10
0.0
 20
0.0
 30
0.0
 70
   128
 71
    17
 72
   -15
 73
    18
  0
VERTEX
  8
RK-LAVAT
 10
0.0
 20
0.0
 30
0.0
 70
   128
 71
    15
 72
    16
 73
   -18
  0
VERTEX
  8
RK-LAVAT
 10
0.0
 20
0.0
 30
0.0
 70
   128
 71
    19
 72
   -17
 73
    20
  0
VERTEX
  8
RK-LAVAT
 10
0.0
 20
0.0
 30
0.0
 70
   128
 71
    17
 72
    18
 73
   -20
  0
VERTEX
  8
RK-LAVAT
 10
0.0
 20
0.0
 30
0.0
 70
   128
 71
    21
 72
   -19
 73
    22
  0
VERTEX
  8
RK-LAVAT
 10
0.0
 20
0.0
 30
0.0
 70
   128
 71
    19
 72
    20
 73
   -22
  0
VERTEX
  8
RK-LAVAT
 10
0.0
 20
0.0
 30
0.0
 70
   128
 71
    23
 72
   -21
 73
    24
  0
VERTEX
  8
RK-LAVAT
 10
0.0
 20
0.0
 30
0.0
 70
   128
 71
    21
 72
    22
 73
   -24
  0
VERTEX
  8
RK-LAVAT
 10
0.0
 20
0.0
 30
0.0
 70
   128
 71
    25
 72
   -23
 73
    26
  0
VERTEX
  8
RK-LAVAT
 10
0.0
 20
0.0
 30
0.0
 70
   128
 71
    23
 72
    24
 73
   -26
  0
VERTEX
  8
RK-LAVAT
 10
0.0
 20
0.0
 30
0.0
 70
   128
 71
    27
 72
   -25
 73
    28
  0
VERTEX
  8
RK-LAVAT
 10
0.0
 20
0.0
 30
0.0
 70
   128
 71
    25
 72
    26
 73
   -28
  0
VERTEX
  8
RK-LAVAT
 10
0.0
 20
0.0
 30
0.0
 70
   128
 71
    29
 72
   -27
 73
    30
  0
VERTEX
  8
RK-LAVAT
 10
0.0
 20
0.0
 30
0.0
 70
   128
 71
    27
 72
    28
 73
   -30
  0
VERTEX
  8
RK-LAVAT
 10
0.0
 20
0.0
 30
0.0
 70
   128
 71
    31
 72
   -29
 73
    32
  0
VERTEX
  8
RK-LAVAT
 10
0.0
 20
0.0
 30
0.0
 70
   128
 71
    29
 72
    30
 73
   -32
  0
VERTEX
  8
RK-LAVAT
 10
0.0
 20
0.0
 30
0.0
 70
   128
 71
    33
 72
   -31
 73
    34
  0
VERTEX
  8
RK-LAVAT
 10
0.0
 20
0.0
 30
0.0
 70
   128
 71
    31
 72
    32
 73
   -34
  0
VERTEX
  8
RK-LAVAT
 10
0.0
 20
0.0
 30
0.0
 70
   128
 71
    35
 72
   -33
 73
    36
  0
VERTEX
  8
RK-LAVAT
 10
0.0
 20
0.0
 30
0.0
 70
   128
 71
    33
 72
    34
 73
   -36
  0
VERTEX
  8
RK-LAVAT
 10
0.0
 20
0.0
 30
0.0
 70
   128
 71
    37
 72
   -35
 73
    38
  0
VERTEX
  8
RK-LAVAT
 10
0.0
 20
0.0
 30
0.0
 70
   128
 71
    35
 72
    36
 73
   -38
  0
VERTEX
  8
RK-LAVAT
 10
0.0
 20
0.0
 30
0.0
 70
   128
 71
    39
 72
   -37
 73
    40
  0
VERTEX
  8
RK-LAVAT
 10
0.0
 20
0.0
 30
0.0
 70
   128
 71
    37
 72
    38
 73
   -40
  0
VERTEX
  8
RK-LAVAT
 10
0.0
 20
0.0
 30
0.0
 70
   128
 71
    41
 72
   -39
 73
    42
  0
VERTEX
  8
RK-LAVAT
 10
0.0
 20
0.0
 30
0.0
 70
   128
 71
    39
 72
    40
 73
   -42
  0
VERTEX
  8
RK-LAVAT
 10
0.0
 20
0.0
 30
0.0
 70
   128
 71
    43
 72
   -41
 73
    44
  0
VERTEX
  8
RK-LAVAT
 10
0.0
 20
0.0
 30
0.0
 70
   128
 71
    41
 72
    42
 73
   -44
  0
VERTEX
  8
RK-LAVAT
 10
0.0
 20
0.0
 30
0.0
 70
   128
 71
    45
 72
   -43
 73
    46
  0
VERTEX
  8
RK-LAVAT
 10
0.0
 20
0.0
 30
0.0
 70
   128
 71
    43
 72
    44
 73
   -46
  0
VERTEX
  8
RK-LAVAT
 10
0.0
 20
0.0
 30
0.0
 70
   128
 71
    47
 72
   -45
 73
    48
  0
VERTEX
  8
RK-LAVAT
 10
0.0
 20
0.0
 30
0.0
 70
   128
 71
    45
 72
    46
 73
   -48
  0
VERTEX
  8
RK-LAVAT
 10
0.0
 20
0.0
 30
0.0
 70
   128
 71
    49
 72
   -47
 73
    50
  0
VERTEX
  8
RK-LAVAT
 10
0.0
 20
0.0
 30
0.0
 70
   128
 71
    47
 72
    48
 73
   -50
  0
VERTEX
  8
RK-LAVAT
 10
0.0
 20
0.0
 30
0.0
 70
   128
 71
    51
 72
   -49
 73
    52
  0
VERTEX
  8
RK-LAVAT
 10
0.0
 20
0.0
 30
0.0
 70
   128
 71
    49
 72
    50
 73
   -52
  0
VERTEX
  8
RK-LAVAT
 10
0.0
 20
0.0
 30
0.0
 70
   128
 71
    53
 72
   -51
 73
    54
  0
VERTEX
  8
RK-LAVAT
 10
0.0
 20
0.0
 30
0.0
 70
   128
 71
    51
 72
    52
 73
   -54
  0
VERTEX
  8
RK-LAVAT
 10
0.0
 20
0.0
 30
0.0
 70
   128
 71
    55
 72
   -53
 73
    56
  0
VERTEX
  8
RK-LAVAT
 10
0.0
 20
0.0
 30
0.0
 70
   128
 71
    53
 72
    54
 73
   -56
  0
VERTEX
  8
RK-LAVAT
 10
0.0
 20
0.0
 30
0.0
 70
   128
 71
    57
 72
   -55
 73
    58
  0
VERTEX
  8
RK-LAVAT
 10
0.0
 20
0.0
 30
0.0
 70
   128
 71
    55
 72
    56
 73
   -58
  0
VERTEX
  8
RK-LAVAT
 10
0.0
 20
0.0
 30
0.0
 70
   128
 71
    59
 72
   -57
 73
    60
  0
VERTEX
  8
RK-LAVAT
 10
0.0
 20
0.0
 30
0.0
 70
   128
 71
    57
 72
    58
 73
   -60
  0
VERTEX
  8
RK-LAVAT
 10
0.0
 20
0.0
 30
0.0
 70
   128
 71
    61
 72
   -59
 73
    62
  0
VERTEX
  8
RK-LAVAT
 10
0.0
 20
0.0
 30
0.0
 70
   128
 71
    59
 72
    60
 73
   -62
  0
VERTEX
  8
RK-LAVAT
 10
0.0
 20
0.0
 30
0.0
 70
   128
 71
    63
 72
   -61
 73
    64
  0
VERTEX
  8
RK-LAVAT
 10
0.0
 20
0.0
 30
0.0
 70
   128
 71
    61
 72
    62
 73
   -64
  0
VERTEX
  8
RK-LAVAT
 10
0.0
 20
0.0
 30
0.0
 70
   128
 71
    65
 72
   -63
 73
    66
  0
VERTEX
  8
RK-LAVAT
 10
0.0
 20
0.0
 30
0.0
 70
   128
 71
    63
 72
    64
 73
   -66
  0
VERTEX
  8
RK-LAVAT
 10
0.0
 20
0.0
 30
0.0
 70
   128
 71
    67
 72
   -65
 73
    68
  0
VERTEX
  8
RK-LAVAT
 10
0.0
 20
0.0
 30
0.0
 70
   128
 71
    65
 72
    66
 73
   -68
  0
VERTEX
  8
RK-LAVAT
 10
0.0
 20
0.0
 30
0.0
 70
   128
 71
    69
 72
   -67
 73
    70
  0
VERTEX
  8
RK-LAVAT
 10
0.0
 20
0.0
 30
0.0
 70
   128
 71
    67
 72
    68
 73
   -70
  0
VERTEX
  8
RK-LAVAT
 10
0.0
 20
0.0
 30
0.0
 70
   128
 71
    71
 72
   -69
 73
    72
  0
VERTEX
  8
RK-LAVAT
 10
0.0
 20
0.0
 30
0.0
 70
   128
 71
    69
 72
    70
 73
   -72
  0
VERTEX
  8
RK-LAVAT
 10
0.0
 20
0.0
 30
0.0
 70
   128
 71
    73
 72
   -71
 73
    74
  0
VERTEX
  8
RK-LAVAT
 10
0.0
 20
0.0
 30
0.0
 70
   128
 71
    71
 72
    72
 73
   -74
  0
VERTEX
  8
RK-LAVAT
 10
0.0
 20
0.0
 30
0.0
 70
   128
 71
    75
 72
   -73
 73
    76
  0
VERTEX
  8
RK-LAVAT
 10
0.0
 20
0.0
 30
0.0
 70
   128
 71
    73
 72
    74
 73
   -76
  0
VERTEX
  8
RK-LAVAT
 10
0.0
 20
0.0
 30
0.0
 70
   128
 71
    77
 72
   -75
 73
    78
  0
VERTEX
  8
RK-LAVAT
 10
0.0
 20
0.0
 30
0.0
 70
   128
 71
    75
 72
    76
 73
   -78
  0
VERTEX
  8
RK-LAVAT
 10
0.0
 20
0.0
 30
0.0
 70
   128
 71
    79
 72
   -77
 73
    80
  0
VERTEX
  8
RK-LAVAT
 10
0.0
 20
0.0
 30
0.0
 70
   128
 71
    77
 72
    78
 73
   -80
  0
VERTEX
  8
RK-LAVAT
 10
0.0
 20
0.0
 30
0.0
 70
   128
 71
    81
 72
   -79
 73
    82
  0
VERTEX
  8
RK-LAVAT
 10
0.0
 20
0.0
 30
0.0
 70
   128
 71
    79
 72
    80
 73
   -82
  0
VERTEX
  8
RK-LAVAT
 10
0.0
 20
0.0
 30
0.0
 70
   128
 71
    83
 72
   -81
 73
    84
  0
VERTEX
  8
RK-LAVAT
 10
0.0
 20
0.0
 30
0.0
 70
   128
 71
    81
 72
    82
 73
   -84
  0
VERTEX
  8
RK-LAVAT
 10
0.0
 20
0.0
 30
0.0
 70
   128
 71
    85
 72
   -83
 73
    86
  0
VERTEX
  8
RK-LAVAT
 10
0.0
 20
0.0
 30
0.0
 70
   128
 71
    83
 72
    84
 73
   -86
  0
VERTEX
  8
RK-LAVAT
 10
0.0
 20
0.0
 30
0.0
 70
   128
 71
    87
 72
   -85
 73
    88
  0
VERTEX
  8
RK-LAVAT
 10
0.0
 20
0.0
 30
0.0
 70
   128
 71
    85
 72
    86
 73
   -88
  0
VERTEX
  8
RK-LAVAT
 10
0.0
 20
0.0
 30
0.0
 70
   128
 71
    89
 72
   -87
 73
    90
  0
VERTEX
  8
RK-LAVAT
 10
0.0
 20
0.0
 30
0.0
 70
   128
 71
    87
 72
    88
 73
   -90
  0
VERTEX
  8
RK-LAVAT
 10
0.0
 20
0.0
 30
0.0
 70
   128
 71
    91
 72
   -89
 73
    92
  0
VERTEX
  8
RK-LAVAT
 10
0.0
 20
0.0
 30
0.0
 70
   128
 71
    89
 72
    90
 73
   -92
  0
VERTEX
  8
RK-LAVAT
 10
0.0
 20
0.0
 30
0.0
 70
   128
 71
    93
 72
   -91
 73
    94
  0
VERTEX
  8
RK-LAVAT
 10
0.0
 20
0.0
 30
0.0
 70
   128
 71
    91
 72
    92
 73
   -94
  0
VERTEX
  8
RK-LAVAT
 10
0.0
 20
0.0
 30
0.0
 70
   128
 71
    95
 72
   -93
 73
    96
  0
VERTEX
  8
RK-LAVAT
 10
0.0
 20
0.0
 30
0.0
 70
   128
 71
    93
 72
    94
 73
   -96
  0
VERTEX
  8
RK-LAVAT
 10
0.0
 20
0.0
 30
0.0
 70
   128
 71
    97
 72
   -95
 73
    98
  0
VERTEX
  8
RK-LAVAT
 10
0.0
 20
0.0
 30
0.0
 70
   128
 71
    95
 72
    96
 73
   -98
  0
VERTEX
  8
RK-LAVAT
 10
0.0
 20
0.0
 30
0.0
 70
   128
 71
    99
 72
   -97
 73
   100
  0
VERTEX
  8
RK-LAVAT
 10
0.0
 20
0.0
 30
0.0
 70
   128
 71
    97
 72
    98
 73
  -100
  0
VERTEX
  8
RK-LAVAT
 10
0.0
 20
0.0
 30
0.0
 70
   128
 71
   101
 72
   -99
 73
   102
  0
VERTEX
  8
RK-LAVAT
 10
0.0
 20
0.0
 30
0.0
 70
   128
 71
    99
 72
   100
 73
  -102
  0
VERTEX
  8
RK-LAVAT
 10
0.0
 20
0.0
 30
0.0
 70
   128
 71
   103
 72
  -101
 73
   104
  0
VERTEX
  8
RK-LAVAT
 10
0.0
 20
0.0
 30
0.0
 70
   128
 71
   101
 72
   102
 73
  -104
  0
VERTEX
  8
RK-LAVAT
 10
0.0
 20
0.0
 30
0.0
 70
   128
 71
   105
 72
  -103
 73
   106
  0
VERTEX
  8
RK-LAVAT
 10
0.0
 20
0.0
 30
0.0
 70
   128
 71
   103
 72
   104
 73
  -106
  0
VERTEX
  8
RK-LAVAT
 10
0.0
 20
0.0
 30
0.0
 70
   128
 71
   107
 72
  -105
 73
   108
  0
VERTEX
  8
RK-LAVAT
 10
0.0
 20
0.0
 30
0.0
 70
   128
 71
   105
 72
   106
 73
  -108
  0
VERTEX
  8
RK-LAVAT
 10
0.0
 20
0.0
 30
0.0
 70
   128
 71
   109
 72
  -107
 73
   110
  0
VERTEX
  8
RK-LAVAT
 10
0.0
 20
0.0
 30
0.0
 70
   128
 71
   107
 72
   108
 73
  -110
  0
VERTEX
  8
RK-LAVAT
 10
0.0
 20
0.0
 30
0.0
 70
   128
 71
   111
 72
  -109
 73
   112
  0
VERTEX
  8
RK-LAVAT
 10
0.0
 20
0.0
 30
0.0
 70
   128
 71
   109
 72
   110
 73
  -112
  0
VERTEX
  8
RK-LAVAT
 10
0.0
 20
0.0
 30
0.0
 70
   128
 71
   113
 72
  -111
 73
   114
  0
VERTEX
  8
RK-LAVAT
 10
0.0
 20
0.0
 30
0.0
 70
   128
 71
   111
 72
   112
 73
  -114
  0
VERTEX
  8
RK-LAVAT
 10
0.0
 20
0.0
 30
0.0
 70
   128
 71
   115
 72
  -113
 73
   116
  0
VERTEX
  8
RK-LAVAT
 10
0.0
 20
0.0
 30
0.0
 70
   128
 71
   113
 72
   114
 73
  -116
  0
VERTEX
  8
RK-LAVAT
 10
0.0
 20
0.0
 30
0.0
 70
   128
 71
   117
 72
  -115
 73
   118
  0
VERTEX
  8
RK-LAVAT
 10
0.0
 20
0.0
 30
0.0
 70
   128
 71
   115
 72
   116
 73
  -118
  0
VERTEX
  8
RK-LAVAT
 10
0.0
 20
0.0
 30
0.0
 70
   128
 71
   119
 72
  -117
 73
   120
  0
VERTEX
  8
RK-LAVAT
 10
0.0
 20
0.0
 30
0.0
 70
   128
 71
   117
 72
   118
 73
  -120
  0
VERTEX
  8
RK-LAVAT
 10
0.0
 20
0.0
 30
0.0
 70
   128
 71
   121
 72
  -119
 73
   122
  0
VERTEX
  8
RK-LAVAT
 10
0.0
 20
0.0
 30
0.0
 70
   128
 71
   119
 72
   120
 73
  -122
  0
VERTEX
  8
RK-LAVAT
 10
0.0
 20
0.0
 30
0.0
 70
   128
 71
   123
 72
  -121
 73
   124
  0
VERTEX
  8
RK-LAVAT
 10
0.0
 20
0.0
 30
0.0
 70
   128
 71
   121
 72
   122
 73
  -124
  0
VERTEX
  8
RK-LAVAT
 10
0.0
 20
0.0
 30
0.0
 70
   128
 71
   125
 72
  -123
 73
   126
  0
VERTEX
  8
RK-LAVAT
 10
0.0
 20
0.0
 30
0.0
 70
   128
 71
   123
 72
   124
 73
  -126
  0
VERTEX
  8
RK-LAVAT
 10
0.0
 20
0.0
 30
0.0
 70
   128
 71
     2
 72
  -125
 73
     4
  0
VERTEX
  8
RK-LAVAT
 10
0.0
 20
0.0
 30
0.0
 70
   128
 71
   125
 72
   126
 73
    -4
  0
VERTEX
  8
RK-LAVAT
 10
0.0
 20
0.0
 30
0.0
 70
   128
 71
     3
 72
    -4
 73
   127
  0
VERTEX
  8
RK-LAVAT
 10
0.0
 20
0.0
 30
0.0
 70
   128
 71
     4
 72
   128
 73
  -127
  0
VERTEX
  8
RK-LAVAT
 10
0.0
 20
0.0
 30
0.0
 70
   128
 71
     6
 72
    -3
 73
   129
  0
VERTEX
  8
RK-LAVAT
 10
0.0
 20
0.0
 30
0.0
 70
   128
 71
     3
 72
   127
 73
  -129
  0
VERTEX
  8
RK-LAVAT
 10
0.0
 20
0.0
 30
0.0
 70
   128
 71
     8
 72
    -6
 73
   130
  0
VERTEX
  8
RK-LAVAT
 10
0.0
 20
0.0
 30
0.0
 70
   128
 71
     6
 72
   129
 73
  -130
  0
VERTEX
  8
RK-LAVAT
 10
0.0
 20
0.0
 30
0.0
 70
   128
 71
    10
 72
    -8
 73
   131
  0
VERTEX
  8
RK-LAVAT
 10
0.0
 20
0.0
 30
0.0
 70
   128
 71
     8
 72
   130
 73
  -131
  0
VERTEX
  8
RK-LAVAT
 10
0.0
 20
0.0
 30
0.0
 70
   128
 71
    12
 72
   -10
 73
   132
  0
VERTEX
  8
RK-LAVAT
 10
0.0
 20
0.0
 30
0.0
 70
   128
 71
    10
 72
   131
 73
  -132
  0
VERTEX
  8
RK-LAVAT
 10
0.0
 20
0.0
 30
0.0
 70
   128
 71
    14
 72
   -12
 73
   133
  0
VERTEX
  8
RK-LAVAT
 10
0.0
 20
0.0
 30
0.0
 70
   128
 71
    12
 72
   132
 73
  -133
  0
VERTEX
  8
RK-LAVAT
 10
0.0
 20
0.0
 30
0.0
 70
   128
 71
    16
 72
   -14
 73
   134
  0
VERTEX
  8
RK-LAVAT
 10
0.0
 20
0.0
 30
0.0
 70
   128
 71
    14
 72
   133
 73
  -134
  0
VERTEX
  8
RK-LAVAT
 10
0.0
 20
0.0
 30
0.0
 70
   128
 71
    18
 72
   -16
 73
   135
  0
VERTEX
  8
RK-LAVAT
 10
0.0
 20
0.0
 30
0.0
 70
   128
 71
    16
 72
   134
 73
  -135
  0
VERTEX
  8
RK-LAVAT
 10
0.0
 20
0.0
 30
0.0
 70
   128
 71
    20
 72
   -18
 73
   136
  0
VERTEX
  8
RK-LAVAT
 10
0.0
 20
0.0
 30
0.0
 70
   128
 71
    18
 72
   135
 73
  -136
  0
VERTEX
  8
RK-LAVAT
 10
0.0
 20
0.0
 30
0.0
 70
   128
 71
    22
 72
   -20
 73
   137
  0
VERTEX
  8
RK-LAVAT
 10
0.0
 20
0.0
 30
0.0
 70
   128
 71
    20
 72
   136
 73
  -137
  0
VERTEX
  8
RK-LAVAT
 10
0.0
 20
0.0
 30
0.0
 70
   128
 71
    24
 72
   -22
 73
   138
  0
VERTEX
  8
RK-LAVAT
 10
0.0
 20
0.0
 30
0.0
 70
   128
 71
    22
 72
   137
 73
  -138
  0
VERTEX
  8
RK-LAVAT
 10
0.0
 20
0.0
 30
0.0
 70
   128
 71
    26
 72
   -24
 73
   139
  0
VERTEX
  8
RK-LAVAT
 10
0.0
 20
0.0
 30
0.0
 70
   128
 71
    24
 72
   138
 73
  -139
  0
VERTEX
  8
RK-LAVAT
 10
0.0
 20
0.0
 30
0.0
 70
   128
 71
    28
 72
   -26
 73
   140
  0
VERTEX
  8
RK-LAVAT
 10
0.0
 20
0.0
 30
0.0
 70
   128
 71
    26
 72
   139
 73
  -140
  0
VERTEX
  8
RK-LAVAT
 10
0.0
 20
0.0
 30
0.0
 70
   128
 71
    30
 72
   -28
 73
   141
  0
VERTEX
  8
RK-LAVAT
 10
0.0
 20
0.0
 30
0.0
 70
   128
 71
    28
 72
   140
 73
  -141
  0
VERTEX
  8
RK-LAVAT
 10
0.0
 20
0.0
 30
0.0
 70
   128
 71
    32
 72
   -30
 73
   142
  0
VERTEX
  8
RK-LAVAT
 10
0.0
 20
0.0
 30
0.0
 70
   128
 71
    30
 72
   141
 73
  -142
  0
VERTEX
  8
RK-LAVAT
 10
0.0
 20
0.0
 30
0.0
 70
   128
 71
    34
 72
   -32
 73
   143
  0
VERTEX
  8
RK-LAVAT
 10
0.0
 20
0.0
 30
0.0
 70
   128
 71
    32
 72
   142
 73
  -143
  0
VERTEX
  8
RK-LAVAT
 10
0.0
 20
0.0
 30
0.0
 70
   128
 71
    36
 72
   -34
 73
   144
  0
VERTEX
  8
RK-LAVAT
 10
0.0
 20
0.0
 30
0.0
 70
   128
 71
    34
 72
   143
 73
  -144
  0
VERTEX
  8
RK-LAVAT
 10
0.0
 20
0.0
 30
0.0
 70
   128
 71
    38
 72
   -36
 73
   145
  0
VERTEX
  8
RK-LAVAT
 10
0.0
 20
0.0
 30
0.0
 70
   128
 71
    36
 72
   144
 73
  -145
  0
VERTEX
  8
RK-LAVAT
 10
0.0
 20
0.0
 30
0.0
 70
   128
 71
    40
 72
   -38
 73
   146
  0
VERTEX
  8
RK-LAVAT
 10
0.0
 20
0.0
 30
0.0
 70
   128
 71
    38
 72
   145
 73
  -146
  0
VERTEX
  8
RK-LAVAT
 10
0.0
 20
0.0
 30
0.0
 70
   128
 71
    42
 72
   -40
 73
   147
  0
VERTEX
  8
RK-LAVAT
 10
0.0
 20
0.0
 30
0.0
 70
   128
 71
    40
 72
   146
 73
  -147
  0
VERTEX
  8
RK-LAVAT
 10
0.0
 20
0.0
 30
0.0
 70
   128
 71
    44
 72
   -42
 73
   148
  0
VERTEX
  8
RK-LAVAT
 10
0.0
 20
0.0
 30
0.0
 70
   128
 71
    42
 72
   147
 73
  -148
  0
VERTEX
  8
RK-LAVAT
 10
0.0
 20
0.0
 30
0.0
 70
   128
 71
    46
 72
   -44
 73
   149
  0
VERTEX
  8
RK-LAVAT
 10
0.0
 20
0.0
 30
0.0
 70
   128
 71
    44
 72
   148
 73
  -149
  0
VERTEX
  8
RK-LAVAT
 10
0.0
 20
0.0
 30
0.0
 70
   128
 71
    48
 72
   -46
 73
   150
  0
VERTEX
  8
RK-LAVAT
 10
0.0
 20
0.0
 30
0.0
 70
   128
 71
    46
 72
   149
 73
  -150
  0
VERTEX
  8
RK-LAVAT
 10
0.0
 20
0.0
 30
0.0
 70
   128
 71
    50
 72
   -48
 73
   151
  0
VERTEX
  8
RK-LAVAT
 10
0.0
 20
0.0
 30
0.0
 70
   128
 71
    48
 72
   150
 73
  -151
  0
VERTEX
  8
RK-LAVAT
 10
0.0
 20
0.0
 30
0.0
 70
   128
 71
    52
 72
   -50
 73
   152
  0
VERTEX
  8
RK-LAVAT
 10
0.0
 20
0.0
 30
0.0
 70
   128
 71
    50
 72
   151
 73
  -152
  0
VERTEX
  8
RK-LAVAT
 10
0.0
 20
0.0
 30
0.0
 70
   128
 71
    54
 72
   -52
 73
   153
  0
VERTEX
  8
RK-LAVAT
 10
0.0
 20
0.0
 30
0.0
 70
   128
 71
    52
 72
   152
 73
  -153
  0
VERTEX
  8
RK-LAVAT
 10
0.0
 20
0.0
 30
0.0
 70
   128
 71
    56
 72
   -54
 73
   154
  0
VERTEX
  8
RK-LAVAT
 10
0.0
 20
0.0
 30
0.0
 70
   128
 71
    54
 72
   153
 73
  -154
  0
VERTEX
  8
RK-LAVAT
 10
0.0
 20
0.0
 30
0.0
 70
   128
 71
    58
 72
   -56
 73
   155
  0
VERTEX
  8
RK-LAVAT
 10
0.0
 20
0.0
 30
0.0
 70
   128
 71
    56
 72
   154
 73
  -155
  0
VERTEX
  8
RK-LAVAT
 10
0.0
 20
0.0
 30
0.0
 70
   128
 71
    60
 72
   -58
 73
   156
  0
VERTEX
  8
RK-LAVAT
 10
0.0
 20
0.0
 30
0.0
 70
   128
 71
    58
 72
   155
 73
  -156
  0
VERTEX
  8
RK-LAVAT
 10
0.0
 20
0.0
 30
0.0
 70
   128
 71
    62
 72
   -60
 73
   157
  0
VERTEX
  8
RK-LAVAT
 10
0.0
 20
0.0
 30
0.0
 70
   128
 71
    60
 72
   156
 73
  -157
  0
VERTEX
  8
RK-LAVAT
 10
0.0
 20
0.0
 30
0.0
 70
   128
 71
    64
 72
   -62
 73
   158
  0
VERTEX
  8
RK-LAVAT
 10
0.0
 20
0.0
 30
0.0
 70
   128
 71
    62
 72
   157
 73
  -158
  0
VERTEX
  8
RK-LAVAT
 10
0.0
 20
0.0
 30
0.0
 70
   128
 71
    66
 72
   -64
 73
   159
  0
VERTEX
  8
RK-LAVAT
 10
0.0
 20
0.0
 30
0.0
 70
   128
 71
    64
 72
   158
 73
  -159
  0
VERTEX
  8
RK-LAVAT
 10
0.0
 20
0.0
 30
0.0
 70
   128
 71
    68
 72
   -66
 73
   160
  0
VERTEX
  8
RK-LAVAT
 10
0.0
 20
0.0
 30
0.0
 70
   128
 71
    66
 72
   159
 73
  -160
  0
VERTEX
  8
RK-LAVAT
 10
0.0
 20
0.0
 30
0.0
 70
   128
 71
    70
 72
   -68
 73
   161
  0
VERTEX
  8
RK-LAVAT
 10
0.0
 20
0.0
 30
0.0
 70
   128
 71
    68
 72
   160
 73
  -161
  0
VERTEX
  8
RK-LAVAT
 10
0.0
 20
0.0
 30
0.0
 70
   128
 71
    72
 72
   -70
 73
   162
  0
VERTEX
  8
RK-LAVAT
 10
0.0
 20
0.0
 30
0.0
 70
   128
 71
    70
 72
   161
 73
  -162
  0
VERTEX
  8
RK-LAVAT
 10
0.0
 20
0.0
 30
0.0
 70
   128
 71
    74
 72
   -72
 73
   163
  0
VERTEX
  8
RK-LAVAT
 10
0.0
 20
0.0
 30
0.0
 70
   128
 71
    72
 72
   162
 73
  -163
  0
VERTEX
  8
RK-LAVAT
 10
0.0
 20
0.0
 30
0.0
 70
   128
 71
    76
 72
   -74
 73
   164
  0
VERTEX
  8
RK-LAVAT
 10
0.0
 20
0.0
 30
0.0
 70
   128
 71
    74
 72
   163
 73
  -164
  0
VERTEX
  8
RK-LAVAT
 10
0.0
 20
0.0
 30
0.0
 70
   128
 71
    78
 72
   -76
 73
   165
  0
VERTEX
  8
RK-LAVAT
 10
0.0
 20
0.0
 30
0.0
 70
   128
 71
    76
 72
   164
 73
  -165
  0
VERTEX
  8
RK-LAVAT
 10
0.0
 20
0.0
 30
0.0
 70
   128
 71
    80
 72
   -78
 73
   166
  0
VERTEX
  8
RK-LAVAT
 10
0.0
 20
0.0
 30
0.0
 70
   128
 71
    78
 72
   165
 73
  -166
  0
VERTEX
  8
RK-LAVAT
 10
0.0
 20
0.0
 30
0.0
 70
   128
 71
    82
 72
   -80
 73
   167
  0
VERTEX
  8
RK-LAVAT
 10
0.0
 20
0.0
 30
0.0
 70
   128
 71
    80
 72
   166
 73
  -167
  0
VERTEX
  8
RK-LAVAT
 10
0.0
 20
0.0
 30
0.0
 70
   128
 71
    84
 72
   -82
 73
   168
  0
VERTEX
  8
RK-LAVAT
 10
0.0
 20
0.0
 30
0.0
 70
   128
 71
    82
 72
   167
 73
  -168
  0
VERTEX
  8
RK-LAVAT
 10
0.0
 20
0.0
 30
0.0
 70
   128
 71
    86
 72
   -84
 73
   169
  0
VERTEX
  8
RK-LAVAT
 10
0.0
 20
0.0
 30
0.0
 70
   128
 71
    84
 72
   168
 73
  -169
  0
VERTEX
  8
RK-LAVAT
 10
0.0
 20
0.0
 30
0.0
 70
   128
 71
    88
 72
   -86
 73
   170
  0
VERTEX
  8
RK-LAVAT
 10
0.0
 20
0.0
 30
0.0
 70
   128
 71
    86
 72
   169
 73
  -170
  0
VERTEX
  8
RK-LAVAT
 10
0.0
 20
0.0
 30
0.0
 70
   128
 71
    90
 72
   -88
 73
   171
  0
VERTEX
  8
RK-LAVAT
 10
0.0
 20
0.0
 30
0.0
 70
   128
 71
    88
 72
   170
 73
  -171
  0
VERTEX
  8
RK-LAVAT
 10
0.0
 20
0.0
 30
0.0
 70
   128
 71
    92
 72
   -90
 73
   172
  0
VERTEX
  8
RK-LAVAT
 10
0.0
 20
0.0
 30
0.0
 70
   128
 71
    90
 72
   171
 73
  -172
  0
VERTEX
  8
RK-LAVAT
 10
0.0
 20
0.0
 30
0.0
 70
   128
 71
    94
 72
   -92
 73
   173
  0
VERTEX
  8
RK-LAVAT
 10
0.0
 20
0.0
 30
0.0
 70
   128
 71
    92
 72
   172
 73
  -173
  0
VERTEX
  8
RK-LAVAT
 10
0.0
 20
0.0
 30
0.0
 70
   128
 71
    96
 72
   -94
 73
   174
  0
VERTEX
  8
RK-LAVAT
 10
0.0
 20
0.0
 30
0.0
 70
   128
 71
    94
 72
   173
 73
  -174
  0
VERTEX
  8
RK-LAVAT
 10
0.0
 20
0.0
 30
0.0
 70
   128
 71
    98
 72
   -96
 73
   175
  0
VERTEX
  8
RK-LAVAT
 10
0.0
 20
0.0
 30
0.0
 70
   128
 71
    96
 72
   174
 73
  -175
  0
VERTEX
  8
RK-LAVAT
 10
0.0
 20
0.0
 30
0.0
 70
   128
 71
   100
 72
   -98
 73
   176
  0
VERTEX
  8
RK-LAVAT
 10
0.0
 20
0.0
 30
0.0
 70
   128
 71
    98
 72
   175
 73
  -176
  0
VERTEX
  8
RK-LAVAT
 10
0.0
 20
0.0
 30
0.0
 70
   128
 71
   102
 72
  -100
 73
   177
  0
VERTEX
  8
RK-LAVAT
 10
0.0
 20
0.0
 30
0.0
 70
   128
 71
   100
 72
   176
 73
  -177
  0
VERTEX
  8
RK-LAVAT
 10
0.0
 20
0.0
 30
0.0
 70
   128
 71
   104
 72
  -102
 73
   178
  0
VERTEX
  8
RK-LAVAT
 10
0.0
 20
0.0
 30
0.0
 70
   128
 71
   102
 72
   177
 73
  -178
  0
VERTEX
  8
RK-LAVAT
 10
0.0
 20
0.0
 30
0.0
 70
   128
 71
   106
 72
  -104
 73
   179
  0
VERTEX
  8
RK-LAVAT
 10
0.0
 20
0.0
 30
0.0
 70
   128
 71
   104
 72
   178
 73
  -179
  0
VERTEX
  8
RK-LAVAT
 10
0.0
 20
0.0
 30
0.0
 70
   128
 71
   108
 72
  -106
 73
   180
  0
VERTEX
  8
RK-LAVAT
 10
0.0
 20
0.0
 30
0.0
 70
   128
 71
   106
 72
   179
 73
  -180
  0
VERTEX
  8
RK-LAVAT
 10
0.0
 20
0.0
 30
0.0
 70
   128
 71
   110
 72
  -108
 73
   181
  0
VERTEX
  8
RK-LAVAT
 10
0.0
 20
0.0
 30
0.0
 70
   128
 71
   108
 72
   180
 73
  -181
  0
VERTEX
  8
RK-LAVAT
 10
0.0
 20
0.0
 30
0.0
 70
   128
 71
   112
 72
  -110
 73
   182
  0
VERTEX
  8
RK-LAVAT
 10
0.0
 20
0.0
 30
0.0
 70
   128
 71
   110
 72
   181
 73
  -182
  0
VERTEX
  8
RK-LAVAT
 10
0.0
 20
0.0
 30
0.0
 70
   128
 71
   114
 72
  -112
 73
   183
  0
VERTEX
  8
RK-LAVAT
 10
0.0
 20
0.0
 30
0.0
 70
   128
 71
   112
 72
   182
 73
  -183
  0
VERTEX
  8
RK-LAVAT
 10
0.0
 20
0.0
 30
0.0
 70
   128
 71
   116
 72
  -114
 73
   184
  0
VERTEX
  8
RK-LAVAT
 10
0.0
 20
0.0
 30
0.0
 70
   128
 71
   114
 72
   183
 73
  -184
  0
VERTEX
  8
RK-LAVAT
 10
0.0
 20
0.0
 30
0.0
 70
   128
 71
   118
 72
  -116
 73
   185
  0
VERTEX
  8
RK-LAVAT
 10
0.0
 20
0.0
 30
0.0
 70
   128
 71
   116
 72
   184
 73
  -185
  0
VERTEX
  8
RK-LAVAT
 10
0.0
 20
0.0
 30
0.0
 70
   128
 71
   120
 72
  -118
 73
   186
  0
VERTEX
  8
RK-LAVAT
 10
0.0
 20
0.0
 30
0.0
 70
   128
 71
   118
 72
   185
 73
  -186
  0
VERTEX
  8
RK-LAVAT
 10
0.0
 20
0.0
 30
0.0
 70
   128
 71
   122
 72
  -120
 73
   187
  0
VERTEX
  8
RK-LAVAT
 10
0.0
 20
0.0
 30
0.0
 70
   128
 71
   120
 72
   186
 73
  -187
  0
VERTEX
  8
RK-LAVAT
 10
0.0
 20
0.0
 30
0.0
 70
   128
 71
   124
 72
  -122
 73
   188
  0
VERTEX
  8
RK-LAVAT
 10
0.0
 20
0.0
 30
0.0
 70
   128
 71
   122
 72
   187
 73
  -188
  0
VERTEX
  8
RK-LAVAT
 10
0.0
 20
0.0
 30
0.0
 70
   128
 71
   126
 72
  -124
 73
   189
  0
VERTEX
  8
RK-LAVAT
 10
0.0
 20
0.0
 30
0.0
 70
   128
 71
   124
 72
   188
 73
  -189
  0
VERTEX
  8
RK-LAVAT
 10
0.0
 20
0.0
 30
0.0
 70
   128
 71
     4
 72
  -126
 73
   128
  0
VERTEX
  8
RK-LAVAT
 10
0.0
 20
0.0
 30
0.0
 70
   128
 71
   126
 72
   189
 73
  -128
  0
VERTEX
  8
RK-LAVAT
 10
0.0
 20
0.0
 30
0.0
 70
   128
 71
   127
 72
  -128
 73
   190
  0
VERTEX
  8
RK-LAVAT
 10
0.0
 20
0.0
 30
0.0
 70
   128
 71
   128
 72
   191
 73
  -190
  0
VERTEX
  8
RK-LAVAT
 10
0.0
 20
0.0
 30
0.0
 70
   128
 71
   129
 72
  -127
 73
   192
  0
VERTEX
  8
RK-LAVAT
 10
0.0
 20
0.0
 30
0.0
 70
   128
 71
   127
 72
   190
 73
  -192
  0
VERTEX
  8
RK-LAVAT
 10
0.0
 20
0.0
 30
0.0
 70
   128
 71
   130
 72
  -129
 73
   193
  0
VERTEX
  8
RK-LAVAT
 10
0.0
 20
0.0
 30
0.0
 70
   128
 71
   129
 72
   192
 73
  -193
  0
VERTEX
  8
RK-LAVAT
 10
0.0
 20
0.0
 30
0.0
 70
   128
 71
   131
 72
  -130
 73
   194
  0
VERTEX
  8
RK-LAVAT
 10
0.0
 20
0.0
 30
0.0
 70
   128
 71
   130
 72
   193
 73
  -194
  0
VERTEX
  8
RK-LAVAT
 10
0.0
 20
0.0
 30
0.0
 70
   128
 71
   132
 72
  -131
 73
   195
  0
VERTEX
  8
RK-LAVAT
 10
0.0
 20
0.0
 30
0.0
 70
   128
 71
   131
 72
   194
 73
  -195
  0
VERTEX
  8
RK-LAVAT
 10
0.0
 20
0.0
 30
0.0
 70
   128
 71
   133
 72
  -132
 73
   196
  0
VERTEX
  8
RK-LAVAT
 10
0.0
 20
0.0
 30
0.0
 70
   128
 71
   132
 72
   195
 73
  -196
  0
VERTEX
  8
RK-LAVAT
 10
0.0
 20
0.0
 30
0.0
 70
   128
 71
   134
 72
  -133
 73
   197
  0
VERTEX
  8
RK-LAVAT
 10
0.0
 20
0.0
 30
0.0
 70
   128
 71
   133
 72
   196
 73
  -197
  0
VERTEX
  8
RK-LAVAT
 10
0.0
 20
0.0
 30
0.0
 70
   128
 71
   135
 72
  -134
 73
   198
  0
VERTEX
  8
RK-LAVAT
 10
0.0
 20
0.0
 30
0.0
 70
   128
 71
   134
 72
   197
 73
  -198
  0
VERTEX
  8
RK-LAVAT
 10
0.0
 20
0.0
 30
0.0
 70
   128
 71
   136
 72
  -135
 73
   199
  0
VERTEX
  8
RK-LAVAT
 10
0.0
 20
0.0
 30
0.0
 70
   128
 71
   135
 72
   198
 73
  -199
  0
VERTEX
  8
RK-LAVAT
 10
0.0
 20
0.0
 30
0.0
 70
   128
 71
   137
 72
  -136
 73
   200
  0
VERTEX
  8
RK-LAVAT
 10
0.0
 20
0.0
 30
0.0
 70
   128
 71
   136
 72
   199
 73
  -200
  0
VERTEX
  8
RK-LAVAT
 10
0.0
 20
0.0
 30
0.0
 70
   128
 71
   138
 72
  -137
 73
   201
  0
VERTEX
  8
RK-LAVAT
 10
0.0
 20
0.0
 30
0.0
 70
   128
 71
   137
 72
   200
 73
  -201
  0
VERTEX
  8
RK-LAVAT
 10
0.0
 20
0.0
 30
0.0
 70
   128
 71
   139
 72
  -138
 73
   202
  0
VERTEX
  8
RK-LAVAT
 10
0.0
 20
0.0
 30
0.0
 70
   128
 71
   138
 72
   201
 73
  -202
  0
VERTEX
  8
RK-LAVAT
 10
0.0
 20
0.0
 30
0.0
 70
   128
 71
   140
 72
  -139
 73
   203
  0
VERTEX
  8
RK-LAVAT
 10
0.0
 20
0.0
 30
0.0
 70
   128
 71
   139
 72
   202
 73
  -203
  0
VERTEX
  8
RK-LAVAT
 10
0.0
 20
0.0
 30
0.0
 70
   128
 71
   141
 72
  -140
 73
   204
  0
VERTEX
  8
RK-LAVAT
 10
0.0
 20
0.0
 30
0.0
 70
   128
 71
   140
 72
   203
 73
  -204
  0
VERTEX
  8
RK-LAVAT
 10
0.0
 20
0.0
 30
0.0
 70
   128
 71
   142
 72
  -141
 73
   205
  0
VERTEX
  8
RK-LAVAT
 10
0.0
 20
0.0
 30
0.0
 70
   128
 71
   141
 72
   204
 73
  -205
  0
VERTEX
  8
RK-LAVAT
 10
0.0
 20
0.0
 30
0.0
 70
   128
 71
   143
 72
  -142
 73
   206
  0
VERTEX
  8
RK-LAVAT
 10
0.0
 20
0.0
 30
0.0
 70
   128
 71
   142
 72
   205
 73
  -206
  0
VERTEX
  8
RK-LAVAT
 10
0.0
 20
0.0
 30
0.0
 70
   128
 71
   144
 72
  -143
 73
   207
  0
VERTEX
  8
RK-LAVAT
 10
0.0
 20
0.0
 30
0.0
 70
   128
 71
   143
 72
   206
 73
  -207
  0
VERTEX
  8
RK-LAVAT
 10
0.0
 20
0.0
 30
0.0
 70
   128
 71
   145
 72
  -144
 73
   208
  0
VERTEX
  8
RK-LAVAT
 10
0.0
 20
0.0
 30
0.0
 70
   128
 71
   144
 72
   207
 73
  -208
  0
VERTEX
  8
RK-LAVAT
 10
0.0
 20
0.0
 30
0.0
 70
   128
 71
   146
 72
  -145
 73
   209
  0
VERTEX
  8
RK-LAVAT
 10
0.0
 20
0.0
 30
0.0
 70
   128
 71
   145
 72
   208
 73
  -209
  0
VERTEX
  8
RK-LAVAT
 10
0.0
 20
0.0
 30
0.0
 70
   128
 71
   147
 72
  -146
 73
   210
  0
VERTEX
  8
RK-LAVAT
 10
0.0
 20
0.0
 30
0.0
 70
   128
 71
   146
 72
   209
 73
  -210
  0
VERTEX
  8
RK-LAVAT
 10
0.0
 20
0.0
 30
0.0
 70
   128
 71
   148
 72
  -147
 73
   211
  0
VERTEX
  8
RK-LAVAT
 10
0.0
 20
0.0
 30
0.0
 70
   128
 71
   147
 72
   210
 73
  -211
  0
VERTEX
  8
RK-LAVAT
 10
0.0
 20
0.0
 30
0.0
 70
   128
 71
   149
 72
  -148
 73
   212
  0
VERTEX
  8
RK-LAVAT
 10
0.0
 20
0.0
 30
0.0
 70
   128
 71
   148
 72
   211
 73
  -212
  0
VERTEX
  8
RK-LAVAT
 10
0.0
 20
0.0
 30
0.0
 70
   128
 71
   150
 72
  -149
 73
   213
  0
VERTEX
  8
RK-LAVAT
 10
0.0
 20
0.0
 30
0.0
 70
   128
 71
   149
 72
   212
 73
  -213
  0
VERTEX
  8
RK-LAVAT
 10
0.0
 20
0.0
 30
0.0
 70
   128
 71
   151
 72
  -150
 73
   214
  0
VERTEX
  8
RK-LAVAT
 10
0.0
 20
0.0
 30
0.0
 70
   128
 71
   150
 72
   213
 73
  -214
  0
VERTEX
  8
RK-LAVAT
 10
0.0
 20
0.0
 30
0.0
 70
   128
 71
   152
 72
  -151
 73
   215
  0
VERTEX
  8
RK-LAVAT
 10
0.0
 20
0.0
 30
0.0
 70
   128
 71
   151
 72
   214
 73
  -215
  0
VERTEX
  8
RK-LAVAT
 10
0.0
 20
0.0
 30
0.0
 70
   128
 71
   153
 72
  -152
 73
   216
  0
VERTEX
  8
RK-LAVAT
 10
0.0
 20
0.0
 30
0.0
 70
   128
 71
   152
 72
   215
 73
  -216
  0
VERTEX
  8
RK-LAVAT
 10
0.0
 20
0.0
 30
0.0
 70
   128
 71
   154
 72
  -153
 73
   217
  0
VERTEX
  8
RK-LAVAT
 10
0.0
 20
0.0
 30
0.0
 70
   128
 71
   153
 72
   216
 73
  -217
  0
VERTEX
  8
RK-LAVAT
 10
0.0
 20
0.0
 30
0.0
 70
   128
 71
   155
 72
  -154
 73
   218
  0
VERTEX
  8
RK-LAVAT
 10
0.0
 20
0.0
 30
0.0
 70
   128
 71
   154
 72
   217
 73
  -218
  0
VERTEX
  8
RK-LAVAT
 10
0.0
 20
0.0
 30
0.0
 70
   128
 71
   156
 72
  -155
 73
   219
  0
VERTEX
  8
RK-LAVAT
 10
0.0
 20
0.0
 30
0.0
 70
   128
 71
   155
 72
   218
 73
  -219
  0
VERTEX
  8
RK-LAVAT
 10
0.0
 20
0.0
 30
0.0
 70
   128
 71
   157
 72
  -156
 73
   220
  0
VERTEX
  8
RK-LAVAT
 10
0.0
 20
0.0
 30
0.0
 70
   128
 71
   156
 72
   219
 73
  -220
  0
VERTEX
  8
RK-LAVAT
 10
0.0
 20
0.0
 30
0.0
 70
   128
 71
   158
 72
  -157
 73
   221
  0
VERTEX
  8
RK-LAVAT
 10
0.0
 20
0.0
 30
0.0
 70
   128
 71
   157
 72
   220
 73
  -221
  0
VERTEX
  8
RK-LAVAT
 10
0.0
 20
0.0
 30
0.0
 70
   128
 71
   159
 72
  -158
 73
   222
  0
VERTEX
  8
RK-LAVAT
 10
0.0
 20
0.0
 30
0.0
 70
   128
 71
   158
 72
   221
 73
  -222
  0
VERTEX
  8
RK-LAVAT
 10
0.0
 20
0.0
 30
0.0
 70
   128
 71
   160
 72
  -159
 73
   223
  0
VERTEX
  8
RK-LAVAT
 10
0.0
 20
0.0
 30
0.0
 70
   128
 71
   159
 72
   222
 73
  -223
  0
VERTEX
  8
RK-LAVAT
 10
0.0
 20
0.0
 30
0.0
 70
   128
 71
   161
 72
  -160
 73
   224
  0
VERTEX
  8
RK-LAVAT
 10
0.0
 20
0.0
 30
0.0
 70
   128
 71
   160
 72
   223
 73
  -224
  0
VERTEX
  8
RK-LAVAT
 10
0.0
 20
0.0
 30
0.0
 70
   128
 71
   162
 72
  -161
 73
   225
  0
VERTEX
  8
RK-LAVAT
 10
0.0
 20
0.0
 30
0.0
 70
   128
 71
   161
 72
   224
 73
  -225
  0
VERTEX
  8
RK-LAVAT
 10
0.0
 20
0.0
 30
0.0
 70
   128
 71
   163
 72
  -162
 73
   226
  0
VERTEX
  8
RK-LAVAT
 10
0.0
 20
0.0
 30
0.0
 70
   128
 71
   162
 72
   225
 73
  -226
  0
VERTEX
  8
RK-LAVAT
 10
0.0
 20
0.0
 30
0.0
 70
   128
 71
   164
 72
  -163
 73
   227
  0
VERTEX
  8
RK-LAVAT
 10
0.0
 20
0.0
 30
0.0
 70
   128
 71
   163
 72
   226
 73
  -227
  0
VERTEX
  8
RK-LAVAT
 10
0.0
 20
0.0
 30
0.0
 70
   128
 71
   165
 72
  -164
 73
   228
  0
VERTEX
  8
RK-LAVAT
 10
0.0
 20
0.0
 30
0.0
 70
   128
 71
   164
 72
   227
 73
  -228
  0
VERTEX
  8
RK-LAVAT
 10
0.0
 20
0.0
 30
0.0
 70
   128
 71
   166
 72
  -165
 73
   229
  0
VERTEX
  8
RK-LAVAT
 10
0.0
 20
0.0
 30
0.0
 70
   128
 71
   165
 72
   228
 73
  -229
  0
VERTEX
  8
RK-LAVAT
 10
0.0
 20
0.0
 30
0.0
 70
   128
 71
   167
 72
  -166
 73
   230
  0
VERTEX
  8
RK-LAVAT
 10
0.0
 20
0.0
 30
0.0
 70
   128
 71
   166
 72
   229
 73
  -230
  0
VERTEX
  8
RK-LAVAT
 10
0.0
 20
0.0
 30
0.0
 70
   128
 71
   168
 72
  -167
 73
   231
  0
VERTEX
  8
RK-LAVAT
 10
0.0
 20
0.0
 30
0.0
 70
   128
 71
   167
 72
   230
 73
  -231
  0
VERTEX
  8
RK-LAVAT
 10
0.0
 20
0.0
 30
0.0
 70
   128
 71
   169
 72
  -168
 73
   232
  0
VERTEX
  8
RK-LAVAT
 10
0.0
 20
0.0
 30
0.0
 70
   128
 71
   168
 72
   231
 73
  -232
  0
VERTEX
  8
RK-LAVAT
 10
0.0
 20
0.0
 30
0.0
 70
   128
 71
   170
 72
  -169
 73
   233
  0
VERTEX
  8
RK-LAVAT
 10
0.0
 20
0.0
 30
0.0
 70
   128
 71
   169
 72
   232
 73
  -233
  0
VERTEX
  8
RK-LAVAT
 10
0.0
 20
0.0
 30
0.0
 70
   128
 71
   171
 72
  -170
 73
   234
  0
VERTEX
  8
RK-LAVAT
 10
0.0
 20
0.0
 30
0.0
 70
   128
 71
   170
 72
   233
 73
  -234
  0
VERTEX
  8
RK-LAVAT
 10
0.0
 20
0.0
 30
0.0
 70
   128
 71
   172
 72
  -171
 73
   235
  0
VERTEX
  8
RK-LAVAT
 10
0.0
 20
0.0
 30
0.0
 70
   128
 71
   171
 72
   234
 73
  -235
  0
VERTEX
  8
RK-LAVAT
 10
0.0
 20
0.0
 30
0.0
 70
   128
 71
   173
 72
  -172
 73
   236
  0
VERTEX
  8
RK-LAVAT
 10
0.0
 20
0.0
 30
0.0
 70
   128
 71
   172
 72
   235
 73
  -236
  0
VERTEX
  8
RK-LAVAT
 10
0.0
 20
0.0
 30
0.0
 70
   128
 71
   174
 72
  -173
 73
   237
  0
VERTEX
  8
RK-LAVAT
 10
0.0
 20
0.0
 30
0.0
 70
   128
 71
   173
 72
   236
 73
  -237
  0
VERTEX
  8
RK-LAVAT
 10
0.0
 20
0.0
 30
0.0
 70
   128
 71
   175
 72
  -174
 73
   238
  0
VERTEX
  8
RK-LAVAT
 10
0.0
 20
0.0
 30
0.0
 70
   128
 71
   174
 72
   237
 73
  -238
  0
VERTEX
  8
RK-LAVAT
 10
0.0
 20
0.0
 30
0.0
 70
   128
 71
   176
 72
  -175
 73
   239
  0
VERTEX
  8
RK-LAVAT
 10
0.0
 20
0.0
 30
0.0
 70
   128
 71
   175
 72
   238
 73
  -239
  0
VERTEX
  8
RK-LAVAT
 10
0.0
 20
0.0
 30
0.0
 70
   128
 71
   177
 72
  -176
 73
   240
  0
VERTEX
  8
RK-LAVAT
 10
0.0
 20
0.0
 30
0.0
 70
   128
 71
   176
 72
   239
 73
  -240
  0
VERTEX
  8
RK-LAVAT
 10
0.0
 20
0.0
 30
0.0
 70
   128
 71
   178
 72
  -177
 73
   241
  0
VERTEX
  8
RK-LAVAT
 10
0.0
 20
0.0
 30
0.0
 70
   128
 71
   177
 72
   240
 73
  -241
  0
VERTEX
  8
RK-LAVAT
 10
0.0
 20
0.0
 30
0.0
 70
   128
 71
   179
 72
  -178
 73
   242
  0
VERTEX
  8
RK-LAVAT
 10
0.0
 20
0.0
 30
0.0
 70
   128
 71
   178
 72
   241
 73
  -242
  0
VERTEX
  8
RK-LAVAT
 10
0.0
 20
0.0
 30
0.0
 70
   128
 71
   180
 72
  -179
 73
   243
  0
VERTEX
  8
RK-LAVAT
 10
0.0
 20
0.0
 30
0.0
 70
   128
 71
   179
 72
   242
 73
  -243
  0
VERTEX
  8
RK-LAVAT
 10
0.0
 20
0.0
 30
0.0
 70
   128
 71
   181
 72
  -180
 73
   244
  0
VERTEX
  8
RK-LAVAT
 10
0.0
 20
0.0
 30
0.0
 70
   128
 71
   180
 72
   243
 73
  -244
  0
VERTEX
  8
RK-LAVAT
 10
0.0
 20
0.0
 30
0.0
 70
   128
 71
   182
 72
  -181
 73
   245
  0
VERTEX
  8
RK-LAVAT
 10
0.0
 20
0.0
 30
0.0
 70
   128
 71
   181
 72
   244
 73
  -245
  0
VERTEX
  8
RK-LAVAT
 10
0.0
 20
0.0
 30
0.0
 70
   128
 71
   183
 72
  -182
 73
   246
  0
VERTEX
  8
RK-LAVAT
 10
0.0
 20
0.0
 30
0.0
 70
   128
 71
   182
 72
   245
 73
  -246
  0
VERTEX
  8
RK-LAVAT
 10
0.0
 20
0.0
 30
0.0
 70
   128
 71
   184
 72
  -183
 73
   247
  0
VERTEX
  8
RK-LAVAT
 10
0.0
 20
0.0
 30
0.0
 70
   128
 71
   183
 72
   246
 73
  -247
  0
VERTEX
  8
RK-LAVAT
 10
0.0
 20
0.0
 30
0.0
 70
   128
 71
   185
 72
  -184
 73
   248
  0
VERTEX
  8
RK-LAVAT
 10
0.0
 20
0.0
 30
0.0
 70
   128
 71
   184
 72
   247
 73
  -248
  0
VERTEX
  8
RK-LAVAT
 10
0.0
 20
0.0
 30
0.0
 70
   128
 71
   186
 72
  -185
 73
   249
  0
VERTEX
  8
RK-LAVAT
 10
0.0
 20
0.0
 30
0.0
 70
   128
 71
   185
 72
   248
 73
  -249
  0
VERTEX
  8
RK-LAVAT
 10
0.0
 20
0.0
 30
0.0
 70
   128
 71
   187
 72
  -186
 73
   250
  0
VERTEX
  8
RK-LAVAT
 10
0.0
 20
0.0
 30
0.0
 70
   128
 71
   186
 72
   249
 73
  -250
  0
VERTEX
  8
RK-LAVAT
 10
0.0
 20
0.0
 30
0.0
 70
   128
 71
   188
 72
  -187
 73
   251
  0
VERTEX
  8
RK-LAVAT
 10
0.0
 20
0.0
 30
0.0
 70
   128
 71
   187
 72
   250
 73
  -251
  0
VERTEX
  8
RK-LAVAT
 10
0.0
 20
0.0
 30
0.0
 70
   128
 71
   189
 72
  -188
 73
   252
  0
VERTEX
  8
RK-LAVAT
 10
0.0
 20
0.0
 30
0.0
 70
   128
 71
   188
 72
   251
 73
  -252
  0
VERTEX
  8
RK-LAVAT
 10
0.0
 20
0.0
 30
0.0
 70
   128
 71
   128
 72
  -189
 73
   191
  0
VERTEX
  8
RK-LAVAT
 10
0.0
 20
0.0
 30
0.0
 70
   128
 71
   189
 72
   252
 73
  -191
  0
VERTEX
  8
RK-LAVAT
 10
0.0
 20
0.0
 30
0.0
 70
   128
 71
   190
 72
  -191
 73
   253
  0
VERTEX
  8
RK-LAVAT
 10
0.0
 20
0.0
 30
0.0
 70
   128
 71
   191
 72
   254
 73
  -253
  0
VERTEX
  8
RK-LAVAT
 10
0.0
 20
0.0
 30
0.0
 70
   128
 71
   192
 72
  -190
 73
   255
  0
VERTEX
  8
RK-LAVAT
 10
0.0
 20
0.0
 30
0.0
 70
   128
 71
   190
 72
   253
 73
  -255
  0
VERTEX
  8
RK-LAVAT
 10
0.0
 20
0.0
 30
0.0
 70
   128
 71
   193
 72
  -192
 73
   256
  0
VERTEX
  8
RK-LAVAT
 10
0.0
 20
0.0
 30
0.0
 70
   128
 71
   192
 72
   255
 73
  -256
  0
VERTEX
  8
RK-LAVAT
 10
0.0
 20
0.0
 30
0.0
 70
   128
 71
   194
 72
  -193
 73
   257
  0
VERTEX
  8
RK-LAVAT
 10
0.0
 20
0.0
 30
0.0
 70
   128
 71
   193
 72
   256
 73
  -257
  0
VERTEX
  8
RK-LAVAT
 10
0.0
 20
0.0
 30
0.0
 70
   128
 71
   195
 72
  -194
 73
   258
  0
VERTEX
  8
RK-LAVAT
 10
0.0
 20
0.0
 30
0.0
 70
   128
 71
   194
 72
   257
 73
  -258
  0
VERTEX
  8
RK-LAVAT
 10
0.0
 20
0.0
 30
0.0
 70
   128
 71
   196
 72
  -195
 73
   259
  0
VERTEX
  8
RK-LAVAT
 10
0.0
 20
0.0
 30
0.0
 70
   128
 71
   195
 72
   258
 73
  -259
  0
VERTEX
  8
RK-LAVAT
 10
0.0
 20
0.0
 30
0.0
 70
   128
 71
   197
 72
  -196
 73
   260
  0
VERTEX
  8
RK-LAVAT
 10
0.0
 20
0.0
 30
0.0
 70
   128
 71
   196
 72
   259
 73
  -260
  0
VERTEX
  8
RK-LAVAT
 10
0.0
 20
0.0
 30
0.0
 70
   128
 71
   198
 72
  -197
 73
   261
  0
VERTEX
  8
RK-LAVAT
 10
0.0
 20
0.0
 30
0.0
 70
   128
 71
   197
 72
   260
 73
  -261
  0
VERTEX
  8
RK-LAVAT
 10
0.0
 20
0.0
 30
0.0
 70
   128
 71
   199
 72
  -198
 73
   262
  0
VERTEX
  8
RK-LAVAT
 10
0.0
 20
0.0
 30
0.0
 70
   128
 71
   198
 72
   261
 73
  -262
  0
VERTEX
  8
RK-LAVAT
 10
0.0
 20
0.0
 30
0.0
 70
   128
 71
   200
 72
  -199
 73
   263
  0
VERTEX
  8
RK-LAVAT
 10
0.0
 20
0.0
 30
0.0
 70
   128
 71
   199
 72
   262
 73
  -263
  0
VERTEX
  8
RK-LAVAT
 10
0.0
 20
0.0
 30
0.0
 70
   128
 71
   201
 72
  -200
 73
   264
  0
VERTEX
  8
RK-LAVAT
 10
0.0
 20
0.0
 30
0.0
 70
   128
 71
   200
 72
   263
 73
  -264
  0
VERTEX
  8
RK-LAVAT
 10
0.0
 20
0.0
 30
0.0
 70
   128
 71
   202
 72
  -201
 73
   265
  0
VERTEX
  8
RK-LAVAT
 10
0.0
 20
0.0
 30
0.0
 70
   128
 71
   201
 72
   264
 73
  -265
  0
VERTEX
  8
RK-LAVAT
 10
0.0
 20
0.0
 30
0.0
 70
   128
 71
   203
 72
  -202
 73
   266
  0
VERTEX
  8
RK-LAVAT
 10
0.0
 20
0.0
 30
0.0
 70
   128
 71
   202
 72
   265
 73
  -266
  0
VERTEX
  8
RK-LAVAT
 10
0.0
 20
0.0
 30
0.0
 70
   128
 71
   204
 72
  -203
 73
   267
  0
VERTEX
  8
RK-LAVAT
 10
0.0
 20
0.0
 30
0.0
 70
   128
 71
   203
 72
   266
 73
  -267
  0
VERTEX
  8
RK-LAVAT
 10
0.0
 20
0.0
 30
0.0
 70
   128
 71
   205
 72
  -204
 73
   268
  0
VERTEX
  8
RK-LAVAT
 10
0.0
 20
0.0
 30
0.0
 70
   128
 71
   204
 72
   267
 73
  -268
  0
VERTEX
  8
RK-LAVAT
 10
0.0
 20
0.0
 30
0.0
 70
   128
 71
   206
 72
  -205
 73
   269
  0
VERTEX
  8
RK-LAVAT
 10
0.0
 20
0.0
 30
0.0
 70
   128
 71
   205
 72
   268
 73
  -269
  0
VERTEX
  8
RK-LAVAT
 10
0.0
 20
0.0
 30
0.0
 70
   128
 71
   207
 72
  -206
 73
   270
  0
VERTEX
  8
RK-LAVAT
 10
0.0
 20
0.0
 30
0.0
 70
   128
 71
   206
 72
   269
 73
  -270
  0
VERTEX
  8
RK-LAVAT
 10
0.0
 20
0.0
 30
0.0
 70
   128
 71
   208
 72
  -207
 73
   271
  0
VERTEX
  8
RK-LAVAT
 10
0.0
 20
0.0
 30
0.0
 70
   128
 71
   207
 72
   270
 73
  -271
  0
VERTEX
  8
RK-LAVAT
 10
0.0
 20
0.0
 30
0.0
 70
   128
 71
   209
 72
  -208
 73
   272
  0
VERTEX
  8
RK-LAVAT
 10
0.0
 20
0.0
 30
0.0
 70
   128
 71
   208
 72
   271
 73
  -272
  0
VERTEX
  8
RK-LAVAT
 10
0.0
 20
0.0
 30
0.0
 70
   128
 71
   210
 72
  -209
 73
   273
  0
VERTEX
  8
RK-LAVAT
 10
0.0
 20
0.0
 30
0.0
 70
   128
 71
   209
 72
   272
 73
  -273
  0
VERTEX
  8
RK-LAVAT
 10
0.0
 20
0.0
 30
0.0
 70
   128
 71
   211
 72
  -210
 73
   274
  0
VERTEX
  8
RK-LAVAT
 10
0.0
 20
0.0
 30
0.0
 70
   128
 71
   210
 72
   273
 73
  -274
  0
VERTEX
  8
RK-LAVAT
 10
0.0
 20
0.0
 30
0.0
 70
   128
 71
   212
 72
  -211
 73
   275
  0
VERTEX
  8
RK-LAVAT
 10
0.0
 20
0.0
 30
0.0
 70
   128
 71
   211
 72
   274
 73
  -275
  0
VERTEX
  8
RK-LAVAT
 10
0.0
 20
0.0
 30
0.0
 70
   128
 71
   213
 72
  -212
 73
   276
  0
VERTEX
  8
RK-LAVAT
 10
0.0
 20
0.0
 30
0.0
 70
   128
 71
   212
 72
   275
 73
  -276
  0
VERTEX
  8
RK-LAVAT
 10
0.0
 20
0.0
 30
0.0
 70
   128
 71
   214
 72
  -213
 73
   277
  0
VERTEX
  8
RK-LAVAT
 10
0.0
 20
0.0
 30
0.0
 70
   128
 71
   213
 72
   276
 73
  -277
  0
VERTEX
  8
RK-LAVAT
 10
0.0
 20
0.0
 30
0.0
 70
   128
 71
   215
 72
  -214
 73
   278
  0
VERTEX
  8
RK-LAVAT
 10
0.0
 20
0.0
 30
0.0
 70
   128
 71
   214
 72
   277
 73
  -278
  0
VERTEX
  8
RK-LAVAT
 10
0.0
 20
0.0
 30
0.0
 70
   128
 71
   216
 72
  -215
 73
   279
  0
VERTEX
  8
RK-LAVAT
 10
0.0
 20
0.0
 30
0.0
 70
   128
 71
   215
 72
   278
 73
  -279
  0
VERTEX
  8
RK-LAVAT
 10
0.0
 20
0.0
 30
0.0
 70
   128
 71
   217
 72
  -216
 73
   280
  0
VERTEX
  8
RK-LAVAT
 10
0.0
 20
0.0
 30
0.0
 70
   128
 71
   216
 72
   279
 73
  -280
  0
VERTEX
  8
RK-LAVAT
 10
0.0
 20
0.0
 30
0.0
 70
   128
 71
   218
 72
  -217
 73
   281
  0
VERTEX
  8
RK-LAVAT
 10
0.0
 20
0.0
 30
0.0
 70
   128
 71
   217
 72
   280
 73
  -281
  0
VERTEX
  8
RK-LAVAT
 10
0.0
 20
0.0
 30
0.0
 70
   128
 71
   219
 72
  -218
 73
   282
  0
VERTEX
  8
RK-LAVAT
 10
0.0
 20
0.0
 30
0.0
 70
   128
 71
   218
 72
   281
 73
  -282
  0
VERTEX
  8
RK-LAVAT
 10
0.0
 20
0.0
 30
0.0
 70
   128
 71
   220
 72
  -219
 73
   283
  0
VERTEX
  8
RK-LAVAT
 10
0.0
 20
0.0
 30
0.0
 70
   128
 71
   219
 72
   282
 73
  -283
  0
VERTEX
  8
RK-LAVAT
 10
0.0
 20
0.0
 30
0.0
 70
   128
 71
   221
 72
  -220
 73
   284
  0
VERTEX
  8
RK-LAVAT
 10
0.0
 20
0.0
 30
0.0
 70
   128
 71
   220
 72
   283
 73
  -284
  0
VERTEX
  8
RK-LAVAT
 10
0.0
 20
0.0
 30
0.0
 70
   128
 71
   222
 72
  -221
 73
   285
  0
VERTEX
  8
RK-LAVAT
 10
0.0
 20
0.0
 30
0.0
 70
   128
 71
   221
 72
   284
 73
  -285
  0
VERTEX
  8
RK-LAVAT
 10
0.0
 20
0.0
 30
0.0
 70
   128
 71
   223
 72
  -222
 73
   286
  0
VERTEX
  8
RK-LAVAT
 10
0.0
 20
0.0
 30
0.0
 70
   128
 71
   222
 72
   285
 73
  -286
  0
VERTEX
  8
RK-LAVAT
 10
0.0
 20
0.0
 30
0.0
 70
   128
 71
   224
 72
  -223
 73
   287
  0
VERTEX
  8
RK-LAVAT
 10
0.0
 20
0.0
 30
0.0
 70
   128
 71
   223
 72
   286
 73
  -287
  0
VERTEX
  8
RK-LAVAT
 10
0.0
 20
0.0
 30
0.0
 70
   128
 71
   225
 72
  -224
 73
   288
  0
VERTEX
  8
RK-LAVAT
 10
0.0
 20
0.0
 30
0.0
 70
   128
 71
   224
 72
   287
 73
  -288
  0
VERTEX
  8
RK-LAVAT
 10
0.0
 20
0.0
 30
0.0
 70
   128
 71
   226
 72
  -225
 73
   289
  0
VERTEX
  8
RK-LAVAT
 10
0.0
 20
0.0
 30
0.0
 70
   128
 71
   225
 72
   288
 73
  -289
  0
VERTEX
  8
RK-LAVAT
 10
0.0
 20
0.0
 30
0.0
 70
   128
 71
   227
 72
  -226
 73
   290
  0
VERTEX
  8
RK-LAVAT
 10
0.0
 20
0.0
 30
0.0
 70
   128
 71
   226
 72
   289
 73
  -290
  0
VERTEX
  8
RK-LAVAT
 10
0.0
 20
0.0
 30
0.0
 70
   128
 71
   228
 72
  -227
 73
   291
  0
VERTEX
  8
RK-LAVAT
 10
0.0
 20
0.0
 30
0.0
 70
   128
 71
   227
 72
   290
 73
  -291
  0
VERTEX
  8
RK-LAVAT
 10
0.0
 20
0.0
 30
0.0
 70
   128
 71
   229
 72
  -228
 73
   292
  0
VERTEX
  8
RK-LAVAT
 10
0.0
 20
0.0
 30
0.0
 70
   128
 71
   228
 72
   291
 73
  -292
  0
VERTEX
  8
RK-LAVAT
 10
0.0
 20
0.0
 30
0.0
 70
   128
 71
   230
 72
  -229
 73
   293
  0
VERTEX
  8
RK-LAVAT
 10
0.0
 20
0.0
 30
0.0
 70
   128
 71
   229
 72
   292
 73
  -293
  0
VERTEX
  8
RK-LAVAT
 10
0.0
 20
0.0
 30
0.0
 70
   128
 71
   231
 72
  -230
 73
   294
  0
VERTEX
  8
RK-LAVAT
 10
0.0
 20
0.0
 30
0.0
 70
   128
 71
   230
 72
   293
 73
  -294
  0
VERTEX
  8
RK-LAVAT
 10
0.0
 20
0.0
 30
0.0
 70
   128
 71
   232
 72
  -231
 73
   295
  0
VERTEX
  8
RK-LAVAT
 10
0.0
 20
0.0
 30
0.0
 70
   128
 71
   231
 72
   294
 73
  -295
  0
VERTEX
  8
RK-LAVAT
 10
0.0
 20
0.0
 30
0.0
 70
   128
 71
   233
 72
  -232
 73
   296
  0
VERTEX
  8
RK-LAVAT
 10
0.0
 20
0.0
 30
0.0
 70
   128
 71
   232
 72
   295
 73
  -296
  0
VERTEX
  8
RK-LAVAT
 10
0.0
 20
0.0
 30
0.0
 70
   128
 71
   234
 72
  -233
 73
   297
  0
VERTEX
  8
RK-LAVAT
 10
0.0
 20
0.0
 30
0.0
 70
   128
 71
   233
 72
   296
 73
  -297
  0
VERTEX
  8
RK-LAVAT
 10
0.0
 20
0.0
 30
0.0
 70
   128
 71
   235
 72
  -234
 73
   298
  0
VERTEX
  8
RK-LAVAT
 10
0.0
 20
0.0
 30
0.0
 70
   128
 71
   234
 72
   297
 73
  -298
  0
VERTEX
  8
RK-LAVAT
 10
0.0
 20
0.0
 30
0.0
 70
   128
 71
   236
 72
  -235
 73
   299
  0
VERTEX
  8
RK-LAVAT
 10
0.0
 20
0.0
 30
0.0
 70
   128
 71
   235
 72
   298
 73
  -299
  0
VERTEX
  8
RK-LAVAT
 10
0.0
 20
0.0
 30
0.0
 70
   128
 71
   237
 72
  -236
 73
   300
  0
VERTEX
  8
RK-LAVAT
 10
0.0
 20
0.0
 30
0.0
 70
   128
 71
   236
 72
   299
 73
  -300
  0
VERTEX
  8
RK-LAVAT
 10
0.0
 20
0.0
 30
0.0
 70
   128
 71
   238
 72
  -237
 73
   301
  0
VERTEX
  8
RK-LAVAT
 10
0.0
 20
0.0
 30
0.0
 70
   128
 71
   237
 72
   300
 73
  -301
  0
VERTEX
  8
RK-LAVAT
 10
0.0
 20
0.0
 30
0.0
 70
   128
 71
   239
 72
  -238
 73
   302
  0
VERTEX
  8
RK-LAVAT
 10
0.0
 20
0.0
 30
0.0
 70
   128
 71
   238
 72
   301
 73
  -302
  0
VERTEX
  8
RK-LAVAT
 10
0.0
 20
0.0
 30
0.0
 70
   128
 71
   240
 72
  -239
 73
   303
  0
VERTEX
  8
RK-LAVAT
 10
0.0
 20
0.0
 30
0.0
 70
   128
 71
   239
 72
   302
 73
  -303
  0
VERTEX
  8
RK-LAVAT
 10
0.0
 20
0.0
 30
0.0
 70
   128
 71
   241
 72
  -240
 73
   304
  0
VERTEX
  8
RK-LAVAT
 10
0.0
 20
0.0
 30
0.0
 70
   128
 71
   240
 72
   303
 73
  -304
  0
VERTEX
  8
RK-LAVAT
 10
0.0
 20
0.0
 30
0.0
 70
   128
 71
   242
 72
  -241
 73
   305
  0
VERTEX
  8
RK-LAVAT
 10
0.0
 20
0.0
 30
0.0
 70
   128
 71
   241
 72
   304
 73
  -305
  0
VERTEX
  8
RK-LAVAT
 10
0.0
 20
0.0
 30
0.0
 70
   128
 71
   243
 72
  -242
 73
   306
  0
VERTEX
  8
RK-LAVAT
 10
0.0
 20
0.0
 30
0.0
 70
   128
 71
   242
 72
   305
 73
  -306
  0
VERTEX
  8
RK-LAVAT
 10
0.0
 20
0.0
 30
0.0
 70
   128
 71
   244
 72
  -243
 73
   307
  0
VERTEX
  8
RK-LAVAT
 10
0.0
 20
0.0
 30
0.0
 70
   128
 71
   243
 72
   306
 73
  -307
  0
VERTEX
  8
RK-LAVAT
 10
0.0
 20
0.0
 30
0.0
 70
   128
 71
   245
 72
  -244
 73
   308
  0
VERTEX
  8
RK-LAVAT
 10
0.0
 20
0.0
 30
0.0
 70
   128
 71
   244
 72
   307
 73
  -308
  0
VERTEX
  8
RK-LAVAT
 10
0.0
 20
0.0
 30
0.0
 70
   128
 71
   246
 72
  -245
 73
   309
  0
VERTEX
  8
RK-LAVAT
 10
0.0
 20
0.0
 30
0.0
 70
   128
 71
   245
 72
   308
 73
  -309
  0
VERTEX
  8
RK-LAVAT
 10
0.0
 20
0.0
 30
0.0
 70
   128
 71
   247
 72
  -246
 73
   310
  0
VERTEX
  8
RK-LAVAT
 10
0.0
 20
0.0
 30
0.0
 70
   128
 71
   246
 72
   309
 73
  -310
  0
VERTEX
  8
RK-LAVAT
 10
0.0
 20
0.0
 30
0.0
 70
   128
 71
   248
 72
  -247
 73
   311
  0
VERTEX
  8
RK-LAVAT
 10
0.0
 20
0.0
 30
0.0
 70
   128
 71
   247
 72
   310
 73
  -311
  0
VERTEX
  8
RK-LAVAT
 10
0.0
 20
0.0
 30
0.0
 70
   128
 71
   249
 72
  -248
 73
   312
  0
VERTEX
  8
RK-LAVAT
 10
0.0
 20
0.0
 30
0.0
 70
   128
 71
   248
 72
   311
 73
  -312
  0
VERTEX
  8
RK-LAVAT
 10
0.0
 20
0.0
 30
0.0
 70
   128
 71
   250
 72
  -249
 73
   313
  0
VERTEX
  8
RK-LAVAT
 10
0.0
 20
0.0
 30
0.0
 70
   128
 71
   249
 72
   312
 73
  -313
  0
VERTEX
  8
RK-LAVAT
 10
0.0
 20
0.0
 30
0.0
 70
   128
 71
   251
 72
  -250
 73
   314
  0
VERTEX
  8
RK-LAVAT
 10
0.0
 20
0.0
 30
0.0
 70
   128
 71
   250
 72
   313
 73
  -314
  0
VERTEX
  8
RK-LAVAT
 10
0.0
 20
0.0
 30
0.0
 70
   128
 71
   252
 72
  -251
 73
   315
  0
VERTEX
  8
RK-LAVAT
 10
0.0
 20
0.0
 30
0.0
 70
   128
 71
   251
 72
   314
 73
  -315
  0
VERTEX
  8
RK-LAVAT
 10
0.0
 20
0.0
 30
0.0
 70
   128
 71
   191
 72
  -252
 73
   254
  0
VERTEX
  8
RK-LAVAT
 10
0.0
 20
0.0
 30
0.0
 70
   128
 71
   252
 72
   315
 73
  -254
  0
VERTEX
  8
RK-LAVAT
 10
0.0
 20
0.0
 30
0.0
 70
   128
 71
   253
 72
  -254
 73
   316
  0
VERTEX
  8
RK-LAVAT
 10
0.0
 20
0.0
 30
0.0
 70
   128
 71
   254
 72
   317
 73
  -316
  0
VERTEX
  8
RK-LAVAT
 10
0.0
 20
0.0
 30
0.0
 70
   128
 71
   255
 72
  -253
 73
   318
  0
VERTEX
  8
RK-LAVAT
 10
0.0
 20
0.0
 30
0.0
 70
   128
 71
   253
 72
   316
 73
  -318
  0
VERTEX
  8
RK-LAVAT
 10
0.0
 20
0.0
 30
0.0
 70
   128
 71
   256
 72
  -255
 73
   319
  0
VERTEX
  8
RK-LAVAT
 10
0.0
 20
0.0
 30
0.0
 70
   128
 71
   255
 72
   318
 73
  -319
  0
VERTEX
  8
RK-LAVAT
 10
0.0
 20
0.0
 30
0.0
 70
   128
 71
   257
 72
  -256
 73
   320
  0
VERTEX
  8
RK-LAVAT
 10
0.0
 20
0.0
 30
0.0
 70
   128
 71
   256
 72
   319
 73
  -320
  0
VERTEX
  8
RK-LAVAT
 10
0.0
 20
0.0
 30
0.0
 70
   128
 71
   258
 72
  -257
 73
   321
  0
VERTEX
  8
RK-LAVAT
 10
0.0
 20
0.0
 30
0.0
 70
   128
 71
   257
 72
   320
 73
  -321
  0
VERTEX
  8
RK-LAVAT
 10
0.0
 20
0.0
 30
0.0
 70
   128
 71
   259
 72
  -258
 73
   322
  0
VERTEX
  8
RK-LAVAT
 10
0.0
 20
0.0
 30
0.0
 70
   128
 71
   258
 72
   321
 73
  -322
  0
VERTEX
  8
RK-LAVAT
 10
0.0
 20
0.0
 30
0.0
 70
   128
 71
   260
 72
  -259
 73
   323
  0
VERTEX
  8
RK-LAVAT
 10
0.0
 20
0.0
 30
0.0
 70
   128
 71
   259
 72
   322
 73
  -323
  0
VERTEX
  8
RK-LAVAT
 10
0.0
 20
0.0
 30
0.0
 70
   128
 71
   261
 72
  -260
 73
   324
  0
VERTEX
  8
RK-LAVAT
 10
0.0
 20
0.0
 30
0.0
 70
   128
 71
   260
 72
   323
 73
  -324
  0
VERTEX
  8
RK-LAVAT
 10
0.0
 20
0.0
 30
0.0
 70
   128
 71
   262
 72
  -261
 73
   325
  0
VERTEX
  8
RK-LAVAT
 10
0.0
 20
0.0
 30
0.0
 70
   128
 71
   261
 72
   324
 73
  -325
  0
VERTEX
  8
RK-LAVAT
 10
0.0
 20
0.0
 30
0.0
 70
   128
 71
   263
 72
  -262
 73
   326
  0
VERTEX
  8
RK-LAVAT
 10
0.0
 20
0.0
 30
0.0
 70
   128
 71
   262
 72
   325
 73
  -326
  0
VERTEX
  8
RK-LAVAT
 10
0.0
 20
0.0
 30
0.0
 70
   128
 71
   264
 72
  -263
 73
   327
  0
VERTEX
  8
RK-LAVAT
 10
0.0
 20
0.0
 30
0.0
 70
   128
 71
   263
 72
   326
 73
  -327
  0
VERTEX
  8
RK-LAVAT
 10
0.0
 20
0.0
 30
0.0
 70
   128
 71
   265
 72
  -264
 73
   328
  0
VERTEX
  8
RK-LAVAT
 10
0.0
 20
0.0
 30
0.0
 70
   128
 71
   264
 72
   327
 73
  -328
  0
VERTEX
  8
RK-LAVAT
 10
0.0
 20
0.0
 30
0.0
 70
   128
 71
   266
 72
  -265
 73
   329
  0
VERTEX
  8
RK-LAVAT
 10
0.0
 20
0.0
 30
0.0
 70
   128
 71
   265
 72
   328
 73
  -329
  0
VERTEX
  8
RK-LAVAT
 10
0.0
 20
0.0
 30
0.0
 70
   128
 71
   267
 72
  -266
 73
   330
  0
VERTEX
  8
RK-LAVAT
 10
0.0
 20
0.0
 30
0.0
 70
   128
 71
   266
 72
   329
 73
  -330
  0
VERTEX
  8
RK-LAVAT
 10
0.0
 20
0.0
 30
0.0
 70
   128
 71
   268
 72
  -267
 73
   331
  0
VERTEX
  8
RK-LAVAT
 10
0.0
 20
0.0
 30
0.0
 70
   128
 71
   267
 72
   330
 73
  -331
  0
VERTEX
  8
RK-LAVAT
 10
0.0
 20
0.0
 30
0.0
 70
   128
 71
   269
 72
  -268
 73
   332
  0
VERTEX
  8
RK-LAVAT
 10
0.0
 20
0.0
 30
0.0
 70
   128
 71
   268
 72
   331
 73
  -332
  0
VERTEX
  8
RK-LAVAT
 10
0.0
 20
0.0
 30
0.0
 70
   128
 71
   270
 72
  -269
 73
   333
  0
VERTEX
  8
RK-LAVAT
 10
0.0
 20
0.0
 30
0.0
 70
   128
 71
   269
 72
   332
 73
  -333
  0
VERTEX
  8
RK-LAVAT
 10
0.0
 20
0.0
 30
0.0
 70
   128
 71
   271
 72
  -270
 73
   334
  0
VERTEX
  8
RK-LAVAT
 10
0.0
 20
0.0
 30
0.0
 70
   128
 71
   270
 72
   333
 73
  -334
  0
VERTEX
  8
RK-LAVAT
 10
0.0
 20
0.0
 30
0.0
 70
   128
 71
   272
 72
  -271
 73
   335
  0
VERTEX
  8
RK-LAVAT
 10
0.0
 20
0.0
 30
0.0
 70
   128
 71
   271
 72
   334
 73
  -335
  0
VERTEX
  8
RK-LAVAT
 10
0.0
 20
0.0
 30
0.0
 70
   128
 71
   273
 72
  -272
 73
   336
  0
VERTEX
  8
RK-LAVAT
 10
0.0
 20
0.0
 30
0.0
 70
   128
 71
   272
 72
   335
 73
  -336
  0
VERTEX
  8
RK-LAVAT
 10
0.0
 20
0.0
 30
0.0
 70
   128
 71
   274
 72
  -273
 73
   337
  0
VERTEX
  8
RK-LAVAT
 10
0.0
 20
0.0
 30
0.0
 70
   128
 71
   273
 72
   336
 73
  -337
  0
VERTEX
  8
RK-LAVAT
 10
0.0
 20
0.0
 30
0.0
 70
   128
 71
   275
 72
  -274
 73
   338
  0
VERTEX
  8
RK-LAVAT
 10
0.0
 20
0.0
 30
0.0
 70
   128
 71
   274
 72
   337
 73
  -338
  0
VERTEX
  8
RK-LAVAT
 10
0.0
 20
0.0
 30
0.0
 70
   128
 71
   276
 72
  -275
 73
   339
  0
VERTEX
  8
RK-LAVAT
 10
0.0
 20
0.0
 30
0.0
 70
   128
 71
   275
 72
   338
 73
  -339
  0
VERTEX
  8
RK-LAVAT
 10
0.0
 20
0.0
 30
0.0
 70
   128
 71
   277
 72
  -276
 73
   340
  0
VERTEX
  8
RK-LAVAT
 10
0.0
 20
0.0
 30
0.0
 70
   128
 71
   276
 72
   339
 73
  -340
  0
VERTEX
  8
RK-LAVAT
 10
0.0
 20
0.0
 30
0.0
 70
   128
 71
   278
 72
  -277
 73
   341
  0
VERTEX
  8
RK-LAVAT
 10
0.0
 20
0.0
 30
0.0
 70
   128
 71
   277
 72
   340
 73
  -341
  0
VERTEX
  8
RK-LAVAT
 10
0.0
 20
0.0
 30
0.0
 70
   128
 71
   279
 72
  -278
 73
   342
  0
VERTEX
  8
RK-LAVAT
 10
0.0
 20
0.0
 30
0.0
 70
   128
 71
   278
 72
   341
 73
  -342
  0
VERTEX
  8
RK-LAVAT
 10
0.0
 20
0.0
 30
0.0
 70
   128
 71
   280
 72
  -279
 73
   343
  0
VERTEX
  8
RK-LAVAT
 10
0.0
 20
0.0
 30
0.0
 70
   128
 71
   279
 72
   342
 73
  -343
  0
VERTEX
  8
RK-LAVAT
 10
0.0
 20
0.0
 30
0.0
 70
   128
 71
   281
 72
  -280
 73
   344
  0
VERTEX
  8
RK-LAVAT
 10
0.0
 20
0.0
 30
0.0
 70
   128
 71
   280
 72
   343
 73
  -344
  0
VERTEX
  8
RK-LAVAT
 10
0.0
 20
0.0
 30
0.0
 70
   128
 71
   282
 72
  -281
 73
   345
  0
VERTEX
  8
RK-LAVAT
 10
0.0
 20
0.0
 30
0.0
 70
   128
 71
   281
 72
   344
 73
  -345
  0
VERTEX
  8
RK-LAVAT
 10
0.0
 20
0.0
 30
0.0
 70
   128
 71
   283
 72
  -282
 73
   346
  0
VERTEX
  8
RK-LAVAT
 10
0.0
 20
0.0
 30
0.0
 70
   128
 71
   282
 72
   345
 73
  -346
  0
VERTEX
  8
RK-LAVAT
 10
0.0
 20
0.0
 30
0.0
 70
   128
 71
   284
 72
  -283
 73
   347
  0
VERTEX
  8
RK-LAVAT
 10
0.0
 20
0.0
 30
0.0
 70
   128
 71
   283
 72
   346
 73
  -347
  0
VERTEX
  8
RK-LAVAT
 10
0.0
 20
0.0
 30
0.0
 70
   128
 71
   285
 72
  -284
 73
   348
  0
VERTEX
  8
RK-LAVAT
 10
0.0
 20
0.0
 30
0.0
 70
   128
 71
   284
 72
   347
 73
  -348
  0
VERTEX
  8
RK-LAVAT
 10
0.0
 20
0.0
 30
0.0
 70
   128
 71
   286
 72
  -285
 73
   349
  0
VERTEX
  8
RK-LAVAT
 10
0.0
 20
0.0
 30
0.0
 70
   128
 71
   285
 72
   348
 73
  -349
  0
VERTEX
  8
RK-LAVAT
 10
0.0
 20
0.0
 30
0.0
 70
   128
 71
   287
 72
  -286
 73
   350
  0
VERTEX
  8
RK-LAVAT
 10
0.0
 20
0.0
 30
0.0
 70
   128
 71
   286
 72
   349
 73
  -350
  0
VERTEX
  8
RK-LAVAT
 10
0.0
 20
0.0
 30
0.0
 70
   128
 71
   288
 72
  -287
 73
   351
  0
VERTEX
  8
RK-LAVAT
 10
0.0
 20
0.0
 30
0.0
 70
   128
 71
   287
 72
   350
 73
  -351
  0
VERTEX
  8
RK-LAVAT
 10
0.0
 20
0.0
 30
0.0
 70
   128
 71
   289
 72
  -288
 73
   352
  0
VERTEX
  8
RK-LAVAT
 10
0.0
 20
0.0
 30
0.0
 70
   128
 71
   288
 72
   351
 73
  -352
  0
VERTEX
  8
RK-LAVAT
 10
0.0
 20
0.0
 30
0.0
 70
   128
 71
   290
 72
  -289
 73
   353
  0
VERTEX
  8
RK-LAVAT
 10
0.0
 20
0.0
 30
0.0
 70
   128
 71
   289
 72
   352
 73
  -353
  0
VERTEX
  8
RK-LAVAT
 10
0.0
 20
0.0
 30
0.0
 70
   128
 71
   291
 72
  -290
 73
   354
  0
VERTEX
  8
RK-LAVAT
 10
0.0
 20
0.0
 30
0.0
 70
   128
 71
   290
 72
   353
 73
  -354
  0
VERTEX
  8
RK-LAVAT
 10
0.0
 20
0.0
 30
0.0
 70
   128
 71
   292
 72
  -291
 73
   355
  0
VERTEX
  8
RK-LAVAT
 10
0.0
 20
0.0
 30
0.0
 70
   128
 71
   291
 72
   354
 73
  -355
  0
VERTEX
  8
RK-LAVAT
 10
0.0
 20
0.0
 30
0.0
 70
   128
 71
   293
 72
  -292
 73
   356
  0
VERTEX
  8
RK-LAVAT
 10
0.0
 20
0.0
 30
0.0
 70
   128
 71
   292
 72
   355
 73
  -356
  0
VERTEX
  8
RK-LAVAT
 10
0.0
 20
0.0
 30
0.0
 70
   128
 71
   294
 72
  -293
 73
   357
  0
VERTEX
  8
RK-LAVAT
 10
0.0
 20
0.0
 30
0.0
 70
   128
 71
   293
 72
   356
 73
  -357
  0
VERTEX
  8
RK-LAVAT
 10
0.0
 20
0.0
 30
0.0
 70
   128
 71
   295
 72
  -294
 73
   358
  0
VERTEX
  8
RK-LAVAT
 10
0.0
 20
0.0
 30
0.0
 70
   128
 71
   294
 72
   357
 73
  -358
  0
VERTEX
  8
RK-LAVAT
 10
0.0
 20
0.0
 30
0.0
 70
   128
 71
   296
 72
  -295
 73
   359
  0
VERTEX
  8
RK-LAVAT
 10
0.0
 20
0.0
 30
0.0
 70
   128
 71
   295
 72
   358
 73
  -359
  0
VERTEX
  8
RK-LAVAT
 10
0.0
 20
0.0
 30
0.0
 70
   128
 71
   297
 72
  -296
 73
   360
  0
VERTEX
  8
RK-LAVAT
 10
0.0
 20
0.0
 30
0.0
 70
   128
 71
   296
 72
   359
 73
  -360
  0
VERTEX
  8
RK-LAVAT
 10
0.0
 20
0.0
 30
0.0
 70
   128
 71
   298
 72
  -297
 73
   361
  0
VERTEX
  8
RK-LAVAT
 10
0.0
 20
0.0
 30
0.0
 70
   128
 71
   297
 72
   360
 73
  -361
  0
VERTEX
  8
RK-LAVAT
 10
0.0
 20
0.0
 30
0.0
 70
   128
 71
   299
 72
  -298
 73
   362
  0
VERTEX
  8
RK-LAVAT
 10
0.0
 20
0.0
 30
0.0
 70
   128
 71
   298
 72
   361
 73
  -362
  0
VERTEX
  8
RK-LAVAT
 10
0.0
 20
0.0
 30
0.0
 70
   128
 71
   300
 72
  -299
 73
   363
  0
VERTEX
  8
RK-LAVAT
 10
0.0
 20
0.0
 30
0.0
 70
   128
 71
   299
 72
   362
 73
  -363
  0
VERTEX
  8
RK-LAVAT
 10
0.0
 20
0.0
 30
0.0
 70
   128
 71
   301
 72
  -300
 73
   364
  0
VERTEX
  8
RK-LAVAT
 10
0.0
 20
0.0
 30
0.0
 70
   128
 71
   300
 72
   363
 73
  -364
  0
VERTEX
  8
RK-LAVAT
 10
0.0
 20
0.0
 30
0.0
 70
   128
 71
   302
 72
  -301
 73
   365
  0
VERTEX
  8
RK-LAVAT
 10
0.0
 20
0.0
 30
0.0
 70
   128
 71
   301
 72
   364
 73
  -365
  0
VERTEX
  8
RK-LAVAT
 10
0.0
 20
0.0
 30
0.0
 70
   128
 71
   303
 72
  -302
 73
   366
  0
VERTEX
  8
RK-LAVAT
 10
0.0
 20
0.0
 30
0.0
 70
   128
 71
   302
 72
   365
 73
  -366
  0
VERTEX
  8
RK-LAVAT
 10
0.0
 20
0.0
 30
0.0
 70
   128
 71
   304
 72
  -303
 73
   367
  0
VERTEX
  8
RK-LAVAT
 10
0.0
 20
0.0
 30
0.0
 70
   128
 71
   303
 72
   366
 73
  -367
  0
VERTEX
  8
RK-LAVAT
 10
0.0
 20
0.0
 30
0.0
 70
   128
 71
   305
 72
  -304
 73
   368
  0
VERTEX
  8
RK-LAVAT
 10
0.0
 20
0.0
 30
0.0
 70
   128
 71
   304
 72
   367
 73
  -368
  0
VERTEX
  8
RK-LAVAT
 10
0.0
 20
0.0
 30
0.0
 70
   128
 71
   306
 72
  -305
 73
   369
  0
VERTEX
  8
RK-LAVAT
 10
0.0
 20
0.0
 30
0.0
 70
   128
 71
   305
 72
   368
 73
  -369
  0
VERTEX
  8
RK-LAVAT
 10
0.0
 20
0.0
 30
0.0
 70
   128
 71
   307
 72
  -306
 73
   370
  0
VERTEX
  8
RK-LAVAT
 10
0.0
 20
0.0
 30
0.0
 70
   128
 71
   306
 72
   369
 73
  -370
  0
VERTEX
  8
RK-LAVAT
 10
0.0
 20
0.0
 30
0.0
 70
   128
 71
   308
 72
  -307
 73
   371
  0
VERTEX
  8
RK-LAVAT
 10
0.0
 20
0.0
 30
0.0
 70
   128
 71
   307
 72
   370
 73
  -371
  0
VERTEX
  8
RK-LAVAT
 10
0.0
 20
0.0
 30
0.0
 70
   128
 71
   309
 72
  -308
 73
   372
  0
VERTEX
  8
RK-LAVAT
 10
0.0
 20
0.0
 30
0.0
 70
   128
 71
   308
 72
   371
 73
  -372
  0
VERTEX
  8
RK-LAVAT
 10
0.0
 20
0.0
 30
0.0
 70
   128
 71
   310
 72
  -309
 73
   373
  0
VERTEX
  8
RK-LAVAT
 10
0.0
 20
0.0
 30
0.0
 70
   128
 71
   309
 72
   372
 73
  -373
  0
VERTEX
  8
RK-LAVAT
 10
0.0
 20
0.0
 30
0.0
 70
   128
 71
   311
 72
  -310
 73
   374
  0
VERTEX
  8
RK-LAVAT
 10
0.0
 20
0.0
 30
0.0
 70
   128
 71
   310
 72
   373
 73
  -374
  0
VERTEX
  8
RK-LAVAT
 10
0.0
 20
0.0
 30
0.0
 70
   128
 71
   312
 72
  -311
 73
   375
  0
VERTEX
  8
RK-LAVAT
 10
0.0
 20
0.0
 30
0.0
 70
   128
 71
   311
 72
   374
 73
  -375
  0
VERTEX
  8
RK-LAVAT
 10
0.0
 20
0.0
 30
0.0
 70
   128
 71
   313
 72
  -312
 73
   376
  0
VERTEX
  8
RK-LAVAT
 10
0.0
 20
0.0
 30
0.0
 70
   128
 71
   312
 72
   375
 73
  -376
  0
VERTEX
  8
RK-LAVAT
 10
0.0
 20
0.0
 30
0.0
 70
   128
 71
   314
 72
  -313
 73
   377
  0
VERTEX
  8
RK-LAVAT
 10
0.0
 20
0.0
 30
0.0
 70
   128
 71
   313
 72
   376
 73
  -377
  0
VERTEX
  8
RK-LAVAT
 10
0.0
 20
0.0
 30
0.0
 70
   128
 71
   315
 72
  -314
 73
   378
  0
VERTEX
  8
RK-LAVAT
 10
0.0
 20
0.0
 30
0.0
 70
   128
 71
   314
 72
   377
 73
  -378
  0
VERTEX
  8
RK-LAVAT
 10
0.0
 20
0.0
 30
0.0
 70
   128
 71
   254
 72
  -315
 73
   317
  0
VERTEX
  8
RK-LAVAT
 10
0.0
 20
0.0
 30
0.0
 70
   128
 71
   315
 72
   378
 73
  -317
  0
VERTEX
  8
RK-LAVAT
 10
0.0
 20
0.0
 30
0.0
 70
   128
 71
   316
 72
  -317
 73
   379
  0
VERTEX
  8
RK-LAVAT
 10
0.0
 20
0.0
 30
0.0
 70
   128
 71
   317
 72
   380
 73
  -379
  0
VERTEX
  8
RK-LAVAT
 10
0.0
 20
0.0
 30
0.0
 70
   128
 71
   318
 72
  -316
 73
   381
  0
VERTEX
  8
RK-LAVAT
 10
0.0
 20
0.0
 30
0.0
 70
   128
 71
   316
 72
   379
 73
  -381
  0
VERTEX
  8
RK-LAVAT
 10
0.0
 20
0.0
 30
0.0
 70
   128
 71
   319
 72
  -318
 73
   382
  0
VERTEX
  8
RK-LAVAT
 10
0.0
 20
0.0
 30
0.0
 70
   128
 71
   318
 72
   381
 73
  -382
  0
VERTEX
  8
RK-LAVAT
 10
0.0
 20
0.0
 30
0.0
 70
   128
 71
   320
 72
  -319
 73
   383
  0
VERTEX
  8
RK-LAVAT
 10
0.0
 20
0.0
 30
0.0
 70
   128
 71
   319
 72
   382
 73
  -383
  0
VERTEX
  8
RK-LAVAT
 10
0.0
 20
0.0
 30
0.0
 70
   128
 71
   321
 72
  -320
 73
   384
  0
VERTEX
  8
RK-LAVAT
 10
0.0
 20
0.0
 30
0.0
 70
   128
 71
   320
 72
   383
 73
  -384
  0
VERTEX
  8
RK-LAVAT
 10
0.0
 20
0.0
 30
0.0
 70
   128
 71
   322
 72
  -321
 73
   385
  0
VERTEX
  8
RK-LAVAT
 10
0.0
 20
0.0
 30
0.0
 70
   128
 71
   321
 72
   384
 73
  -385
  0
VERTEX
  8
RK-LAVAT
 10
0.0
 20
0.0
 30
0.0
 70
   128
 71
   323
 72
  -322
 73
   386
  0
VERTEX
  8
RK-LAVAT
 10
0.0
 20
0.0
 30
0.0
 70
   128
 71
   322
 72
   385
 73
  -386
  0
VERTEX
  8
RK-LAVAT
 10
0.0
 20
0.0
 30
0.0
 70
   128
 71
   324
 72
  -323
 73
   387
  0
VERTEX
  8
RK-LAVAT
 10
0.0
 20
0.0
 30
0.0
 70
   128
 71
   323
 72
   386
 73
  -387
  0
VERTEX
  8
RK-LAVAT
 10
0.0
 20
0.0
 30
0.0
 70
   128
 71
   325
 72
  -324
 73
   388
  0
VERTEX
  8
RK-LAVAT
 10
0.0
 20
0.0
 30
0.0
 70
   128
 71
   324
 72
   387
 73
  -388
  0
VERTEX
  8
RK-LAVAT
 10
0.0
 20
0.0
 30
0.0
 70
   128
 71
   326
 72
  -325
 73
   389
  0
VERTEX
  8
RK-LAVAT
 10
0.0
 20
0.0
 30
0.0
 70
   128
 71
   325
 72
   388
 73
  -389
  0
VERTEX
  8
RK-LAVAT
 10
0.0
 20
0.0
 30
0.0
 70
   128
 71
   327
 72
  -326
 73
   390
  0
VERTEX
  8
RK-LAVAT
 10
0.0
 20
0.0
 30
0.0
 70
   128
 71
   326
 72
   389
 73
  -390
  0
VERTEX
  8
RK-LAVAT
 10
0.0
 20
0.0
 30
0.0
 70
   128
 71
   328
 72
  -327
 73
   391
  0
VERTEX
  8
RK-LAVAT
 10
0.0
 20
0.0
 30
0.0
 70
   128
 71
   327
 72
   390
 73
  -391
  0
VERTEX
  8
RK-LAVAT
 10
0.0
 20
0.0
 30
0.0
 70
   128
 71
   329
 72
  -328
 73
   392
  0
VERTEX
  8
RK-LAVAT
 10
0.0
 20
0.0
 30
0.0
 70
   128
 71
   328
 72
   391
 73
  -392
  0
VERTEX
  8
RK-LAVAT
 10
0.0
 20
0.0
 30
0.0
 70
   128
 71
   330
 72
  -329
 73
   393
  0
VERTEX
  8
RK-LAVAT
 10
0.0
 20
0.0
 30
0.0
 70
   128
 71
   329
 72
   392
 73
  -393
  0
VERTEX
  8
RK-LAVAT
 10
0.0
 20
0.0
 30
0.0
 70
   128
 71
   331
 72
  -330
 73
   394
  0
VERTEX
  8
RK-LAVAT
 10
0.0
 20
0.0
 30
0.0
 70
   128
 71
   330
 72
   393
 73
  -394
  0
VERTEX
  8
RK-LAVAT
 10
0.0
 20
0.0
 30
0.0
 70
   128
 71
   332
 72
  -331
 73
   395
  0
VERTEX
  8
RK-LAVAT
 10
0.0
 20
0.0
 30
0.0
 70
   128
 71
   331
 72
   394
 73
  -395
  0
VERTEX
  8
RK-LAVAT
 10
0.0
 20
0.0
 30
0.0
 70
   128
 71
   333
 72
  -332
 73
   396
  0
VERTEX
  8
RK-LAVAT
 10
0.0
 20
0.0
 30
0.0
 70
   128
 71
   332
 72
   395
 73
  -396
  0
VERTEX
  8
RK-LAVAT
 10
0.0
 20
0.0
 30
0.0
 70
   128
 71
   334
 72
  -333
 73
   397
  0
VERTEX
  8
RK-LAVAT
 10
0.0
 20
0.0
 30
0.0
 70
   128
 71
   333
 72
   396
 73
  -397
  0
VERTEX
  8
RK-LAVAT
 10
0.0
 20
0.0
 30
0.0
 70
   128
 71
   335
 72
  -334
 73
   398
  0
VERTEX
  8
RK-LAVAT
 10
0.0
 20
0.0
 30
0.0
 70
   128
 71
   334
 72
   397
 73
  -398
  0
VERTEX
  8
RK-LAVAT
 10
0.0
 20
0.0
 30
0.0
 70
   128
 71
   336
 72
  -335
 73
   399
  0
VERTEX
  8
RK-LAVAT
 10
0.0
 20
0.0
 30
0.0
 70
   128
 71
   335
 72
   398
 73
  -399
  0
VERTEX
  8
RK-LAVAT
 10
0.0
 20
0.0
 30
0.0
 70
   128
 71
   337
 72
  -336
 73
   400
  0
VERTEX
  8
RK-LAVAT
 10
0.0
 20
0.0
 30
0.0
 70
   128
 71
   336
 72
   399
 73
  -400
  0
VERTEX
  8
RK-LAVAT
 10
0.0
 20
0.0
 30
0.0
 70
   128
 71
   338
 72
  -337
 73
   401
  0
VERTEX
  8
RK-LAVAT
 10
0.0
 20
0.0
 30
0.0
 70
   128
 71
   337
 72
   400
 73
  -401
  0
VERTEX
  8
RK-LAVAT
 10
0.0
 20
0.0
 30
0.0
 70
   128
 71
   339
 72
  -338
 73
   402
  0
VERTEX
  8
RK-LAVAT
 10
0.0
 20
0.0
 30
0.0
 70
   128
 71
   338
 72
   401
 73
  -402
  0
VERTEX
  8
RK-LAVAT
 10
0.0
 20
0.0
 30
0.0
 70
   128
 71
   340
 72
  -339
 73
   403
  0
VERTEX
  8
RK-LAVAT
 10
0.0
 20
0.0
 30
0.0
 70
   128
 71
   339
 72
   402
 73
  -403
  0
VERTEX
  8
RK-LAVAT
 10
0.0
 20
0.0
 30
0.0
 70
   128
 71
   341
 72
  -340
 73
   404
  0
VERTEX
  8
RK-LAVAT
 10
0.0
 20
0.0
 30
0.0
 70
   128
 71
   340
 72
   403
 73
  -404
  0
VERTEX
  8
RK-LAVAT
 10
0.0
 20
0.0
 30
0.0
 70
   128
 71
   342
 72
  -341
 73
   405
  0
VERTEX
  8
RK-LAVAT
 10
0.0
 20
0.0
 30
0.0
 70
   128
 71
   341
 72
   404
 73
  -405
  0
VERTEX
  8
RK-LAVAT
 10
0.0
 20
0.0
 30
0.0
 70
   128
 71
   343
 72
  -342
 73
   406
  0
VERTEX
  8
RK-LAVAT
 10
0.0
 20
0.0
 30
0.0
 70
   128
 71
   342
 72
   405
 73
  -406
  0
VERTEX
  8
RK-LAVAT
 10
0.0
 20
0.0
 30
0.0
 70
   128
 71
   344
 72
  -343
 73
   407
  0
VERTEX
  8
RK-LAVAT
 10
0.0
 20
0.0
 30
0.0
 70
   128
 71
   343
 72
   406
 73
  -407
  0
VERTEX
  8
RK-LAVAT
 10
0.0
 20
0.0
 30
0.0
 70
   128
 71
   345
 72
  -344
 73
   408
  0
VERTEX
  8
RK-LAVAT
 10
0.0
 20
0.0
 30
0.0
 70
   128
 71
   344
 72
   407
 73
  -408
  0
VERTEX
  8
RK-LAVAT
 10
0.0
 20
0.0
 30
0.0
 70
   128
 71
   346
 72
  -345
 73
   409
  0
VERTEX
  8
RK-LAVAT
 10
0.0
 20
0.0
 30
0.0
 70
   128
 71
   345
 72
   408
 73
  -409
  0
VERTEX
  8
RK-LAVAT
 10
0.0
 20
0.0
 30
0.0
 70
   128
 71
   347
 72
  -346
 73
   410
  0
VERTEX
  8
RK-LAVAT
 10
0.0
 20
0.0
 30
0.0
 70
   128
 71
   346
 72
   409
 73
  -410
  0
VERTEX
  8
RK-LAVAT
 10
0.0
 20
0.0
 30
0.0
 70
   128
 71
   348
 72
  -347
 73
   411
  0
VERTEX
  8
RK-LAVAT
 10
0.0
 20
0.0
 30
0.0
 70
   128
 71
   347
 72
   410
 73
  -411
  0
VERTEX
  8
RK-LAVAT
 10
0.0
 20
0.0
 30
0.0
 70
   128
 71
   349
 72
  -348
 73
   412
  0
VERTEX
  8
RK-LAVAT
 10
0.0
 20
0.0
 30
0.0
 70
   128
 71
   348
 72
   411
 73
  -412
  0
VERTEX
  8
RK-LAVAT
 10
0.0
 20
0.0
 30
0.0
 70
   128
 71
   350
 72
  -349
 73
   413
  0
VERTEX
  8
RK-LAVAT
 10
0.0
 20
0.0
 30
0.0
 70
   128
 71
   349
 72
   412
 73
  -413
  0
VERTEX
  8
RK-LAVAT
 10
0.0
 20
0.0
 30
0.0
 70
   128
 71
   351
 72
  -350
 73
   414
  0
VERTEX
  8
RK-LAVAT
 10
0.0
 20
0.0
 30
0.0
 70
   128
 71
   350
 72
   413
 73
  -414
  0
VERTEX
  8
RK-LAVAT
 10
0.0
 20
0.0
 30
0.0
 70
   128
 71
   352
 72
  -351
 73
   415
  0
VERTEX
  8
RK-LAVAT
 10
0.0
 20
0.0
 30
0.0
 70
   128
 71
   351
 72
   414
 73
  -415
  0
VERTEX
  8
RK-LAVAT
 10
0.0
 20
0.0
 30
0.0
 70
   128
 71
   353
 72
  -352
 73
   416
  0
VERTEX
  8
RK-LAVAT
 10
0.0
 20
0.0
 30
0.0
 70
   128
 71
   352
 72
   415
 73
  -416
  0
VERTEX
  8
RK-LAVAT
 10
0.0
 20
0.0
 30
0.0
 70
   128
 71
   354
 72
  -353
 73
   417
  0
VERTEX
  8
RK-LAVAT
 10
0.0
 20
0.0
 30
0.0
 70
   128
 71
   353
 72
   416
 73
  -417
  0
VERTEX
  8
RK-LAVAT
 10
0.0
 20
0.0
 30
0.0
 70
   128
 71
   355
 72
  -354
 73
   418
  0
VERTEX
  8
RK-LAVAT
 10
0.0
 20
0.0
 30
0.0
 70
   128
 71
   354
 72
   417
 73
  -418
  0
VERTEX
  8
RK-LAVAT
 10
0.0
 20
0.0
 30
0.0
 70
   128
 71
   356
 72
  -355
 73
   419
  0
VERTEX
  8
RK-LAVAT
 10
0.0
 20
0.0
 30
0.0
 70
   128
 71
   355
 72
   418
 73
  -419
  0
VERTEX
  8
RK-LAVAT
 10
0.0
 20
0.0
 30
0.0
 70
   128
 71
   357
 72
  -356
 73
   420
  0
VERTEX
  8
RK-LAVAT
 10
0.0
 20
0.0
 30
0.0
 70
   128
 71
   356
 72
   419
 73
  -420
  0
VERTEX
  8
RK-LAVAT
 10
0.0
 20
0.0
 30
0.0
 70
   128
 71
   358
 72
  -357
 73
   421
  0
VERTEX
  8
RK-LAVAT
 10
0.0
 20
0.0
 30
0.0
 70
   128
 71
   357
 72
   420
 73
  -421
  0
VERTEX
  8
RK-LAVAT
 10
0.0
 20
0.0
 30
0.0
 70
   128
 71
   359
 72
  -358
 73
   422
  0
VERTEX
  8
RK-LAVAT
 10
0.0
 20
0.0
 30
0.0
 70
   128
 71
   358
 72
   421
 73
  -422
  0
VERTEX
  8
RK-LAVAT
 10
0.0
 20
0.0
 30
0.0
 70
   128
 71
   360
 72
  -359
 73
   423
  0
VERTEX
  8
RK-LAVAT
 10
0.0
 20
0.0
 30
0.0
 70
   128
 71
   359
 72
   422
 73
  -423
  0
VERTEX
  8
RK-LAVAT
 10
0.0
 20
0.0
 30
0.0
 70
   128
 71
   361
 72
  -360
 73
   424
  0
VERTEX
  8
RK-LAVAT
 10
0.0
 20
0.0
 30
0.0
 70
   128
 71
   360
 72
   423
 73
  -424
  0
VERTEX
  8
RK-LAVAT
 10
0.0
 20
0.0
 30
0.0
 70
   128
 71
   362
 72
  -361
 73
   425
  0
VERTEX
  8
RK-LAVAT
 10
0.0
 20
0.0
 30
0.0
 70
   128
 71
   361
 72
   424
 73
  -425
  0
VERTEX
  8
RK-LAVAT
 10
0.0
 20
0.0
 30
0.0
 70
   128
 71
   363
 72
  -362
 73
   426
  0
VERTEX
  8
RK-LAVAT
 10
0.0
 20
0.0
 30
0.0
 70
   128
 71
   362
 72
   425
 73
  -426
  0
VERTEX
  8
RK-LAVAT
 10
0.0
 20
0.0
 30
0.0
 70
   128
 71
   364
 72
  -363
 73
   427
  0
VERTEX
  8
RK-LAVAT
 10
0.0
 20
0.0
 30
0.0
 70
   128
 71
   363
 72
   426
 73
  -427
  0
VERTEX
  8
RK-LAVAT
 10
0.0
 20
0.0
 30
0.0
 70
   128
 71
   365
 72
  -364
 73
   428
  0
VERTEX
  8
RK-LAVAT
 10
0.0
 20
0.0
 30
0.0
 70
   128
 71
   364
 72
   427
 73
  -428
  0
VERTEX
  8
RK-LAVAT
 10
0.0
 20
0.0
 30
0.0
 70
   128
 71
   366
 72
  -365
 73
   429
  0
VERTEX
  8
RK-LAVAT
 10
0.0
 20
0.0
 30
0.0
 70
   128
 71
   365
 72
   428
 73
  -429
  0
VERTEX
  8
RK-LAVAT
 10
0.0
 20
0.0
 30
0.0
 70
   128
 71
   367
 72
  -366
 73
   430
  0
VERTEX
  8
RK-LAVAT
 10
0.0
 20
0.0
 30
0.0
 70
   128
 71
   366
 72
   429
 73
  -430
  0
VERTEX
  8
RK-LAVAT
 10
0.0
 20
0.0
 30
0.0
 70
   128
 71
   368
 72
  -367
 73
   431
  0
VERTEX
  8
RK-LAVAT
 10
0.0
 20
0.0
 30
0.0
 70
   128
 71
   367
 72
   430
 73
  -431
  0
VERTEX
  8
RK-LAVAT
 10
0.0
 20
0.0
 30
0.0
 70
   128
 71
   369
 72
  -368
 73
   432
  0
VERTEX
  8
RK-LAVAT
 10
0.0
 20
0.0
 30
0.0
 70
   128
 71
   368
 72
   431
 73
  -432
  0
VERTEX
  8
RK-LAVAT
 10
0.0
 20
0.0
 30
0.0
 70
   128
 71
   370
 72
  -369
 73
   433
  0
VERTEX
  8
RK-LAVAT
 10
0.0
 20
0.0
 30
0.0
 70
   128
 71
   369
 72
   432
 73
  -433
  0
VERTEX
  8
RK-LAVAT
 10
0.0
 20
0.0
 30
0.0
 70
   128
 71
   371
 72
  -370
 73
   434
  0
VERTEX
  8
RK-LAVAT
 10
0.0
 20
0.0
 30
0.0
 70
   128
 71
   370
 72
   433
 73
  -434
  0
VERTEX
  8
RK-LAVAT
 10
0.0
 20
0.0
 30
0.0
 70
   128
 71
   372
 72
  -371
 73
   435
  0
VERTEX
  8
RK-LAVAT
 10
0.0
 20
0.0
 30
0.0
 70
   128
 71
   371
 72
   434
 73
  -435
  0
VERTEX
  8
RK-LAVAT
 10
0.0
 20
0.0
 30
0.0
 70
   128
 71
   373
 72
  -372
 73
   436
  0
VERTEX
  8
RK-LAVAT
 10
0.0
 20
0.0
 30
0.0
 70
   128
 71
   372
 72
   435
 73
  -436
  0
VERTEX
  8
RK-LAVAT
 10
0.0
 20
0.0
 30
0.0
 70
   128
 71
   374
 72
  -373
 73
   437
  0
VERTEX
  8
RK-LAVAT
 10
0.0
 20
0.0
 30
0.0
 70
   128
 71
   373
 72
   436
 73
  -437
  0
VERTEX
  8
RK-LAVAT
 10
0.0
 20
0.0
 30
0.0
 70
   128
 71
   375
 72
  -374
 73
   438
  0
VERTEX
  8
RK-LAVAT
 10
0.0
 20
0.0
 30
0.0
 70
   128
 71
   374
 72
   437
 73
  -438
  0
VERTEX
  8
RK-LAVAT
 10
0.0
 20
0.0
 30
0.0
 70
   128
 71
   376
 72
  -375
 73
   439
  0
VERTEX
  8
RK-LAVAT
 10
0.0
 20
0.0
 30
0.0
 70
   128
 71
   375
 72
   438
 73
  -439
  0
VERTEX
  8
RK-LAVAT
 10
0.0
 20
0.0
 30
0.0
 70
   128
 71
   377
 72
  -376
 73
   440
  0
VERTEX
  8
RK-LAVAT
 10
0.0
 20
0.0
 30
0.0
 70
   128
 71
   376
 72
   439
 73
  -440
  0
VERTEX
  8
RK-LAVAT
 10
0.0
 20
0.0
 30
0.0
 70
   128
 71
   378
 72
  -377
 73
   441
  0
VERTEX
  8
RK-LAVAT
 10
0.0
 20
0.0
 30
0.0
 70
   128
 71
   377
 72
   440
 73
  -441
  0
VERTEX
  8
RK-LAVAT
 10
0.0
 20
0.0
 30
0.0
 70
   128
 71
   317
 72
  -378
 73
   380
  0
VERTEX
  8
RK-LAVAT
 10
0.0
 20
0.0
 30
0.0
 70
   128
 71
   378
 72
   441
 73
  -380
  0
VERTEX
  8
RK-LAVAT
 10
0.0
 20
0.0
 30
0.0
 70
   128
 71
   379
 72
  -380
 73
   442
  0
VERTEX
  8
RK-LAVAT
 10
0.0
 20
0.0
 30
0.0
 70
   128
 71
   380
 72
   443
 73
  -442
  0
VERTEX
  8
RK-LAVAT
 10
0.0
 20
0.0
 30
0.0
 70
   128
 71
   381
 72
  -379
 73
   444
  0
VERTEX
  8
RK-LAVAT
 10
0.0
 20
0.0
 30
0.0
 70
   128
 71
   379
 72
   442
 73
  -444
  0
VERTEX
  8
RK-LAVAT
 10
0.0
 20
0.0
 30
0.0
 70
   128
 71
   382
 72
  -381
 73
   445
  0
VERTEX
  8
RK-LAVAT
 10
0.0
 20
0.0
 30
0.0
 70
   128
 71
   381
 72
   444
 73
  -445
  0
VERTEX
  8
RK-LAVAT
 10
0.0
 20
0.0
 30
0.0
 70
   128
 71
   383
 72
  -382
 73
   446
  0
VERTEX
  8
RK-LAVAT
 10
0.0
 20
0.0
 30
0.0
 70
   128
 71
   382
 72
   445
 73
  -446
  0
VERTEX
  8
RK-LAVAT
 10
0.0
 20
0.0
 30
0.0
 70
   128
 71
   384
 72
  -383
 73
   447
  0
VERTEX
  8
RK-LAVAT
 10
0.0
 20
0.0
 30
0.0
 70
   128
 71
   383
 72
   446
 73
  -447
  0
VERTEX
  8
RK-LAVAT
 10
0.0
 20
0.0
 30
0.0
 70
   128
 71
   385
 72
  -384
 73
   448
  0
VERTEX
  8
RK-LAVAT
 10
0.0
 20
0.0
 30
0.0
 70
   128
 71
   384
 72
   447
 73
  -448
  0
VERTEX
  8
RK-LAVAT
 10
0.0
 20
0.0
 30
0.0
 70
   128
 71
   386
 72
  -385
 73
   449
  0
VERTEX
  8
RK-LAVAT
 10
0.0
 20
0.0
 30
0.0
 70
   128
 71
   385
 72
   448
 73
  -449
  0
VERTEX
  8
RK-LAVAT
 10
0.0
 20
0.0
 30
0.0
 70
   128
 71
   387
 72
  -386
 73
   450
  0
VERTEX
  8
RK-LAVAT
 10
0.0
 20
0.0
 30
0.0
 70
   128
 71
   386
 72
   449
 73
  -450
  0
VERTEX
  8
RK-LAVAT
 10
0.0
 20
0.0
 30
0.0
 70
   128
 71
   388
 72
  -387
 73
   451
  0
VERTEX
  8
RK-LAVAT
 10
0.0
 20
0.0
 30
0.0
 70
   128
 71
   387
 72
   450
 73
  -451
  0
VERTEX
  8
RK-LAVAT
 10
0.0
 20
0.0
 30
0.0
 70
   128
 71
   389
 72
  -388
 73
   452
  0
VERTEX
  8
RK-LAVAT
 10
0.0
 20
0.0
 30
0.0
 70
   128
 71
   388
 72
   451
 73
  -452
  0
VERTEX
  8
RK-LAVAT
 10
0.0
 20
0.0
 30
0.0
 70
   128
 71
   390
 72
  -389
 73
   453
  0
VERTEX
  8
RK-LAVAT
 10
0.0
 20
0.0
 30
0.0
 70
   128
 71
   389
 72
   452
 73
  -453
  0
VERTEX
  8
RK-LAVAT
 10
0.0
 20
0.0
 30
0.0
 70
   128
 71
   391
 72
  -390
 73
   454
  0
VERTEX
  8
RK-LAVAT
 10
0.0
 20
0.0
 30
0.0
 70
   128
 71
   390
 72
   453
 73
  -454
  0
VERTEX
  8
RK-LAVAT
 10
0.0
 20
0.0
 30
0.0
 70
   128
 71
   392
 72
  -391
 73
   455
  0
VERTEX
  8
RK-LAVAT
 10
0.0
 20
0.0
 30
0.0
 70
   128
 71
   391
 72
   454
 73
  -455
  0
VERTEX
  8
RK-LAVAT
 10
0.0
 20
0.0
 30
0.0
 70
   128
 71
   393
 72
  -392
 73
   456
  0
VERTEX
  8
RK-LAVAT
 10
0.0
 20
0.0
 30
0.0
 70
   128
 71
   392
 72
   455
 73
  -456
  0
VERTEX
  8
RK-LAVAT
 10
0.0
 20
0.0
 30
0.0
 70
   128
 71
   394
 72
  -393
 73
   457
  0
VERTEX
  8
RK-LAVAT
 10
0.0
 20
0.0
 30
0.0
 70
   128
 71
   393
 72
   456
 73
  -457
  0
VERTEX
  8
RK-LAVAT
 10
0.0
 20
0.0
 30
0.0
 70
   128
 71
   395
 72
  -394
 73
   458
  0
VERTEX
  8
RK-LAVAT
 10
0.0
 20
0.0
 30
0.0
 70
   128
 71
   394
 72
   457
 73
  -458
  0
VERTEX
  8
RK-LAVAT
 10
0.0
 20
0.0
 30
0.0
 70
   128
 71
   396
 72
  -395
 73
   459
  0
VERTEX
  8
RK-LAVAT
 10
0.0
 20
0.0
 30
0.0
 70
   128
 71
   395
 72
   458
 73
  -459
  0
VERTEX
  8
RK-LAVAT
 10
0.0
 20
0.0
 30
0.0
 70
   128
 71
   397
 72
  -396
 73
   460
  0
VERTEX
  8
RK-LAVAT
 10
0.0
 20
0.0
 30
0.0
 70
   128
 71
   396
 72
   459
 73
  -460
  0
VERTEX
  8
RK-LAVAT
 10
0.0
 20
0.0
 30
0.0
 70
   128
 71
   398
 72
  -397
 73
   461
  0
VERTEX
  8
RK-LAVAT
 10
0.0
 20
0.0
 30
0.0
 70
   128
 71
   397
 72
   460
 73
  -461
  0
VERTEX
  8
RK-LAVAT
 10
0.0
 20
0.0
 30
0.0
 70
   128
 71
   399
 72
  -398
 73
   462
  0
VERTEX
  8
RK-LAVAT
 10
0.0
 20
0.0
 30
0.0
 70
   128
 71
   398
 72
   461
 73
  -462
  0
VERTEX
  8
RK-LAVAT
 10
0.0
 20
0.0
 30
0.0
 70
   128
 71
   400
 72
  -399
 73
   463
  0
VERTEX
  8
RK-LAVAT
 10
0.0
 20
0.0
 30
0.0
 70
   128
 71
   399
 72
   462
 73
  -463
  0
VERTEX
  8
RK-LAVAT
 10
0.0
 20
0.0
 30
0.0
 70
   128
 71
   401
 72
  -400
 73
   464
  0
VERTEX
  8
RK-LAVAT
 10
0.0
 20
0.0
 30
0.0
 70
   128
 71
   400
 72
   463
 73
  -464
  0
VERTEX
  8
RK-LAVAT
 10
0.0
 20
0.0
 30
0.0
 70
   128
 71
   402
 72
  -401
 73
   465
  0
VERTEX
  8
RK-LAVAT
 10
0.0
 20
0.0
 30
0.0
 70
   128
 71
   401
 72
   464
 73
  -465
  0
VERTEX
  8
RK-LAVAT
 10
0.0
 20
0.0
 30
0.0
 70
   128
 71
   403
 72
  -402
 73
   466
  0
VERTEX
  8
RK-LAVAT
 10
0.0
 20
0.0
 30
0.0
 70
   128
 71
   402
 72
   465
 73
  -466
  0
VERTEX
  8
RK-LAVAT
 10
0.0
 20
0.0
 30
0.0
 70
   128
 71
   404
 72
  -403
 73
   467
  0
VERTEX
  8
RK-LAVAT
 10
0.0
 20
0.0
 30
0.0
 70
   128
 71
   403
 72
   466
 73
  -467
  0
VERTEX
  8
RK-LAVAT
 10
0.0
 20
0.0
 30
0.0
 70
   128
 71
   405
 72
  -404
 73
   468
  0
VERTEX
  8
RK-LAVAT
 10
0.0
 20
0.0
 30
0.0
 70
   128
 71
   404
 72
   467
 73
  -468
  0
VERTEX
  8
RK-LAVAT
 10
0.0
 20
0.0
 30
0.0
 70
   128
 71
   406
 72
  -405
 73
   469
  0
VERTEX
  8
RK-LAVAT
 10
0.0
 20
0.0
 30
0.0
 70
   128
 71
   405
 72
   468
 73
  -469
  0
VERTEX
  8
RK-LAVAT
 10
0.0
 20
0.0
 30
0.0
 70
   128
 71
   407
 72
  -406
 73
   470
  0
VERTEX
  8
RK-LAVAT
 10
0.0
 20
0.0
 30
0.0
 70
   128
 71
   406
 72
   469
 73
  -470
  0
VERTEX
  8
RK-LAVAT
 10
0.0
 20
0.0
 30
0.0
 70
   128
 71
   408
 72
  -407
 73
   471
  0
VERTEX
  8
RK-LAVAT
 10
0.0
 20
0.0
 30
0.0
 70
   128
 71
   407
 72
   470
 73
  -471
  0
VERTEX
  8
RK-LAVAT
 10
0.0
 20
0.0
 30
0.0
 70
   128
 71
   409
 72
  -408
 73
   472
  0
VERTEX
  8
RK-LAVAT
 10
0.0
 20
0.0
 30
0.0
 70
   128
 71
   408
 72
   471
 73
  -472
  0
VERTEX
  8
RK-LAVAT
 10
0.0
 20
0.0
 30
0.0
 70
   128
 71
   410
 72
  -409
 73
   473
  0
VERTEX
  8
RK-LAVAT
 10
0.0
 20
0.0
 30
0.0
 70
   128
 71
   409
 72
   472
 73
  -473
  0
VERTEX
  8
RK-LAVAT
 10
0.0
 20
0.0
 30
0.0
 70
   128
 71
   411
 72
  -410
 73
   474
  0
VERTEX
  8
RK-LAVAT
 10
0.0
 20
0.0
 30
0.0
 70
   128
 71
   410
 72
   473
 73
  -474
  0
VERTEX
  8
RK-LAVAT
 10
0.0
 20
0.0
 30
0.0
 70
   128
 71
   412
 72
  -411
 73
   475
  0
VERTEX
  8
RK-LAVAT
 10
0.0
 20
0.0
 30
0.0
 70
   128
 71
   411
 72
   474
 73
  -475
  0
VERTEX
  8
RK-LAVAT
 10
0.0
 20
0.0
 30
0.0
 70
   128
 71
   413
 72
  -412
 73
   476
  0
VERTEX
  8
RK-LAVAT
 10
0.0
 20
0.0
 30
0.0
 70
   128
 71
   412
 72
   475
 73
  -476
  0
VERTEX
  8
RK-LAVAT
 10
0.0
 20
0.0
 30
0.0
 70
   128
 71
   414
 72
  -413
 73
   477
  0
VERTEX
  8
RK-LAVAT
 10
0.0
 20
0.0
 30
0.0
 70
   128
 71
   413
 72
   476
 73
  -477
  0
VERTEX
  8
RK-LAVAT
 10
0.0
 20
0.0
 30
0.0
 70
   128
 71
   415
 72
  -414
 73
   478
  0
VERTEX
  8
RK-LAVAT
 10
0.0
 20
0.0
 30
0.0
 70
   128
 71
   414
 72
   477
 73
  -478
  0
VERTEX
  8
RK-LAVAT
 10
0.0
 20
0.0
 30
0.0
 70
   128
 71
   416
 72
  -415
 73
   479
  0
VERTEX
  8
RK-LAVAT
 10
0.0
 20
0.0
 30
0.0
 70
   128
 71
   415
 72
   478
 73
  -479
  0
VERTEX
  8
RK-LAVAT
 10
0.0
 20
0.0
 30
0.0
 70
   128
 71
   417
 72
  -416
 73
   480
  0
VERTEX
  8
RK-LAVAT
 10
0.0
 20
0.0
 30
0.0
 70
   128
 71
   416
 72
   479
 73
  -480
  0
VERTEX
  8
RK-LAVAT
 10
0.0
 20
0.0
 30
0.0
 70
   128
 71
   418
 72
  -417
 73
   481
  0
VERTEX
  8
RK-LAVAT
 10
0.0
 20
0.0
 30
0.0
 70
   128
 71
   417
 72
   480
 73
  -481
  0
VERTEX
  8
RK-LAVAT
 10
0.0
 20
0.0
 30
0.0
 70
   128
 71
   419
 72
  -418
 73
   482
  0
VERTEX
  8
RK-LAVAT
 10
0.0
 20
0.0
 30
0.0
 70
   128
 71
   418
 72
   481
 73
  -482
  0
VERTEX
  8
RK-LAVAT
 10
0.0
 20
0.0
 30
0.0
 70
   128
 71
   420
 72
  -419
 73
   483
  0
VERTEX
  8
RK-LAVAT
 10
0.0
 20
0.0
 30
0.0
 70
   128
 71
   419
 72
   482
 73
  -483
  0
VERTEX
  8
RK-LAVAT
 10
0.0
 20
0.0
 30
0.0
 70
   128
 71
   421
 72
  -420
 73
   484
  0
VERTEX
  8
RK-LAVAT
 10
0.0
 20
0.0
 30
0.0
 70
   128
 71
   420
 72
   483
 73
  -484
  0
VERTEX
  8
RK-LAVAT
 10
0.0
 20
0.0
 30
0.0
 70
   128
 71
   422
 72
  -421
 73
   485
  0
VERTEX
  8
RK-LAVAT
 10
0.0
 20
0.0
 30
0.0
 70
   128
 71
   421
 72
   484
 73
  -485
  0
VERTEX
  8
RK-LAVAT
 10
0.0
 20
0.0
 30
0.0
 70
   128
 71
   423
 72
  -422
 73
   486
  0
VERTEX
  8
RK-LAVAT
 10
0.0
 20
0.0
 30
0.0
 70
   128
 71
   422
 72
   485
 73
  -486
  0
VERTEX
  8
RK-LAVAT
 10
0.0
 20
0.0
 30
0.0
 70
   128
 71
   424
 72
  -423
 73
   487
  0
VERTEX
  8
RK-LAVAT
 10
0.0
 20
0.0
 30
0.0
 70
   128
 71
   423
 72
   486
 73
  -487
  0
VERTEX
  8
RK-LAVAT
 10
0.0
 20
0.0
 30
0.0
 70
   128
 71
   425
 72
  -424
 73
   488
  0
VERTEX
  8
RK-LAVAT
 10
0.0
 20
0.0
 30
0.0
 70
   128
 71
   424
 72
   487
 73
  -488
  0
VERTEX
  8
RK-LAVAT
 10
0.0
 20
0.0
 30
0.0
 70
   128
 71
   426
 72
  -425
 73
   489
  0
VERTEX
  8
RK-LAVAT
 10
0.0
 20
0.0
 30
0.0
 70
   128
 71
   425
 72
   488
 73
  -489
  0
VERTEX
  8
RK-LAVAT
 10
0.0
 20
0.0
 30
0.0
 70
   128
 71
   427
 72
  -426
 73
   490
  0
VERTEX
  8
RK-LAVAT
 10
0.0
 20
0.0
 30
0.0
 70
   128
 71
   426
 72
   489
 73
  -490
  0
VERTEX
  8
RK-LAVAT
 10
0.0
 20
0.0
 30
0.0
 70
   128
 71
   428
 72
  -427
 73
   491
  0
VERTEX
  8
RK-LAVAT
 10
0.0
 20
0.0
 30
0.0
 70
   128
 71
   427
 72
   490
 73
  -491
  0
VERTEX
  8
RK-LAVAT
 10
0.0
 20
0.0
 30
0.0
 70
   128
 71
   429
 72
  -428
 73
   492
  0
VERTEX
  8
RK-LAVAT
 10
0.0
 20
0.0
 30
0.0
 70
   128
 71
   428
 72
   491
 73
  -492
  0
VERTEX
  8
RK-LAVAT
 10
0.0
 20
0.0
 30
0.0
 70
   128
 71
   430
 72
  -429
 73
   493
  0
VERTEX
  8
RK-LAVAT
 10
0.0
 20
0.0
 30
0.0
 70
   128
 71
   429
 72
   492
 73
  -493
  0
VERTEX
  8
RK-LAVAT
 10
0.0
 20
0.0
 30
0.0
 70
   128
 71
   431
 72
  -430
 73
   494
  0
VERTEX
  8
RK-LAVAT
 10
0.0
 20
0.0
 30
0.0
 70
   128
 71
   430
 72
   493
 73
  -494
  0
VERTEX
  8
RK-LAVAT
 10
0.0
 20
0.0
 30
0.0
 70
   128
 71
   432
 72
  -431
 73
   495
  0
VERTEX
  8
RK-LAVAT
 10
0.0
 20
0.0
 30
0.0
 70
   128
 71
   431
 72
   494
 73
  -495
  0
VERTEX
  8
RK-LAVAT
 10
0.0
 20
0.0
 30
0.0
 70
   128
 71
   433
 72
  -432
 73
   496
  0
VERTEX
  8
RK-LAVAT
 10
0.0
 20
0.0
 30
0.0
 70
   128
 71
   432
 72
   495
 73
  -496
  0
VERTEX
  8
RK-LAVAT
 10
0.0
 20
0.0
 30
0.0
 70
   128
 71
   434
 72
  -433
 73
   497
  0
VERTEX
  8
RK-LAVAT
 10
0.0
 20
0.0
 30
0.0
 70
   128
 71
   433
 72
   496
 73
  -497
  0
VERTEX
  8
RK-LAVAT
 10
0.0
 20
0.0
 30
0.0
 70
   128
 71
   435
 72
  -434
 73
   498
  0
VERTEX
  8
RK-LAVAT
 10
0.0
 20
0.0
 30
0.0
 70
   128
 71
   434
 72
   497
 73
  -498
  0
VERTEX
  8
RK-LAVAT
 10
0.0
 20
0.0
 30
0.0
 70
   128
 71
   436
 72
  -435
 73
   499
  0
VERTEX
  8
RK-LAVAT
 10
0.0
 20
0.0
 30
0.0
 70
   128
 71
   435
 72
   498
 73
  -499
  0
VERTEX
  8
RK-LAVAT
 10
0.0
 20
0.0
 30
0.0
 70
   128
 71
   437
 72
  -436
 73
   500
  0
VERTEX
  8
RK-LAVAT
 10
0.0
 20
0.0
 30
0.0
 70
   128
 71
   436
 72
   499
 73
  -500
  0
VERTEX
  8
RK-LAVAT
 10
0.0
 20
0.0
 30
0.0
 70
   128
 71
   438
 72
  -437
 73
   501
  0
VERTEX
  8
RK-LAVAT
 10
0.0
 20
0.0
 30
0.0
 70
   128
 71
   437
 72
   500
 73
  -501
  0
VERTEX
  8
RK-LAVAT
 10
0.0
 20
0.0
 30
0.0
 70
   128
 71
   439
 72
  -438
 73
   502
  0
VERTEX
  8
RK-LAVAT
 10
0.0
 20
0.0
 30
0.0
 70
   128
 71
   438
 72
   501
 73
  -502
  0
VERTEX
  8
RK-LAVAT
 10
0.0
 20
0.0
 30
0.0
 70
   128
 71
   440
 72
  -439
 73
   503
  0
VERTEX
  8
RK-LAVAT
 10
0.0
 20
0.0
 30
0.0
 70
   128
 71
   439
 72
   502
 73
  -503
  0
VERTEX
  8
RK-LAVAT
 10
0.0
 20
0.0
 30
0.0
 70
   128
 71
   441
 72
  -440
 73
   504
  0
VERTEX
  8
RK-LAVAT
 10
0.0
 20
0.0
 30
0.0
 70
   128
 71
   440
 72
   503
 73
  -504
  0
VERTEX
  8
RK-LAVAT
 10
0.0
 20
0.0
 30
0.0
 70
   128
 71
   380
 72
  -441
 73
   443
  0
VERTEX
  8
RK-LAVAT
 10
0.0
 20
0.0
 30
0.0
 70
   128
 71
   441
 72
   504
 73
  -443
  0
VERTEX
  8
RK-LAVAT
 10
0.0
 20
0.0
 30
0.0
 70
   128
 71
   442
 72
  -443
 73
   505
  0
VERTEX
  8
RK-LAVAT
 10
0.0
 20
0.0
 30
0.0
 70
   128
 71
   443
 72
   506
 73
  -505
  0
VERTEX
  8
RK-LAVAT
 10
0.0
 20
0.0
 30
0.0
 70
   128
 71
   444
 72
  -442
 73
   507
  0
VERTEX
  8
RK-LAVAT
 10
0.0
 20
0.0
 30
0.0
 70
   128
 71
   442
 72
   505
 73
  -507
  0
VERTEX
  8
RK-LAVAT
 10
0.0
 20
0.0
 30
0.0
 70
   128
 71
   445
 72
  -444
 73
   508
  0
VERTEX
  8
RK-LAVAT
 10
0.0
 20
0.0
 30
0.0
 70
   128
 71
   444
 72
   507
 73
  -508
  0
VERTEX
  8
RK-LAVAT
 10
0.0
 20
0.0
 30
0.0
 70
   128
 71
   446
 72
  -445
 73
   509
  0
VERTEX
  8
RK-LAVAT
 10
0.0
 20
0.0
 30
0.0
 70
   128
 71
   445
 72
   508
 73
  -509
  0
VERTEX
  8
RK-LAVAT
 10
0.0
 20
0.0
 30
0.0
 70
   128
 71
   447
 72
  -446
 73
   510
  0
VERTEX
  8
RK-LAVAT
 10
0.0
 20
0.0
 30
0.0
 70
   128
 71
   446
 72
   509
 73
  -510
  0
VERTEX
  8
RK-LAVAT
 10
0.0
 20
0.0
 30
0.0
 70
   128
 71
   448
 72
  -447
 73
   511
  0
VERTEX
  8
RK-LAVAT
 10
0.0
 20
0.0
 30
0.0
 70
   128
 71
   447
 72
   510
 73
  -511
  0
VERTEX
  8
RK-LAVAT
 10
0.0
 20
0.0
 30
0.0
 70
   128
 71
   449
 72
  -448
 73
   512
  0
VERTEX
  8
RK-LAVAT
 10
0.0
 20
0.0
 30
0.0
 70
   128
 71
   448
 72
   511
 73
  -512
  0
VERTEX
  8
RK-LAVAT
 10
0.0
 20
0.0
 30
0.0
 70
   128
 71
   450
 72
  -449
 73
   513
  0
VERTEX
  8
RK-LAVAT
 10
0.0
 20
0.0
 30
0.0
 70
   128
 71
   449
 72
   512
 73
  -513
  0
VERTEX
  8
RK-LAVAT
 10
0.0
 20
0.0
 30
0.0
 70
   128
 71
   451
 72
  -450
 73
   514
  0
VERTEX
  8
RK-LAVAT
 10
0.0
 20
0.0
 30
0.0
 70
   128
 71
   450
 72
   513
 73
  -514
  0
VERTEX
  8
RK-LAVAT
 10
0.0
 20
0.0
 30
0.0
 70
   128
 71
   452
 72
  -451
 73
   515
  0
VERTEX
  8
RK-LAVAT
 10
0.0
 20
0.0
 30
0.0
 70
   128
 71
   451
 72
   514
 73
  -515
  0
VERTEX
  8
RK-LAVAT
 10
0.0
 20
0.0
 30
0.0
 70
   128
 71
   453
 72
  -452
 73
   516
  0
VERTEX
  8
RK-LAVAT
 10
0.0
 20
0.0
 30
0.0
 70
   128
 71
   452
 72
   515
 73
  -516
  0
VERTEX
  8
RK-LAVAT
 10
0.0
 20
0.0
 30
0.0
 70
   128
 71
   454
 72
  -453
 73
   517
  0
VERTEX
  8
RK-LAVAT
 10
0.0
 20
0.0
 30
0.0
 70
   128
 71
   453
 72
   516
 73
  -517
  0
VERTEX
  8
RK-LAVAT
 10
0.0
 20
0.0
 30
0.0
 70
   128
 71
   455
 72
  -454
 73
   518
  0
VERTEX
  8
RK-LAVAT
 10
0.0
 20
0.0
 30
0.0
 70
   128
 71
   454
 72
   517
 73
  -518
  0
VERTEX
  8
RK-LAVAT
 10
0.0
 20
0.0
 30
0.0
 70
   128
 71
   456
 72
  -455
 73
   519
  0
VERTEX
  8
RK-LAVAT
 10
0.0
 20
0.0
 30
0.0
 70
   128
 71
   455
 72
   518
 73
  -519
  0
VERTEX
  8
RK-LAVAT
 10
0.0
 20
0.0
 30
0.0
 70
   128
 71
   457
 72
  -456
 73
   520
  0
VERTEX
  8
RK-LAVAT
 10
0.0
 20
0.0
 30
0.0
 70
   128
 71
   456
 72
   519
 73
  -520
  0
VERTEX
  8
RK-LAVAT
 10
0.0
 20
0.0
 30
0.0
 70
   128
 71
   458
 72
  -457
 73
   521
  0
VERTEX
  8
RK-LAVAT
 10
0.0
 20
0.0
 30
0.0
 70
   128
 71
   457
 72
   520
 73
  -521
  0
VERTEX
  8
RK-LAVAT
 10
0.0
 20
0.0
 30
0.0
 70
   128
 71
   459
 72
  -458
 73
   522
  0
VERTEX
  8
RK-LAVAT
 10
0.0
 20
0.0
 30
0.0
 70
   128
 71
   458
 72
   521
 73
  -522
  0
VERTEX
  8
RK-LAVAT
 10
0.0
 20
0.0
 30
0.0
 70
   128
 71
   460
 72
  -459
 73
   523
  0
VERTEX
  8
RK-LAVAT
 10
0.0
 20
0.0
 30
0.0
 70
   128
 71
   459
 72
   522
 73
  -523
  0
VERTEX
  8
RK-LAVAT
 10
0.0
 20
0.0
 30
0.0
 70
   128
 71
   461
 72
  -460
 73
   524
  0
VERTEX
  8
RK-LAVAT
 10
0.0
 20
0.0
 30
0.0
 70
   128
 71
   460
 72
   523
 73
  -524
  0
VERTEX
  8
RK-LAVAT
 10
0.0
 20
0.0
 30
0.0
 70
   128
 71
   462
 72
  -461
 73
   525
  0
VERTEX
  8
RK-LAVAT
 10
0.0
 20
0.0
 30
0.0
 70
   128
 71
   461
 72
   524
 73
  -525
  0
VERTEX
  8
RK-LAVAT
 10
0.0
 20
0.0
 30
0.0
 70
   128
 71
   463
 72
  -462
 73
   526
  0
VERTEX
  8
RK-LAVAT
 10
0.0
 20
0.0
 30
0.0
 70
   128
 71
   462
 72
   525
 73
  -526
  0
VERTEX
  8
RK-LAVAT
 10
0.0
 20
0.0
 30
0.0
 70
   128
 71
   464
 72
  -463
 73
   527
  0
VERTEX
  8
RK-LAVAT
 10
0.0
 20
0.0
 30
0.0
 70
   128
 71
   463
 72
   526
 73
  -527
  0
VERTEX
  8
RK-LAVAT
 10
0.0
 20
0.0
 30
0.0
 70
   128
 71
   465
 72
  -464
 73
   528
  0
VERTEX
  8
RK-LAVAT
 10
0.0
 20
0.0
 30
0.0
 70
   128
 71
   464
 72
   527
 73
  -528
  0
VERTEX
  8
RK-LAVAT
 10
0.0
 20
0.0
 30
0.0
 70
   128
 71
   466
 72
  -465
 73
   529
  0
VERTEX
  8
RK-LAVAT
 10
0.0
 20
0.0
 30
0.0
 70
   128
 71
   465
 72
   528
 73
  -529
  0
VERTEX
  8
RK-LAVAT
 10
0.0
 20
0.0
 30
0.0
 70
   128
 71
   467
 72
  -466
 73
   530
  0
VERTEX
  8
RK-LAVAT
 10
0.0
 20
0.0
 30
0.0
 70
   128
 71
   466
 72
   529
 73
  -530
  0
VERTEX
  8
RK-LAVAT
 10
0.0
 20
0.0
 30
0.0
 70
   128
 71
   468
 72
  -467
 73
   531
  0
VERTEX
  8
RK-LAVAT
 10
0.0
 20
0.0
 30
0.0
 70
   128
 71
   467
 72
   530
 73
  -531
  0
VERTEX
  8
RK-LAVAT
 10
0.0
 20
0.0
 30
0.0
 70
   128
 71
   469
 72
  -468
 73
   532
  0
VERTEX
  8
RK-LAVAT
 10
0.0
 20
0.0
 30
0.0
 70
   128
 71
   468
 72
   531
 73
  -532
  0
VERTEX
  8
RK-LAVAT
 10
0.0
 20
0.0
 30
0.0
 70
   128
 71
   470
 72
  -469
 73
   533
  0
VERTEX
  8
RK-LAVAT
 10
0.0
 20
0.0
 30
0.0
 70
   128
 71
   469
 72
   532
 73
  -533
  0
VERTEX
  8
RK-LAVAT
 10
0.0
 20
0.0
 30
0.0
 70
   128
 71
   471
 72
  -470
 73
   534
  0
VERTEX
  8
RK-LAVAT
 10
0.0
 20
0.0
 30
0.0
 70
   128
 71
   470
 72
   533
 73
  -534
  0
VERTEX
  8
RK-LAVAT
 10
0.0
 20
0.0
 30
0.0
 70
   128
 71
   472
 72
  -471
 73
   535
  0
VERTEX
  8
RK-LAVAT
 10
0.0
 20
0.0
 30
0.0
 70
   128
 71
   471
 72
   534
 73
  -535
  0
VERTEX
  8
RK-LAVAT
 10
0.0
 20
0.0
 30
0.0
 70
   128
 71
   473
 72
  -472
 73
   536
  0
VERTEX
  8
RK-LAVAT
 10
0.0
 20
0.0
 30
0.0
 70
   128
 71
   472
 72
   535
 73
  -536
  0
VERTEX
  8
RK-LAVAT
 10
0.0
 20
0.0
 30
0.0
 70
   128
 71
   474
 72
  -473
 73
   537
  0
VERTEX
  8
RK-LAVAT
 10
0.0
 20
0.0
 30
0.0
 70
   128
 71
   473
 72
   536
 73
  -537
  0
VERTEX
  8
RK-LAVAT
 10
0.0
 20
0.0
 30
0.0
 70
   128
 71
   475
 72
  -474
 73
   538
  0
VERTEX
  8
RK-LAVAT
 10
0.0
 20
0.0
 30
0.0
 70
   128
 71
   474
 72
   537
 73
  -538
  0
VERTEX
  8
RK-LAVAT
 10
0.0
 20
0.0
 30
0.0
 70
   128
 71
   476
 72
  -475
 73
   539
  0
VERTEX
  8
RK-LAVAT
 10
0.0
 20
0.0
 30
0.0
 70
   128
 71
   475
 72
   538
 73
  -539
  0
VERTEX
  8
RK-LAVAT
 10
0.0
 20
0.0
 30
0.0
 70
   128
 71
   477
 72
  -476
 73
   540
  0
VERTEX
  8
RK-LAVAT
 10
0.0
 20
0.0
 30
0.0
 70
   128
 71
   476
 72
   539
 73
  -540
  0
VERTEX
  8
RK-LAVAT
 10
0.0
 20
0.0
 30
0.0
 70
   128
 71
   478
 72
  -477
 73
   541
  0
VERTEX
  8
RK-LAVAT
 10
0.0
 20
0.0
 30
0.0
 70
   128
 71
   477
 72
   540
 73
  -541
  0
VERTEX
  8
RK-LAVAT
 10
0.0
 20
0.0
 30
0.0
 70
   128
 71
   479
 72
  -478
 73
   542
  0
VERTEX
  8
RK-LAVAT
 10
0.0
 20
0.0
 30
0.0
 70
   128
 71
   478
 72
   541
 73
  -542
  0
VERTEX
  8
RK-LAVAT
 10
0.0
 20
0.0
 30
0.0
 70
   128
 71
   480
 72
  -479
 73
   543
  0
VERTEX
  8
RK-LAVAT
 10
0.0
 20
0.0
 30
0.0
 70
   128
 71
   479
 72
   542
 73
  -543
  0
VERTEX
  8
RK-LAVAT
 10
0.0
 20
0.0
 30
0.0
 70
   128
 71
   481
 72
  -480
 73
   544
  0
VERTEX
  8
RK-LAVAT
 10
0.0
 20
0.0
 30
0.0
 70
   128
 71
   480
 72
   543
 73
  -544
  0
VERTEX
  8
RK-LAVAT
 10
0.0
 20
0.0
 30
0.0
 70
   128
 71
   482
 72
  -481
 73
   545
  0
VERTEX
  8
RK-LAVAT
 10
0.0
 20
0.0
 30
0.0
 70
   128
 71
   481
 72
   544
 73
  -545
  0
VERTEX
  8
RK-LAVAT
 10
0.0
 20
0.0
 30
0.0
 70
   128
 71
   483
 72
  -482
 73
   546
  0
VERTEX
  8
RK-LAVAT
 10
0.0
 20
0.0
 30
0.0
 70
   128
 71
   482
 72
   545
 73
  -546
  0
VERTEX
  8
RK-LAVAT
 10
0.0
 20
0.0
 30
0.0
 70
   128
 71
   484
 72
  -483
 73
   547
  0
VERTEX
  8
RK-LAVAT
 10
0.0
 20
0.0
 30
0.0
 70
   128
 71
   483
 72
   546
 73
  -547
  0
VERTEX
  8
RK-LAVAT
 10
0.0
 20
0.0
 30
0.0
 70
   128
 71
   485
 72
  -484
 73
   548
  0
VERTEX
  8
RK-LAVAT
 10
0.0
 20
0.0
 30
0.0
 70
   128
 71
   484
 72
   547
 73
  -548
  0
VERTEX
  8
RK-LAVAT
 10
0.0
 20
0.0
 30
0.0
 70
   128
 71
   486
 72
  -485
 73
   549
  0
VERTEX
  8
RK-LAVAT
 10
0.0
 20
0.0
 30
0.0
 70
   128
 71
   485
 72
   548
 73
  -549
  0
VERTEX
  8
RK-LAVAT
 10
0.0
 20
0.0
 30
0.0
 70
   128
 71
   487
 72
  -486
 73
   550
  0
VERTEX
  8
RK-LAVAT
 10
0.0
 20
0.0
 30
0.0
 70
   128
 71
   486
 72
   549
 73
  -550
  0
VERTEX
  8
RK-LAVAT
 10
0.0
 20
0.0
 30
0.0
 70
   128
 71
   488
 72
  -487
 73
   551
  0
VERTEX
  8
RK-LAVAT
 10
0.0
 20
0.0
 30
0.0
 70
   128
 71
   487
 72
   550
 73
  -551
  0
VERTEX
  8
RK-LAVAT
 10
0.0
 20
0.0
 30
0.0
 70
   128
 71
   489
 72
  -488
 73
   552
  0
VERTEX
  8
RK-LAVAT
 10
0.0
 20
0.0
 30
0.0
 70
   128
 71
   488
 72
   551
 73
  -552
  0
VERTEX
  8
RK-LAVAT
 10
0.0
 20
0.0
 30
0.0
 70
   128
 71
   490
 72
  -489
 73
   553
  0
VERTEX
  8
RK-LAVAT
 10
0.0
 20
0.0
 30
0.0
 70
   128
 71
   489
 72
   552
 73
  -553
  0
VERTEX
  8
RK-LAVAT
 10
0.0
 20
0.0
 30
0.0
 70
   128
 71
   491
 72
  -490
 73
   554
  0
VERTEX
  8
RK-LAVAT
 10
0.0
 20
0.0
 30
0.0
 70
   128
 71
   490
 72
   553
 73
  -554
  0
VERTEX
  8
RK-LAVAT
 10
0.0
 20
0.0
 30
0.0
 70
   128
 71
   492
 72
  -491
 73
   555
  0
VERTEX
  8
RK-LAVAT
 10
0.0
 20
0.0
 30
0.0
 70
   128
 71
   491
 72
   554
 73
  -555
  0
VERTEX
  8
RK-LAVAT
 10
0.0
 20
0.0
 30
0.0
 70
   128
 71
   493
 72
  -492
 73
   556
  0
VERTEX
  8
RK-LAVAT
 10
0.0
 20
0.0
 30
0.0
 70
   128
 71
   492
 72
   555
 73
  -556
  0
VERTEX
  8
RK-LAVAT
 10
0.0
 20
0.0
 30
0.0
 70
   128
 71
   494
 72
  -493
 73
   557
  0
VERTEX
  8
RK-LAVAT
 10
0.0
 20
0.0
 30
0.0
 70
   128
 71
   493
 72
   556
 73
  -557
  0
VERTEX
  8
RK-LAVAT
 10
0.0
 20
0.0
 30
0.0
 70
   128
 71
   495
 72
  -494
 73
   558
  0
VERTEX
  8
RK-LAVAT
 10
0.0
 20
0.0
 30
0.0
 70
   128
 71
   494
 72
   557
 73
  -558
  0
VERTEX
  8
RK-LAVAT
 10
0.0
 20
0.0
 30
0.0
 70
   128
 71
   496
 72
  -495
 73
   559
  0
VERTEX
  8
RK-LAVAT
 10
0.0
 20
0.0
 30
0.0
 70
   128
 71
   495
 72
   558
 73
  -559
  0
VERTEX
  8
RK-LAVAT
 10
0.0
 20
0.0
 30
0.0
 70
   128
 71
   497
 72
  -496
 73
   560
  0
VERTEX
  8
RK-LAVAT
 10
0.0
 20
0.0
 30
0.0
 70
   128
 71
   496
 72
   559
 73
  -560
  0
VERTEX
  8
RK-LAVAT
 10
0.0
 20
0.0
 30
0.0
 70
   128
 71
   498
 72
  -497
 73
   561
  0
VERTEX
  8
RK-LAVAT
 10
0.0
 20
0.0
 30
0.0
 70
   128
 71
   497
 72
   560
 73
  -561
  0
VERTEX
  8
RK-LAVAT
 10
0.0
 20
0.0
 30
0.0
 70
   128
 71
   499
 72
  -498
 73
   562
  0
VERTEX
  8
RK-LAVAT
 10
0.0
 20
0.0
 30
0.0
 70
   128
 71
   498
 72
   561
 73
  -562
  0
VERTEX
  8
RK-LAVAT
 10
0.0
 20
0.0
 30
0.0
 70
   128
 71
   500
 72
  -499
 73
   563
  0
VERTEX
  8
RK-LAVAT
 10
0.0
 20
0.0
 30
0.0
 70
   128
 71
   499
 72
   562
 73
  -563
  0
VERTEX
  8
RK-LAVAT
 10
0.0
 20
0.0
 30
0.0
 70
   128
 71
   501
 72
  -500
 73
   564
  0
VERTEX
  8
RK-LAVAT
 10
0.0
 20
0.0
 30
0.0
 70
   128
 71
   500
 72
   563
 73
  -564
  0
VERTEX
  8
RK-LAVAT
 10
0.0
 20
0.0
 30
0.0
 70
   128
 71
   502
 72
  -501
 73
   565
  0
VERTEX
  8
RK-LAVAT
 10
0.0
 20
0.0
 30
0.0
 70
   128
 71
   501
 72
   564
 73
  -565
  0
VERTEX
  8
RK-LAVAT
 10
0.0
 20
0.0
 30
0.0
 70
   128
 71
   503
 72
  -502
 73
   566
  0
VERTEX
  8
RK-LAVAT
 10
0.0
 20
0.0
 30
0.0
 70
   128
 71
   502
 72
   565
 73
  -566
  0
VERTEX
  8
RK-LAVAT
 10
0.0
 20
0.0
 30
0.0
 70
   128
 71
   504
 72
  -503
 73
   567
  0
VERTEX
  8
RK-LAVAT
 10
0.0
 20
0.0
 30
0.0
 70
   128
 71
   503
 72
   566
 73
  -567
  0
VERTEX
  8
RK-LAVAT
 10
0.0
 20
0.0
 30
0.0
 70
   128
 71
   443
 72
  -504
 73
   506
  0
VERTEX
  8
RK-LAVAT
 10
0.0
 20
0.0
 30
0.0
 70
   128
 71
   504
 72
   567
 73
  -506
  0
VERTEX
  8
RK-LAVAT
 10
0.0
 20
0.0
 30
0.0
 70
   128
 71
   505
 72
  -506
 73
   568
  0
VERTEX
  8
RK-LAVAT
 10
0.0
 20
0.0
 30
0.0
 70
   128
 71
   506
 72
   569
 73
  -568
  0
VERTEX
  8
RK-LAVAT
 10
0.0
 20
0.0
 30
0.0
 70
   128
 71
   507
 72
  -505
 73
   570
  0
VERTEX
  8
RK-LAVAT
 10
0.0
 20
0.0
 30
0.0
 70
   128
 71
   505
 72
   568
 73
  -570
  0
VERTEX
  8
RK-LAVAT
 10
0.0
 20
0.0
 30
0.0
 70
   128
 71
   508
 72
  -507
 73
   571
  0
VERTEX
  8
RK-LAVAT
 10
0.0
 20
0.0
 30
0.0
 70
   128
 71
   507
 72
   570
 73
  -571
  0
VERTEX
  8
RK-LAVAT
 10
0.0
 20
0.0
 30
0.0
 70
   128
 71
   509
 72
  -508
 73
   572
  0
VERTEX
  8
RK-LAVAT
 10
0.0
 20
0.0
 30
0.0
 70
   128
 71
   508
 72
   571
 73
  -572
  0
VERTEX
  8
RK-LAVAT
 10
0.0
 20
0.0
 30
0.0
 70
   128
 71
   510
 72
  -509
 73
   573
  0
VERTEX
  8
RK-LAVAT
 10
0.0
 20
0.0
 30
0.0
 70
   128
 71
   509
 72
   572
 73
  -573
  0
VERTEX
  8
RK-LAVAT
 10
0.0
 20
0.0
 30
0.0
 70
   128
 71
   511
 72
  -510
 73
   574
  0
VERTEX
  8
RK-LAVAT
 10
0.0
 20
0.0
 30
0.0
 70
   128
 71
   510
 72
   573
 73
  -574
  0
VERTEX
  8
RK-LAVAT
 10
0.0
 20
0.0
 30
0.0
 70
   128
 71
   512
 72
  -511
 73
   575
  0
VERTEX
  8
RK-LAVAT
 10
0.0
 20
0.0
 30
0.0
 70
   128
 71
   511
 72
   574
 73
  -575
  0
VERTEX
  8
RK-LAVAT
 10
0.0
 20
0.0
 30
0.0
 70
   128
 71
   513
 72
  -512
 73
   576
  0
VERTEX
  8
RK-LAVAT
 10
0.0
 20
0.0
 30
0.0
 70
   128
 71
   512
 72
   575
 73
  -576
  0
VERTEX
  8
RK-LAVAT
 10
0.0
 20
0.0
 30
0.0
 70
   128
 71
   514
 72
  -513
 73
   577
  0
VERTEX
  8
RK-LAVAT
 10
0.0
 20
0.0
 30
0.0
 70
   128
 71
   513
 72
   576
 73
  -577
  0
VERTEX
  8
RK-LAVAT
 10
0.0
 20
0.0
 30
0.0
 70
   128
 71
   515
 72
  -514
 73
   578
  0
VERTEX
  8
RK-LAVAT
 10
0.0
 20
0.0
 30
0.0
 70
   128
 71
   514
 72
   577
 73
  -578
  0
VERTEX
  8
RK-LAVAT
 10
0.0
 20
0.0
 30
0.0
 70
   128
 71
   516
 72
  -515
 73
   579
  0
VERTEX
  8
RK-LAVAT
 10
0.0
 20
0.0
 30
0.0
 70
   128
 71
   515
 72
   578
 73
  -579
  0
VERTEX
  8
RK-LAVAT
 10
0.0
 20
0.0
 30
0.0
 70
   128
 71
   517
 72
  -516
 73
   580
  0
VERTEX
  8
RK-LAVAT
 10
0.0
 20
0.0
 30
0.0
 70
   128
 71
   516
 72
   579
 73
  -580
  0
VERTEX
  8
RK-LAVAT
 10
0.0
 20
0.0
 30
0.0
 70
   128
 71
   518
 72
  -517
 73
   581
  0
VERTEX
  8
RK-LAVAT
 10
0.0
 20
0.0
 30
0.0
 70
   128
 71
   517
 72
   580
 73
  -581
  0
VERTEX
  8
RK-LAVAT
 10
0.0
 20
0.0
 30
0.0
 70
   128
 71
   519
 72
  -518
 73
   582
  0
VERTEX
  8
RK-LAVAT
 10
0.0
 20
0.0
 30
0.0
 70
   128
 71
   518
 72
   581
 73
  -582
  0
VERTEX
  8
RK-LAVAT
 10
0.0
 20
0.0
 30
0.0
 70
   128
 71
   520
 72
  -519
 73
   583
  0
VERTEX
  8
RK-LAVAT
 10
0.0
 20
0.0
 30
0.0
 70
   128
 71
   519
 72
   582
 73
  -583
  0
VERTEX
  8
RK-LAVAT
 10
0.0
 20
0.0
 30
0.0
 70
   128
 71
   521
 72
  -520
 73
   584
  0
VERTEX
  8
RK-LAVAT
 10
0.0
 20
0.0
 30
0.0
 70
   128
 71
   520
 72
   583
 73
  -584
  0
VERTEX
  8
RK-LAVAT
 10
0.0
 20
0.0
 30
0.0
 70
   128
 71
   522
 72
  -521
 73
   585
  0
VERTEX
  8
RK-LAVAT
 10
0.0
 20
0.0
 30
0.0
 70
   128
 71
   521
 72
   584
 73
  -585
  0
VERTEX
  8
RK-LAVAT
 10
0.0
 20
0.0
 30
0.0
 70
   128
 71
   523
 72
  -522
 73
   586
  0
VERTEX
  8
RK-LAVAT
 10
0.0
 20
0.0
 30
0.0
 70
   128
 71
   522
 72
   585
 73
  -586
  0
VERTEX
  8
RK-LAVAT
 10
0.0
 20
0.0
 30
0.0
 70
   128
 71
   524
 72
  -523
 73
   587
  0
VERTEX
  8
RK-LAVAT
 10
0.0
 20
0.0
 30
0.0
 70
   128
 71
   523
 72
   586
 73
  -587
  0
VERTEX
  8
RK-LAVAT
 10
0.0
 20
0.0
 30
0.0
 70
   128
 71
   525
 72
  -524
 73
   588
  0
VERTEX
  8
RK-LAVAT
 10
0.0
 20
0.0
 30
0.0
 70
   128
 71
   524
 72
   587
 73
  -588
  0
VERTEX
  8
RK-LAVAT
 10
0.0
 20
0.0
 30
0.0
 70
   128
 71
   526
 72
  -525
 73
   589
  0
VERTEX
  8
RK-LAVAT
 10
0.0
 20
0.0
 30
0.0
 70
   128
 71
   525
 72
   588
 73
  -589
  0
VERTEX
  8
RK-LAVAT
 10
0.0
 20
0.0
 30
0.0
 70
   128
 71
   527
 72
  -526
 73
   590
  0
VERTEX
  8
RK-LAVAT
 10
0.0
 20
0.0
 30
0.0
 70
   128
 71
   526
 72
   589
 73
  -590
  0
VERTEX
  8
RK-LAVAT
 10
0.0
 20
0.0
 30
0.0
 70
   128
 71
   528
 72
  -527
 73
   591
  0
VERTEX
  8
RK-LAVAT
 10
0.0
 20
0.0
 30
0.0
 70
   128
 71
   527
 72
   590
 73
  -591
  0
VERTEX
  8
RK-LAVAT
 10
0.0
 20
0.0
 30
0.0
 70
   128
 71
   529
 72
  -528
 73
   592
  0
VERTEX
  8
RK-LAVAT
 10
0.0
 20
0.0
 30
0.0
 70
   128
 71
   528
 72
   591
 73
  -592
  0
VERTEX
  8
RK-LAVAT
 10
0.0
 20
0.0
 30
0.0
 70
   128
 71
   530
 72
  -529
 73
   593
  0
VERTEX
  8
RK-LAVAT
 10
0.0
 20
0.0
 30
0.0
 70
   128
 71
   529
 72
   592
 73
  -593
  0
VERTEX
  8
RK-LAVAT
 10
0.0
 20
0.0
 30
0.0
 70
   128
 71
   531
 72
  -530
 73
   594
  0
VERTEX
  8
RK-LAVAT
 10
0.0
 20
0.0
 30
0.0
 70
   128
 71
   530
 72
   593
 73
  -594
  0
VERTEX
  8
RK-LAVAT
 10
0.0
 20
0.0
 30
0.0
 70
   128
 71
   532
 72
  -531
 73
   595
  0
VERTEX
  8
RK-LAVAT
 10
0.0
 20
0.0
 30
0.0
 70
   128
 71
   531
 72
   594
 73
  -595
  0
VERTEX
  8
RK-LAVAT
 10
0.0
 20
0.0
 30
0.0
 70
   128
 71
   533
 72
  -532
 73
   596
  0
VERTEX
  8
RK-LAVAT
 10
0.0
 20
0.0
 30
0.0
 70
   128
 71
   532
 72
   595
 73
  -596
  0
VERTEX
  8
RK-LAVAT
 10
0.0
 20
0.0
 30
0.0
 70
   128
 71
   534
 72
  -533
 73
   597
  0
VERTEX
  8
RK-LAVAT
 10
0.0
 20
0.0
 30
0.0
 70
   128
 71
   533
 72
   596
 73
  -597
  0
VERTEX
  8
RK-LAVAT
 10
0.0
 20
0.0
 30
0.0
 70
   128
 71
   535
 72
  -534
 73
   598
  0
VERTEX
  8
RK-LAVAT
 10
0.0
 20
0.0
 30
0.0
 70
   128
 71
   534
 72
   597
 73
  -598
  0
VERTEX
  8
RK-LAVAT
 10
0.0
 20
0.0
 30
0.0
 70
   128
 71
   536
 72
  -535
 73
   599
  0
VERTEX
  8
RK-LAVAT
 10
0.0
 20
0.0
 30
0.0
 70
   128
 71
   535
 72
   598
 73
  -599
  0
VERTEX
  8
RK-LAVAT
 10
0.0
 20
0.0
 30
0.0
 70
   128
 71
   537
 72
  -536
 73
   600
  0
VERTEX
  8
RK-LAVAT
 10
0.0
 20
0.0
 30
0.0
 70
   128
 71
   536
 72
   599
 73
  -600
  0
VERTEX
  8
RK-LAVAT
 10
0.0
 20
0.0
 30
0.0
 70
   128
 71
   538
 72
  -537
 73
   601
  0
VERTEX
  8
RK-LAVAT
 10
0.0
 20
0.0
 30
0.0
 70
   128
 71
   537
 72
   600
 73
  -601
  0
VERTEX
  8
RK-LAVAT
 10
0.0
 20
0.0
 30
0.0
 70
   128
 71
   539
 72
  -538
 73
   602
  0
VERTEX
  8
RK-LAVAT
 10
0.0
 20
0.0
 30
0.0
 70
   128
 71
   538
 72
   601
 73
  -602
  0
VERTEX
  8
RK-LAVAT
 10
0.0
 20
0.0
 30
0.0
 70
   128
 71
   540
 72
  -539
 73
   603
  0
VERTEX
  8
RK-LAVAT
 10
0.0
 20
0.0
 30
0.0
 70
   128
 71
   539
 72
   602
 73
  -603
  0
VERTEX
  8
RK-LAVAT
 10
0.0
 20
0.0
 30
0.0
 70
   128
 71
   541
 72
  -540
 73
   604
  0
VERTEX
  8
RK-LAVAT
 10
0.0
 20
0.0
 30
0.0
 70
   128
 71
   540
 72
   603
 73
  -604
  0
VERTEX
  8
RK-LAVAT
 10
0.0
 20
0.0
 30
0.0
 70
   128
 71
   542
 72
  -541
 73
   605
  0
VERTEX
  8
RK-LAVAT
 10
0.0
 20
0.0
 30
0.0
 70
   128
 71
   541
 72
   604
 73
  -605
  0
VERTEX
  8
RK-LAVAT
 10
0.0
 20
0.0
 30
0.0
 70
   128
 71
   543
 72
  -542
 73
   606
  0
VERTEX
  8
RK-LAVAT
 10
0.0
 20
0.0
 30
0.0
 70
   128
 71
   542
 72
   605
 73
  -606
  0
VERTEX
  8
RK-LAVAT
 10
0.0
 20
0.0
 30
0.0
 70
   128
 71
   544
 72
  -543
 73
   607
  0
VERTEX
  8
RK-LAVAT
 10
0.0
 20
0.0
 30
0.0
 70
   128
 71
   543
 72
   606
 73
  -607
  0
VERTEX
  8
RK-LAVAT
 10
0.0
 20
0.0
 30
0.0
 70
   128
 71
   545
 72
  -544
 73
   608
  0
VERTEX
  8
RK-LAVAT
 10
0.0
 20
0.0
 30
0.0
 70
   128
 71
   544
 72
   607
 73
  -608
  0
VERTEX
  8
RK-LAVAT
 10
0.0
 20
0.0
 30
0.0
 70
   128
 71
   546
 72
  -545
 73
   609
  0
VERTEX
  8
RK-LAVAT
 10
0.0
 20
0.0
 30
0.0
 70
   128
 71
   545
 72
   608
 73
  -609
  0
VERTEX
  8
RK-LAVAT
 10
0.0
 20
0.0
 30
0.0
 70
   128
 71
   547
 72
  -546
 73
   610
  0
VERTEX
  8
RK-LAVAT
 10
0.0
 20
0.0
 30
0.0
 70
   128
 71
   546
 72
   609
 73
  -610
  0
VERTEX
  8
RK-LAVAT
 10
0.0
 20
0.0
 30
0.0
 70
   128
 71
   548
 72
  -547
 73
   611
  0
VERTEX
  8
RK-LAVAT
 10
0.0
 20
0.0
 30
0.0
 70
   128
 71
   547
 72
   610
 73
  -611
  0
VERTEX
  8
RK-LAVAT
 10
0.0
 20
0.0
 30
0.0
 70
   128
 71
   549
 72
  -548
 73
   612
  0
VERTEX
  8
RK-LAVAT
 10
0.0
 20
0.0
 30
0.0
 70
   128
 71
   548
 72
   611
 73
  -612
  0
VERTEX
  8
RK-LAVAT
 10
0.0
 20
0.0
 30
0.0
 70
   128
 71
   550
 72
  -549
 73
   613
  0
VERTEX
  8
RK-LAVAT
 10
0.0
 20
0.0
 30
0.0
 70
   128
 71
   549
 72
   612
 73
  -613
  0
VERTEX
  8
RK-LAVAT
 10
0.0
 20
0.0
 30
0.0
 70
   128
 71
   551
 72
  -550
 73
   614
  0
VERTEX
  8
RK-LAVAT
 10
0.0
 20
0.0
 30
0.0
 70
   128
 71
   550
 72
   613
 73
  -614
  0
VERTEX
  8
RK-LAVAT
 10
0.0
 20
0.0
 30
0.0
 70
   128
 71
   552
 72
  -551
 73
   615
  0
VERTEX
  8
RK-LAVAT
 10
0.0
 20
0.0
 30
0.0
 70
   128
 71
   551
 72
   614
 73
  -615
  0
VERTEX
  8
RK-LAVAT
 10
0.0
 20
0.0
 30
0.0
 70
   128
 71
   553
 72
  -552
 73
   616
  0
VERTEX
  8
RK-LAVAT
 10
0.0
 20
0.0
 30
0.0
 70
   128
 71
   552
 72
   615
 73
  -616
  0
VERTEX
  8
RK-LAVAT
 10
0.0
 20
0.0
 30
0.0
 70
   128
 71
   554
 72
  -553
 73
   617
  0
VERTEX
  8
RK-LAVAT
 10
0.0
 20
0.0
 30
0.0
 70
   128
 71
   553
 72
   616
 73
  -617
  0
VERTEX
  8
RK-LAVAT
 10
0.0
 20
0.0
 30
0.0
 70
   128
 71
   555
 72
  -554
 73
   618
  0
VERTEX
  8
RK-LAVAT
 10
0.0
 20
0.0
 30
0.0
 70
   128
 71
   554
 72
   617
 73
  -618
  0
VERTEX
  8
RK-LAVAT
 10
0.0
 20
0.0
 30
0.0
 70
   128
 71
   556
 72
  -555
 73
   619
  0
VERTEX
  8
RK-LAVAT
 10
0.0
 20
0.0
 30
0.0
 70
   128
 71
   555
 72
   618
 73
  -619
  0
VERTEX
  8
RK-LAVAT
 10
0.0
 20
0.0
 30
0.0
 70
   128
 71
   557
 72
  -556
 73
   620
  0
VERTEX
  8
RK-LAVAT
 10
0.0
 20
0.0
 30
0.0
 70
   128
 71
   556
 72
   619
 73
  -620
  0
VERTEX
  8
RK-LAVAT
 10
0.0
 20
0.0
 30
0.0
 70
   128
 71
   558
 72
  -557
 73
   621
  0
VERTEX
  8
RK-LAVAT
 10
0.0
 20
0.0
 30
0.0
 70
   128
 71
   557
 72
   620
 73
  -621
  0
VERTEX
  8
RK-LAVAT
 10
0.0
 20
0.0
 30
0.0
 70
   128
 71
   559
 72
  -558
 73
   622
  0
VERTEX
  8
RK-LAVAT
 10
0.0
 20
0.0
 30
0.0
 70
   128
 71
   558
 72
   621
 73
  -622
  0
VERTEX
  8
RK-LAVAT
 10
0.0
 20
0.0
 30
0.0
 70
   128
 71
   560
 72
  -559
 73
   623
  0
VERTEX
  8
RK-LAVAT
 10
0.0
 20
0.0
 30
0.0
 70
   128
 71
   559
 72
   622
 73
  -623
  0
VERTEX
  8
RK-LAVAT
 10
0.0
 20
0.0
 30
0.0
 70
   128
 71
   561
 72
  -560
 73
   624
  0
VERTEX
  8
RK-LAVAT
 10
0.0
 20
0.0
 30
0.0
 70
   128
 71
   560
 72
   623
 73
  -624
  0
VERTEX
  8
RK-LAVAT
 10
0.0
 20
0.0
 30
0.0
 70
   128
 71
   562
 72
  -561
 73
   625
  0
VERTEX
  8
RK-LAVAT
 10
0.0
 20
0.0
 30
0.0
 70
   128
 71
   561
 72
   624
 73
  -625
  0
VERTEX
  8
RK-LAVAT
 10
0.0
 20
0.0
 30
0.0
 70
   128
 71
   563
 72
  -562
 73
   626
  0
VERTEX
  8
RK-LAVAT
 10
0.0
 20
0.0
 30
0.0
 70
   128
 71
   562
 72
   625
 73
  -626
  0
VERTEX
  8
RK-LAVAT
 10
0.0
 20
0.0
 30
0.0
 70
   128
 71
   564
 72
  -563
 73
   627
  0
VERTEX
  8
RK-LAVAT
 10
0.0
 20
0.0
 30
0.0
 70
   128
 71
   563
 72
   626
 73
  -627
  0
VERTEX
  8
RK-LAVAT
 10
0.0
 20
0.0
 30
0.0
 70
   128
 71
   565
 72
  -564
 73
   628
  0
VERTEX
  8
RK-LAVAT
 10
0.0
 20
0.0
 30
0.0
 70
   128
 71
   564
 72
   627
 73
  -628
  0
VERTEX
  8
RK-LAVAT
 10
0.0
 20
0.0
 30
0.0
 70
   128
 71
   566
 72
  -565
 73
   629
  0
VERTEX
  8
RK-LAVAT
 10
0.0
 20
0.0
 30
0.0
 70
   128
 71
   565
 72
   628
 73
  -629
  0
VERTEX
  8
RK-LAVAT
 10
0.0
 20
0.0
 30
0.0
 70
   128
 71
   567
 72
  -566
 73
   630
  0
VERTEX
  8
RK-LAVAT
 10
0.0
 20
0.0
 30
0.0
 70
   128
 71
   566
 72
   629
 73
  -630
  0
VERTEX
  8
RK-LAVAT
 10
0.0
 20
0.0
 30
0.0
 70
   128
 71
   506
 72
  -567
 73
   569
  0
VERTEX
  8
RK-LAVAT
 10
0.0
 20
0.0
 30
0.0
 70
   128
 71
   567
 72
   630
 73
  -569
  0
VERTEX
  8
RK-LAVAT
 10
0.0
 20
0.0
 30
0.0
 70
   128
 71
   568
 72
  -569
 73
   631
  0
VERTEX
  8
RK-LAVAT
 10
0.0
 20
0.0
 30
0.0
 70
   128
 71
   569
 72
   632
 73
  -631
  0
VERTEX
  8
RK-LAVAT
 10
0.0
 20
0.0
 30
0.0
 70
   128
 71
   570
 72
  -568
 73
   633
  0
VERTEX
  8
RK-LAVAT
 10
0.0
 20
0.0
 30
0.0
 70
   128
 71
   568
 72
   631
 73
  -633
  0
VERTEX
  8
RK-LAVAT
 10
0.0
 20
0.0
 30
0.0
 70
   128
 71
   571
 72
  -570
 73
   634
  0
VERTEX
  8
RK-LAVAT
 10
0.0
 20
0.0
 30
0.0
 70
   128
 71
   570
 72
   633
 73
  -634
  0
VERTEX
  8
RK-LAVAT
 10
0.0
 20
0.0
 30
0.0
 70
   128
 71
   572
 72
  -571
 73
   635
  0
VERTEX
  8
RK-LAVAT
 10
0.0
 20
0.0
 30
0.0
 70
   128
 71
   571
 72
   634
 73
  -635
  0
VERTEX
  8
RK-LAVAT
 10
0.0
 20
0.0
 30
0.0
 70
   128
 71
   573
 72
  -572
 73
   636
  0
VERTEX
  8
RK-LAVAT
 10
0.0
 20
0.0
 30
0.0
 70
   128
 71
   572
 72
   635
 73
  -636
  0
VERTEX
  8
RK-LAVAT
 10
0.0
 20
0.0
 30
0.0
 70
   128
 71
   574
 72
  -573
 73
   637
  0
VERTEX
  8
RK-LAVAT
 10
0.0
 20
0.0
 30
0.0
 70
   128
 71
   573
 72
   636
 73
  -637
  0
VERTEX
  8
RK-LAVAT
 10
0.0
 20
0.0
 30
0.0
 70
   128
 71
   575
 72
  -574
 73
   638
  0
VERTEX
  8
RK-LAVAT
 10
0.0
 20
0.0
 30
0.0
 70
   128
 71
   574
 72
   637
 73
  -638
  0
VERTEX
  8
RK-LAVAT
 10
0.0
 20
0.0
 30
0.0
 70
   128
 71
   576
 72
  -575
 73
   639
  0
VERTEX
  8
RK-LAVAT
 10
0.0
 20
0.0
 30
0.0
 70
   128
 71
   575
 72
   638
 73
  -639
  0
VERTEX
  8
RK-LAVAT
 10
0.0
 20
0.0
 30
0.0
 70
   128
 71
   577
 72
  -576
 73
   640
  0
VERTEX
  8
RK-LAVAT
 10
0.0
 20
0.0
 30
0.0
 70
   128
 71
   576
 72
   639
 73
  -640
  0
VERTEX
  8
RK-LAVAT
 10
0.0
 20
0.0
 30
0.0
 70
   128
 71
   578
 72
  -577
 73
   641
  0
VERTEX
  8
RK-LAVAT
 10
0.0
 20
0.0
 30
0.0
 70
   128
 71
   577
 72
   640
 73
  -641
  0
VERTEX
  8
RK-LAVAT
 10
0.0
 20
0.0
 30
0.0
 70
   128
 71
   579
 72
  -578
 73
   642
  0
VERTEX
  8
RK-LAVAT
 10
0.0
 20
0.0
 30
0.0
 70
   128
 71
   578
 72
   641
 73
  -642
  0
VERTEX
  8
RK-LAVAT
 10
0.0
 20
0.0
 30
0.0
 70
   128
 71
   580
 72
  -579
 73
   643
  0
VERTEX
  8
RK-LAVAT
 10
0.0
 20
0.0
 30
0.0
 70
   128
 71
   579
 72
   642
 73
  -643
  0
VERTEX
  8
RK-LAVAT
 10
0.0
 20
0.0
 30
0.0
 70
   128
 71
   581
 72
  -580
 73
   644
  0
VERTEX
  8
RK-LAVAT
 10
0.0
 20
0.0
 30
0.0
 70
   128
 71
   580
 72
   643
 73
  -644
  0
VERTEX
  8
RK-LAVAT
 10
0.0
 20
0.0
 30
0.0
 70
   128
 71
   582
 72
  -581
 73
   645
  0
VERTEX
  8
RK-LAVAT
 10
0.0
 20
0.0
 30
0.0
 70
   128
 71
   581
 72
   644
 73
  -645
  0
VERTEX
  8
RK-LAVAT
 10
0.0
 20
0.0
 30
0.0
 70
   128
 71
   583
 72
  -582
 73
   646
  0
VERTEX
  8
RK-LAVAT
 10
0.0
 20
0.0
 30
0.0
 70
   128
 71
   582
 72
   645
 73
  -646
  0
VERTEX
  8
RK-LAVAT
 10
0.0
 20
0.0
 30
0.0
 70
   128
 71
   584
 72
  -583
 73
   647
  0
VERTEX
  8
RK-LAVAT
 10
0.0
 20
0.0
 30
0.0
 70
   128
 71
   583
 72
   646
 73
  -647
  0
VERTEX
  8
RK-LAVAT
 10
0.0
 20
0.0
 30
0.0
 70
   128
 71
   585
 72
  -584
 73
   648
  0
VERTEX
  8
RK-LAVAT
 10
0.0
 20
0.0
 30
0.0
 70
   128
 71
   584
 72
   647
 73
  -648
  0
VERTEX
  8
RK-LAVAT
 10
0.0
 20
0.0
 30
0.0
 70
   128
 71
   586
 72
  -585
 73
   649
  0
VERTEX
  8
RK-LAVAT
 10
0.0
 20
0.0
 30
0.0
 70
   128
 71
   585
 72
   648
 73
  -649
  0
VERTEX
  8
RK-LAVAT
 10
0.0
 20
0.0
 30
0.0
 70
   128
 71
   587
 72
  -586
 73
   650
  0
VERTEX
  8
RK-LAVAT
 10
0.0
 20
0.0
 30
0.0
 70
   128
 71
   586
 72
   649
 73
  -650
  0
VERTEX
  8
RK-LAVAT
 10
0.0
 20
0.0
 30
0.0
 70
   128
 71
   588
 72
  -587
 73
   651
  0
VERTEX
  8
RK-LAVAT
 10
0.0
 20
0.0
 30
0.0
 70
   128
 71
   587
 72
   650
 73
  -651
  0
VERTEX
  8
RK-LAVAT
 10
0.0
 20
0.0
 30
0.0
 70
   128
 71
   589
 72
  -588
 73
   652
  0
VERTEX
  8
RK-LAVAT
 10
0.0
 20
0.0
 30
0.0
 70
   128
 71
   588
 72
   651
 73
  -652
  0
VERTEX
  8
RK-LAVAT
 10
0.0
 20
0.0
 30
0.0
 70
   128
 71
   590
 72
  -589
 73
   653
  0
VERTEX
  8
RK-LAVAT
 10
0.0
 20
0.0
 30
0.0
 70
   128
 71
   589
 72
   652
 73
  -653
  0
VERTEX
  8
RK-LAVAT
 10
0.0
 20
0.0
 30
0.0
 70
   128
 71
   591
 72
  -590
 73
   654
  0
VERTEX
  8
RK-LAVAT
 10
0.0
 20
0.0
 30
0.0
 70
   128
 71
   590
 72
   653
 73
  -654
  0
VERTEX
  8
RK-LAVAT
 10
0.0
 20
0.0
 30
0.0
 70
   128
 71
   592
 72
  -591
 73
   655
  0
VERTEX
  8
RK-LAVAT
 10
0.0
 20
0.0
 30
0.0
 70
   128
 71
   591
 72
   654
 73
  -655
  0
VERTEX
  8
RK-LAVAT
 10
0.0
 20
0.0
 30
0.0
 70
   128
 71
   593
 72
  -592
 73
   656
  0
VERTEX
  8
RK-LAVAT
 10
0.0
 20
0.0
 30
0.0
 70
   128
 71
   592
 72
   655
 73
  -656
  0
VERTEX
  8
RK-LAVAT
 10
0.0
 20
0.0
 30
0.0
 70
   128
 71
   594
 72
  -593
 73
   657
  0
VERTEX
  8
RK-LAVAT
 10
0.0
 20
0.0
 30
0.0
 70
   128
 71
   593
 72
   656
 73
  -657
  0
VERTEX
  8
RK-LAVAT
 10
0.0
 20
0.0
 30
0.0
 70
   128
 71
   595
 72
  -594
 73
   658
  0
VERTEX
  8
RK-LAVAT
 10
0.0
 20
0.0
 30
0.0
 70
   128
 71
   594
 72
   657
 73
  -658
  0
VERTEX
  8
RK-LAVAT
 10
0.0
 20
0.0
 30
0.0
 70
   128
 71
   596
 72
  -595
 73
   659
  0
VERTEX
  8
RK-LAVAT
 10
0.0
 20
0.0
 30
0.0
 70
   128
 71
   595
 72
   658
 73
  -659
  0
VERTEX
  8
RK-LAVAT
 10
0.0
 20
0.0
 30
0.0
 70
   128
 71
   597
 72
  -596
 73
   660
  0
VERTEX
  8
RK-LAVAT
 10
0.0
 20
0.0
 30
0.0
 70
   128
 71
   596
 72
   659
 73
  -660
  0
VERTEX
  8
RK-LAVAT
 10
0.0
 20
0.0
 30
0.0
 70
   128
 71
   598
 72
  -597
 73
   661
  0
VERTEX
  8
RK-LAVAT
 10
0.0
 20
0.0
 30
0.0
 70
   128
 71
   597
 72
   660
 73
  -661
  0
VERTEX
  8
RK-LAVAT
 10
0.0
 20
0.0
 30
0.0
 70
   128
 71
   599
 72
  -598
 73
   662
  0
VERTEX
  8
RK-LAVAT
 10
0.0
 20
0.0
 30
0.0
 70
   128
 71
   598
 72
   661
 73
  -662
  0
VERTEX
  8
RK-LAVAT
 10
0.0
 20
0.0
 30
0.0
 70
   128
 71
   600
 72
  -599
 73
   663
  0
VERTEX
  8
RK-LAVAT
 10
0.0
 20
0.0
 30
0.0
 70
   128
 71
   599
 72
   662
 73
  -663
  0
VERTEX
  8
RK-LAVAT
 10
0.0
 20
0.0
 30
0.0
 70
   128
 71
   601
 72
  -600
 73
   664
  0
VERTEX
  8
RK-LAVAT
 10
0.0
 20
0.0
 30
0.0
 70
   128
 71
   600
 72
   663
 73
  -664
  0
VERTEX
  8
RK-LAVAT
 10
0.0
 20
0.0
 30
0.0
 70
   128
 71
   602
 72
  -601
 73
   665
  0
VERTEX
  8
RK-LAVAT
 10
0.0
 20
0.0
 30
0.0
 70
   128
 71
   601
 72
   664
 73
  -665
  0
VERTEX
  8
RK-LAVAT
 10
0.0
 20
0.0
 30
0.0
 70
   128
 71
   603
 72
  -602
 73
   666
  0
VERTEX
  8
RK-LAVAT
 10
0.0
 20
0.0
 30
0.0
 70
   128
 71
   602
 72
   665
 73
  -666
  0
VERTEX
  8
RK-LAVAT
 10
0.0
 20
0.0
 30
0.0
 70
   128
 71
   604
 72
  -603
 73
   667
  0
VERTEX
  8
RK-LAVAT
 10
0.0
 20
0.0
 30
0.0
 70
   128
 71
   603
 72
   666
 73
  -667
  0
VERTEX
  8
RK-LAVAT
 10
0.0
 20
0.0
 30
0.0
 70
   128
 71
   605
 72
  -604
 73
   668
  0
VERTEX
  8
RK-LAVAT
 10
0.0
 20
0.0
 30
0.0
 70
   128
 71
   604
 72
   667
 73
  -668
  0
VERTEX
  8
RK-LAVAT
 10
0.0
 20
0.0
 30
0.0
 70
   128
 71
   606
 72
  -605
 73
   669
  0
VERTEX
  8
RK-LAVAT
 10
0.0
 20
0.0
 30
0.0
 70
   128
 71
   605
 72
   668
 73
  -669
  0
VERTEX
  8
RK-LAVAT
 10
0.0
 20
0.0
 30
0.0
 70
   128
 71
   607
 72
  -606
 73
   670
  0
VERTEX
  8
RK-LAVAT
 10
0.0
 20
0.0
 30
0.0
 70
   128
 71
   606
 72
   669
 73
  -670
  0
VERTEX
  8
RK-LAVAT
 10
0.0
 20
0.0
 30
0.0
 70
   128
 71
   608
 72
  -607
 73
   671
  0
VERTEX
  8
RK-LAVAT
 10
0.0
 20
0.0
 30
0.0
 70
   128
 71
   607
 72
   670
 73
  -671
  0
VERTEX
  8
RK-LAVAT
 10
0.0
 20
0.0
 30
0.0
 70
   128
 71
   609
 72
  -608
 73
   672
  0
VERTEX
  8
RK-LAVAT
 10
0.0
 20
0.0
 30
0.0
 70
   128
 71
   608
 72
   671
 73
  -672
  0
VERTEX
  8
RK-LAVAT
 10
0.0
 20
0.0
 30
0.0
 70
   128
 71
   610
 72
  -609
 73
   673
  0
VERTEX
  8
RK-LAVAT
 10
0.0
 20
0.0
 30
0.0
 70
   128
 71
   609
 72
   672
 73
  -673
  0
VERTEX
  8
RK-LAVAT
 10
0.0
 20
0.0
 30
0.0
 70
   128
 71
   611
 72
  -610
 73
   674
  0
VERTEX
  8
RK-LAVAT
 10
0.0
 20
0.0
 30
0.0
 70
   128
 71
   610
 72
   673
 73
  -674
  0
VERTEX
  8
RK-LAVAT
 10
0.0
 20
0.0
 30
0.0
 70
   128
 71
   612
 72
  -611
 73
   675
  0
VERTEX
  8
RK-LAVAT
 10
0.0
 20
0.0
 30
0.0
 70
   128
 71
   611
 72
   674
 73
  -675
  0
VERTEX
  8
RK-LAVAT
 10
0.0
 20
0.0
 30
0.0
 70
   128
 71
   613
 72
  -612
 73
   676
  0
VERTEX
  8
RK-LAVAT
 10
0.0
 20
0.0
 30
0.0
 70
   128
 71
   612
 72
   675
 73
  -676
  0
VERTEX
  8
RK-LAVAT
 10
0.0
 20
0.0
 30
0.0
 70
   128
 71
   614
 72
  -613
 73
   677
  0
VERTEX
  8
RK-LAVAT
 10
0.0
 20
0.0
 30
0.0
 70
   128
 71
   613
 72
   676
 73
  -677
  0
VERTEX
  8
RK-LAVAT
 10
0.0
 20
0.0
 30
0.0
 70
   128
 71
   615
 72
  -614
 73
   678
  0
VERTEX
  8
RK-LAVAT
 10
0.0
 20
0.0
 30
0.0
 70
   128
 71
   614
 72
   677
 73
  -678
  0
VERTEX
  8
RK-LAVAT
 10
0.0
 20
0.0
 30
0.0
 70
   128
 71
   616
 72
  -615
 73
   679
  0
VERTEX
  8
RK-LAVAT
 10
0.0
 20
0.0
 30
0.0
 70
   128
 71
   615
 72
   678
 73
  -679
  0
VERTEX
  8
RK-LAVAT
 10
0.0
 20
0.0
 30
0.0
 70
   128
 71
   617
 72
  -616
 73
   680
  0
VERTEX
  8
RK-LAVAT
 10
0.0
 20
0.0
 30
0.0
 70
   128
 71
   616
 72
   679
 73
  -680
  0
VERTEX
  8
RK-LAVAT
 10
0.0
 20
0.0
 30
0.0
 70
   128
 71
   618
 72
  -617
 73
   681
  0
VERTEX
  8
RK-LAVAT
 10
0.0
 20
0.0
 30
0.0
 70
   128
 71
   617
 72
   680
 73
  -681
  0
VERTEX
  8
RK-LAVAT
 10
0.0
 20
0.0
 30
0.0
 70
   128
 71
   619
 72
  -618
 73
   682
  0
VERTEX
  8
RK-LAVAT
 10
0.0
 20
0.0
 30
0.0
 70
   128
 71
   618
 72
   681
 73
  -682
  0
VERTEX
  8
RK-LAVAT
 10
0.0
 20
0.0
 30
0.0
 70
   128
 71
   620
 72
  -619
 73
   683
  0
VERTEX
  8
RK-LAVAT
 10
0.0
 20
0.0
 30
0.0
 70
   128
 71
   619
 72
   682
 73
  -683
  0
VERTEX
  8
RK-LAVAT
 10
0.0
 20
0.0
 30
0.0
 70
   128
 71
   621
 72
  -620
 73
   684
  0
VERTEX
  8
RK-LAVAT
 10
0.0
 20
0.0
 30
0.0
 70
   128
 71
   620
 72
   683
 73
  -684
  0
VERTEX
  8
RK-LAVAT
 10
0.0
 20
0.0
 30
0.0
 70
   128
 71
   622
 72
  -621
 73
   685
  0
VERTEX
  8
RK-LAVAT
 10
0.0
 20
0.0
 30
0.0
 70
   128
 71
   621
 72
   684
 73
  -685
  0
VERTEX
  8
RK-LAVAT
 10
0.0
 20
0.0
 30
0.0
 70
   128
 71
   623
 72
  -622
 73
   686
  0
VERTEX
  8
RK-LAVAT
 10
0.0
 20
0.0
 30
0.0
 70
   128
 71
   622
 72
   685
 73
  -686
  0
VERTEX
  8
RK-LAVAT
 10
0.0
 20
0.0
 30
0.0
 70
   128
 71
   624
 72
  -623
 73
   687
  0
VERTEX
  8
RK-LAVAT
 10
0.0
 20
0.0
 30
0.0
 70
   128
 71
   623
 72
   686
 73
  -687
  0
VERTEX
  8
RK-LAVAT
 10
0.0
 20
0.0
 30
0.0
 70
   128
 71
   625
 72
  -624
 73
   688
  0
VERTEX
  8
RK-LAVAT
 10
0.0
 20
0.0
 30
0.0
 70
   128
 71
   624
 72
   687
 73
  -688
  0
VERTEX
  8
RK-LAVAT
 10
0.0
 20
0.0
 30
0.0
 70
   128
 71
   626
 72
  -625
 73
   689
  0
VERTEX
  8
RK-LAVAT
 10
0.0
 20
0.0
 30
0.0
 70
   128
 71
   625
 72
   688
 73
  -689
  0
VERTEX
  8
RK-LAVAT
 10
0.0
 20
0.0
 30
0.0
 70
   128
 71
   627
 72
  -626
 73
   690
  0
VERTEX
  8
RK-LAVAT
 10
0.0
 20
0.0
 30
0.0
 70
   128
 71
   626
 72
   689
 73
  -690
  0
VERTEX
  8
RK-LAVAT
 10
0.0
 20
0.0
 30
0.0
 70
   128
 71
   628
 72
  -627
 73
   691
  0
VERTEX
  8
RK-LAVAT
 10
0.0
 20
0.0
 30
0.0
 70
   128
 71
   627
 72
   690
 73
  -691
  0
VERTEX
  8
RK-LAVAT
 10
0.0
 20
0.0
 30
0.0
 70
   128
 71
   629
 72
  -628
 73
   692
  0
VERTEX
  8
RK-LAVAT
 10
0.0
 20
0.0
 30
0.0
 70
   128
 71
   628
 72
   691
 73
  -692
  0
VERTEX
  8
RK-LAVAT
 10
0.0
 20
0.0
 30
0.0
 70
   128
 71
   630
 72
  -629
 73
   693
  0
VERTEX
  8
RK-LAVAT
 10
0.0
 20
0.0
 30
0.0
 70
   128
 71
   629
 72
   692
 73
  -693
  0
VERTEX
  8
RK-LAVAT
 10
0.0
 20
0.0
 30
0.0
 70
   128
 71
   569
 72
  -630
 73
   632
  0
VERTEX
  8
RK-LAVAT
 10
0.0
 20
0.0
 30
0.0
 70
   128
 71
   630
 72
   693
 73
  -632
  0
VERTEX
  8
RK-LAVAT
 10
0.0
 20
0.0
 30
0.0
 70
   128
 71
   631
 72
  -632
 73
   694
  0
VERTEX
  8
RK-LAVAT
 10
0.0
 20
0.0
 30
0.0
 70
   128
 71
   632
 72
   695
 73
  -694
  0
VERTEX
  8
RK-LAVAT
 10
0.0
 20
0.0
 30
0.0
 70
   128
 71
   633
 72
  -631
 73
   696
  0
VERTEX
  8
RK-LAVAT
 10
0.0
 20
0.0
 30
0.0
 70
   128
 71
   631
 72
   694
 73
  -696
  0
VERTEX
  8
RK-LAVAT
 10
0.0
 20
0.0
 30
0.0
 70
   128
 71
   634
 72
  -633
 73
   697
  0
VERTEX
  8
RK-LAVAT
 10
0.0
 20
0.0
 30
0.0
 70
   128
 71
   633
 72
   696
 73
  -697
  0
VERTEX
  8
RK-LAVAT
 10
0.0
 20
0.0
 30
0.0
 70
   128
 71
   635
 72
  -634
 73
   698
  0
VERTEX
  8
RK-LAVAT
 10
0.0
 20
0.0
 30
0.0
 70
   128
 71
   634
 72
   697
 73
  -698
  0
VERTEX
  8
RK-LAVAT
 10
0.0
 20
0.0
 30
0.0
 70
   128
 71
   636
 72
  -635
 73
   699
  0
VERTEX
  8
RK-LAVAT
 10
0.0
 20
0.0
 30
0.0
 70
   128
 71
   635
 72
   698
 73
  -699
  0
VERTEX
  8
RK-LAVAT
 10
0.0
 20
0.0
 30
0.0
 70
   128
 71
   637
 72
  -636
 73
   700
  0
VERTEX
  8
RK-LAVAT
 10
0.0
 20
0.0
 30
0.0
 70
   128
 71
   636
 72
   699
 73
  -700
  0
VERTEX
  8
RK-LAVAT
 10
0.0
 20
0.0
 30
0.0
 70
   128
 71
   638
 72
  -637
 73
   701
  0
VERTEX
  8
RK-LAVAT
 10
0.0
 20
0.0
 30
0.0
 70
   128
 71
   637
 72
   700
 73
  -701
  0
VERTEX
  8
RK-LAVAT
 10
0.0
 20
0.0
 30
0.0
 70
   128
 71
   639
 72
  -638
 73
   702
  0
VERTEX
  8
RK-LAVAT
 10
0.0
 20
0.0
 30
0.0
 70
   128
 71
   638
 72
   701
 73
  -702
  0
VERTEX
  8
RK-LAVAT
 10
0.0
 20
0.0
 30
0.0
 70
   128
 71
   640
 72
  -639
 73
   703
  0
VERTEX
  8
RK-LAVAT
 10
0.0
 20
0.0
 30
0.0
 70
   128
 71
   639
 72
   702
 73
  -703
  0
VERTEX
  8
RK-LAVAT
 10
0.0
 20
0.0
 30
0.0
 70
   128
 71
   641
 72
  -640
 73
   704
  0
VERTEX
  8
RK-LAVAT
 10
0.0
 20
0.0
 30
0.0
 70
   128
 71
   640
 72
   703
 73
  -704
  0
VERTEX
  8
RK-LAVAT
 10
0.0
 20
0.0
 30
0.0
 70
   128
 71
   642
 72
  -641
 73
   705
  0
VERTEX
  8
RK-LAVAT
 10
0.0
 20
0.0
 30
0.0
 70
   128
 71
   641
 72
   704
 73
  -705
  0
VERTEX
  8
RK-LAVAT
 10
0.0
 20
0.0
 30
0.0
 70
   128
 71
   643
 72
  -642
 73
   706
  0
VERTEX
  8
RK-LAVAT
 10
0.0
 20
0.0
 30
0.0
 70
   128
 71
   642
 72
   705
 73
  -706
  0
VERTEX
  8
RK-LAVAT
 10
0.0
 20
0.0
 30
0.0
 70
   128
 71
   644
 72
  -643
 73
   707
  0
VERTEX
  8
RK-LAVAT
 10
0.0
 20
0.0
 30
0.0
 70
   128
 71
   643
 72
   706
 73
  -707
  0
VERTEX
  8
RK-LAVAT
 10
0.0
 20
0.0
 30
0.0
 70
   128
 71
   645
 72
  -644
 73
   708
  0
VERTEX
  8
RK-LAVAT
 10
0.0
 20
0.0
 30
0.0
 70
   128
 71
   644
 72
   707
 73
  -708
  0
VERTEX
  8
RK-LAVAT
 10
0.0
 20
0.0
 30
0.0
 70
   128
 71
   646
 72
  -645
 73
   709
  0
VERTEX
  8
RK-LAVAT
 10
0.0
 20
0.0
 30
0.0
 70
   128
 71
   645
 72
   708
 73
  -709
  0
VERTEX
  8
RK-LAVAT
 10
0.0
 20
0.0
 30
0.0
 70
   128
 71
   647
 72
  -646
 73
   710
  0
VERTEX
  8
RK-LAVAT
 10
0.0
 20
0.0
 30
0.0
 70
   128
 71
   646
 72
   709
 73
  -710
  0
VERTEX
  8
RK-LAVAT
 10
0.0
 20
0.0
 30
0.0
 70
   128
 71
   648
 72
  -647
 73
   711
  0
VERTEX
  8
RK-LAVAT
 10
0.0
 20
0.0
 30
0.0
 70
   128
 71
   647
 72
   710
 73
  -711
  0
VERTEX
  8
RK-LAVAT
 10
0.0
 20
0.0
 30
0.0
 70
   128
 71
   649
 72
  -648
 73
   712
  0
VERTEX
  8
RK-LAVAT
 10
0.0
 20
0.0
 30
0.0
 70
   128
 71
   648
 72
   711
 73
  -712
  0
VERTEX
  8
RK-LAVAT
 10
0.0
 20
0.0
 30
0.0
 70
   128
 71
   650
 72
  -649
 73
   713
  0
VERTEX
  8
RK-LAVAT
 10
0.0
 20
0.0
 30
0.0
 70
   128
 71
   649
 72
   712
 73
  -713
  0
VERTEX
  8
RK-LAVAT
 10
0.0
 20
0.0
 30
0.0
 70
   128
 71
   651
 72
  -650
 73
   714
  0
VERTEX
  8
RK-LAVAT
 10
0.0
 20
0.0
 30
0.0
 70
   128
 71
   650
 72
   713
 73
  -714
  0
VERTEX
  8
RK-LAVAT
 10
0.0
 20
0.0
 30
0.0
 70
   128
 71
   652
 72
  -651
 73
   715
  0
VERTEX
  8
RK-LAVAT
 10
0.0
 20
0.0
 30
0.0
 70
   128
 71
   651
 72
   714
 73
  -715
  0
VERTEX
  8
RK-LAVAT
 10
0.0
 20
0.0
 30
0.0
 70
   128
 71
   653
 72
  -652
 73
   716
  0
VERTEX
  8
RK-LAVAT
 10
0.0
 20
0.0
 30
0.0
 70
   128
 71
   652
 72
   715
 73
  -716
  0
VERTEX
  8
RK-LAVAT
 10
0.0
 20
0.0
 30
0.0
 70
   128
 71
   654
 72
  -653
 73
   717
  0
VERTEX
  8
RK-LAVAT
 10
0.0
 20
0.0
 30
0.0
 70
   128
 71
   653
 72
   716
 73
  -717
  0
VERTEX
  8
RK-LAVAT
 10
0.0
 20
0.0
 30
0.0
 70
   128
 71
   655
 72
  -654
 73
   718
  0
VERTEX
  8
RK-LAVAT
 10
0.0
 20
0.0
 30
0.0
 70
   128
 71
   654
 72
   717
 73
  -718
  0
VERTEX
  8
RK-LAVAT
 10
0.0
 20
0.0
 30
0.0
 70
   128
 71
   656
 72
  -655
 73
   719
  0
VERTEX
  8
RK-LAVAT
 10
0.0
 20
0.0
 30
0.0
 70
   128
 71
   655
 72
   718
 73
  -719
  0
VERTEX
  8
RK-LAVAT
 10
0.0
 20
0.0
 30
0.0
 70
   128
 71
   657
 72
  -656
 73
   720
  0
VERTEX
  8
RK-LAVAT
 10
0.0
 20
0.0
 30
0.0
 70
   128
 71
   656
 72
   719
 73
  -720
  0
VERTEX
  8
RK-LAVAT
 10
0.0
 20
0.0
 30
0.0
 70
   128
 71
   658
 72
  -657
 73
   721
  0
VERTEX
  8
RK-LAVAT
 10
0.0
 20
0.0
 30
0.0
 70
   128
 71
   657
 72
   720
 73
  -721
  0
VERTEX
  8
RK-LAVAT
 10
0.0
 20
0.0
 30
0.0
 70
   128
 71
   659
 72
  -658
 73
   722
  0
VERTEX
  8
RK-LAVAT
 10
0.0
 20
0.0
 30
0.0
 70
   128
 71
   658
 72
   721
 73
  -722
  0
VERTEX
  8
RK-LAVAT
 10
0.0
 20
0.0
 30
0.0
 70
   128
 71
   660
 72
  -659
 73
   723
  0
VERTEX
  8
RK-LAVAT
 10
0.0
 20
0.0
 30
0.0
 70
   128
 71
   659
 72
   722
 73
  -723
  0
VERTEX
  8
RK-LAVAT
 10
0.0
 20
0.0
 30
0.0
 70
   128
 71
   661
 72
  -660
 73
   724
  0
VERTEX
  8
RK-LAVAT
 10
0.0
 20
0.0
 30
0.0
 70
   128
 71
   660
 72
   723
 73
  -724
  0
VERTEX
  8
RK-LAVAT
 10
0.0
 20
0.0
 30
0.0
 70
   128
 71
   662
 72
  -661
 73
   725
  0
VERTEX
  8
RK-LAVAT
 10
0.0
 20
0.0
 30
0.0
 70
   128
 71
   661
 72
   724
 73
  -725
  0
VERTEX
  8
RK-LAVAT
 10
0.0
 20
0.0
 30
0.0
 70
   128
 71
   663
 72
  -662
 73
   726
  0
VERTEX
  8
RK-LAVAT
 10
0.0
 20
0.0
 30
0.0
 70
   128
 71
   662
 72
   725
 73
  -726
  0
VERTEX
  8
RK-LAVAT
 10
0.0
 20
0.0
 30
0.0
 70
   128
 71
   664
 72
  -663
 73
   727
  0
VERTEX
  8
RK-LAVAT
 10
0.0
 20
0.0
 30
0.0
 70
   128
 71
   663
 72
   726
 73
  -727
  0
VERTEX
  8
RK-LAVAT
 10
0.0
 20
0.0
 30
0.0
 70
   128
 71
   665
 72
  -664
 73
   728
  0
VERTEX
  8
RK-LAVAT
 10
0.0
 20
0.0
 30
0.0
 70
   128
 71
   664
 72
   727
 73
  -728
  0
VERTEX
  8
RK-LAVAT
 10
0.0
 20
0.0
 30
0.0
 70
   128
 71
   666
 72
  -665
 73
   729
  0
VERTEX
  8
RK-LAVAT
 10
0.0
 20
0.0
 30
0.0
 70
   128
 71
   665
 72
   728
 73
  -729
  0
VERTEX
  8
RK-LAVAT
 10
0.0
 20
0.0
 30
0.0
 70
   128
 71
   667
 72
  -666
 73
   730
  0
VERTEX
  8
RK-LAVAT
 10
0.0
 20
0.0
 30
0.0
 70
   128
 71
   666
 72
   729
 73
  -730
  0
VERTEX
  8
RK-LAVAT
 10
0.0
 20
0.0
 30
0.0
 70
   128
 71
   668
 72
  -667
 73
   731
  0
VERTEX
  8
RK-LAVAT
 10
0.0
 20
0.0
 30
0.0
 70
   128
 71
   667
 72
   730
 73
  -731
  0
VERTEX
  8
RK-LAVAT
 10
0.0
 20
0.0
 30
0.0
 70
   128
 71
   669
 72
  -668
 73
   732
  0
VERTEX
  8
RK-LAVAT
 10
0.0
 20
0.0
 30
0.0
 70
   128
 71
   668
 72
   731
 73
  -732
  0
VERTEX
  8
RK-LAVAT
 10
0.0
 20
0.0
 30
0.0
 70
   128
 71
   670
 72
  -669
 73
   733
  0
VERTEX
  8
RK-LAVAT
 10
0.0
 20
0.0
 30
0.0
 70
   128
 71
   669
 72
   732
 73
  -733
  0
VERTEX
  8
RK-LAVAT
 10
0.0
 20
0.0
 30
0.0
 70
   128
 71
   671
 72
  -670
 73
   734
  0
VERTEX
  8
RK-LAVAT
 10
0.0
 20
0.0
 30
0.0
 70
   128
 71
   670
 72
   733
 73
  -734
  0
VERTEX
  8
RK-LAVAT
 10
0.0
 20
0.0
 30
0.0
 70
   128
 71
   672
 72
  -671
 73
   735
  0
VERTEX
  8
RK-LAVAT
 10
0.0
 20
0.0
 30
0.0
 70
   128
 71
   671
 72
   734
 73
  -735
  0
VERTEX
  8
RK-LAVAT
 10
0.0
 20
0.0
 30
0.0
 70
   128
 71
   673
 72
  -672
 73
   736
  0
VERTEX
  8
RK-LAVAT
 10
0.0
 20
0.0
 30
0.0
 70
   128
 71
   672
 72
   735
 73
  -736
  0
VERTEX
  8
RK-LAVAT
 10
0.0
 20
0.0
 30
0.0
 70
   128
 71
   674
 72
  -673
 73
   737
  0
VERTEX
  8
RK-LAVAT
 10
0.0
 20
0.0
 30
0.0
 70
   128
 71
   673
 72
   736
 73
  -737
  0
VERTEX
  8
RK-LAVAT
 10
0.0
 20
0.0
 30
0.0
 70
   128
 71
   675
 72
  -674
 73
   738
  0
VERTEX
  8
RK-LAVAT
 10
0.0
 20
0.0
 30
0.0
 70
   128
 71
   674
 72
   737
 73
  -738
  0
VERTEX
  8
RK-LAVAT
 10
0.0
 20
0.0
 30
0.0
 70
   128
 71
   676
 72
  -675
 73
   739
  0
VERTEX
  8
RK-LAVAT
 10
0.0
 20
0.0
 30
0.0
 70
   128
 71
   675
 72
   738
 73
  -739
  0
VERTEX
  8
RK-LAVAT
 10
0.0
 20
0.0
 30
0.0
 70
   128
 71
   677
 72
  -676
 73
   740
  0
VERTEX
  8
RK-LAVAT
 10
0.0
 20
0.0
 30
0.0
 70
   128
 71
   676
 72
   739
 73
  -740
  0
VERTEX
  8
RK-LAVAT
 10
0.0
 20
0.0
 30
0.0
 70
   128
 71
   678
 72
  -677
 73
   741
  0
VERTEX
  8
RK-LAVAT
 10
0.0
 20
0.0
 30
0.0
 70
   128
 71
   677
 72
   740
 73
  -741
  0
VERTEX
  8
RK-LAVAT
 10
0.0
 20
0.0
 30
0.0
 70
   128
 71
   679
 72
  -678
 73
   742
  0
VERTEX
  8
RK-LAVAT
 10
0.0
 20
0.0
 30
0.0
 70
   128
 71
   678
 72
   741
 73
  -742
  0
VERTEX
  8
RK-LAVAT
 10
0.0
 20
0.0
 30
0.0
 70
   128
 71
   680
 72
  -679
 73
   743
  0
VERTEX
  8
RK-LAVAT
 10
0.0
 20
0.0
 30
0.0
 70
   128
 71
   679
 72
   742
 73
  -743
  0
VERTEX
  8
RK-LAVAT
 10
0.0
 20
0.0
 30
0.0
 70
   128
 71
   681
 72
  -680
 73
   744
  0
VERTEX
  8
RK-LAVAT
 10
0.0
 20
0.0
 30
0.0
 70
   128
 71
   680
 72
   743
 73
  -744
  0
VERTEX
  8
RK-LAVAT
 10
0.0
 20
0.0
 30
0.0
 70
   128
 71
   682
 72
  -681
 73
   745
  0
VERTEX
  8
RK-LAVAT
 10
0.0
 20
0.0
 30
0.0
 70
   128
 71
   681
 72
   744
 73
  -745
  0
VERTEX
  8
RK-LAVAT
 10
0.0
 20
0.0
 30
0.0
 70
   128
 71
   683
 72
  -682
 73
   746
  0
VERTEX
  8
RK-LAVAT
 10
0.0
 20
0.0
 30
0.0
 70
   128
 71
   682
 72
   745
 73
  -746
  0
VERTEX
  8
RK-LAVAT
 10
0.0
 20
0.0
 30
0.0
 70
   128
 71
   684
 72
  -683
 73
   747
  0
VERTEX
  8
RK-LAVAT
 10
0.0
 20
0.0
 30
0.0
 70
   128
 71
   683
 72
   746
 73
  -747
  0
VERTEX
  8
RK-LAVAT
 10
0.0
 20
0.0
 30
0.0
 70
   128
 71
   685
 72
  -684
 73
   748
  0
VERTEX
  8
RK-LAVAT
 10
0.0
 20
0.0
 30
0.0
 70
   128
 71
   684
 72
   747
 73
  -748
  0
VERTEX
  8
RK-LAVAT
 10
0.0
 20
0.0
 30
0.0
 70
   128
 71
   686
 72
  -685
 73
   749
  0
VERTEX
  8
RK-LAVAT
 10
0.0
 20
0.0
 30
0.0
 70
   128
 71
   685
 72
   748
 73
  -749
  0
VERTEX
  8
RK-LAVAT
 10
0.0
 20
0.0
 30
0.0
 70
   128
 71
   687
 72
  -686
 73
   750
  0
VERTEX
  8
RK-LAVAT
 10
0.0
 20
0.0
 30
0.0
 70
   128
 71
   686
 72
   749
 73
  -750
  0
VERTEX
  8
RK-LAVAT
 10
0.0
 20
0.0
 30
0.0
 70
   128
 71
   688
 72
  -687
 73
   751
  0
VERTEX
  8
RK-LAVAT
 10
0.0
 20
0.0
 30
0.0
 70
   128
 71
   687
 72
   750
 73
  -751
  0
VERTEX
  8
RK-LAVAT
 10
0.0
 20
0.0
 30
0.0
 70
   128
 71
   689
 72
  -688
 73
   752
  0
VERTEX
  8
RK-LAVAT
 10
0.0
 20
0.0
 30
0.0
 70
   128
 71
   688
 72
   751
 73
  -752
  0
VERTEX
  8
RK-LAVAT
 10
0.0
 20
0.0
 30
0.0
 70
   128
 71
   690
 72
  -689
 73
   753
  0
VERTEX
  8
RK-LAVAT
 10
0.0
 20
0.0
 30
0.0
 70
   128
 71
   689
 72
   752
 73
  -753
  0
VERTEX
  8
RK-LAVAT
 10
0.0
 20
0.0
 30
0.0
 70
   128
 71
   691
 72
  -690
 73
   754
  0
VERTEX
  8
RK-LAVAT
 10
0.0
 20
0.0
 30
0.0
 70
   128
 71
   690
 72
   753
 73
  -754
  0
VERTEX
  8
RK-LAVAT
 10
0.0
 20
0.0
 30
0.0
 70
   128
 71
   692
 72
  -691
 73
   755
  0
VERTEX
  8
RK-LAVAT
 10
0.0
 20
0.0
 30
0.0
 70
   128
 71
   691
 72
   754
 73
  -755
  0
VERTEX
  8
RK-LAVAT
 10
0.0
 20
0.0
 30
0.0
 70
   128
 71
   693
 72
  -692
 73
   756
  0
VERTEX
  8
RK-LAVAT
 10
0.0
 20
0.0
 30
0.0
 70
   128
 71
   692
 72
   755
 73
  -756
  0
VERTEX
  8
RK-LAVAT
 10
0.0
 20
0.0
 30
0.0
 70
   128
 71
   632
 72
  -693
 73
   695
  0
VERTEX
  8
RK-LAVAT
 10
0.0
 20
0.0
 30
0.0
 70
   128
 71
   693
 72
   756
 73
  -695
  0
VERTEX
  8
RK-LAVAT
 10
0.0
 20
0.0
 30
0.0
 70
   128
 71
   694
 72
  -695
 73
   757
  0
VERTEX
  8
RK-LAVAT
 10
0.0
 20
0.0
 30
0.0
 70
   128
 71
   695
 72
   758
 73
  -757
  0
VERTEX
  8
RK-LAVAT
 10
0.0
 20
0.0
 30
0.0
 70
   128
 71
   696
 72
  -694
 73
   759
  0
VERTEX
  8
RK-LAVAT
 10
0.0
 20
0.0
 30
0.0
 70
   128
 71
   694
 72
   757
 73
  -759
  0
VERTEX
  8
RK-LAVAT
 10
0.0
 20
0.0
 30
0.0
 70
   128
 71
   697
 72
  -696
 73
   760
  0
VERTEX
  8
RK-LAVAT
 10
0.0
 20
0.0
 30
0.0
 70
   128
 71
   696
 72
   759
 73
  -760
  0
VERTEX
  8
RK-LAVAT
 10
0.0
 20
0.0
 30
0.0
 70
   128
 71
   698
 72
  -697
 73
   761
  0
VERTEX
  8
RK-LAVAT
 10
0.0
 20
0.0
 30
0.0
 70
   128
 71
   697
 72
   760
 73
  -761
  0
VERTEX
  8
RK-LAVAT
 10
0.0
 20
0.0
 30
0.0
 70
   128
 71
   699
 72
  -698
 73
   762
  0
VERTEX
  8
RK-LAVAT
 10
0.0
 20
0.0
 30
0.0
 70
   128
 71
   698
 72
   761
 73
  -762
  0
VERTEX
  8
RK-LAVAT
 10
0.0
 20
0.0
 30
0.0
 70
   128
 71
   700
 72
  -699
 73
   763
  0
VERTEX
  8
RK-LAVAT
 10
0.0
 20
0.0
 30
0.0
 70
   128
 71
   699
 72
   762
 73
  -763
  0
VERTEX
  8
RK-LAVAT
 10
0.0
 20
0.0
 30
0.0
 70
   128
 71
   701
 72
  -700
 73
   764
  0
VERTEX
  8
RK-LAVAT
 10
0.0
 20
0.0
 30
0.0
 70
   128
 71
   700
 72
   763
 73
  -764
  0
VERTEX
  8
RK-LAVAT
 10
0.0
 20
0.0
 30
0.0
 70
   128
 71
   702
 72
  -701
 73
   765
  0
VERTEX
  8
RK-LAVAT
 10
0.0
 20
0.0
 30
0.0
 70
   128
 71
   701
 72
   764
 73
  -765
  0
VERTEX
  8
RK-LAVAT
 10
0.0
 20
0.0
 30
0.0
 70
   128
 71
   703
 72
  -702
 73
   766
  0
VERTEX
  8
RK-LAVAT
 10
0.0
 20
0.0
 30
0.0
 70
   128
 71
   702
 72
   765
 73
  -766
  0
VERTEX
  8
RK-LAVAT
 10
0.0
 20
0.0
 30
0.0
 70
   128
 71
   704
 72
  -703
 73
   767
  0
VERTEX
  8
RK-LAVAT
 10
0.0
 20
0.0
 30
0.0
 70
   128
 71
   703
 72
   766
 73
  -767
  0
VERTEX
  8
RK-LAVAT
 10
0.0
 20
0.0
 30
0.0
 70
   128
 71
   705
 72
  -704
 73
   768
  0
VERTEX
  8
RK-LAVAT
 10
0.0
 20
0.0
 30
0.0
 70
   128
 71
   704
 72
   767
 73
  -768
  0
VERTEX
  8
RK-LAVAT
 10
0.0
 20
0.0
 30
0.0
 70
   128
 71
   706
 72
  -705
 73
   769
  0
VERTEX
  8
RK-LAVAT
 10
0.0
 20
0.0
 30
0.0
 70
   128
 71
   705
 72
   768
 73
  -769
  0
VERTEX
  8
RK-LAVAT
 10
0.0
 20
0.0
 30
0.0
 70
   128
 71
   707
 72
  -706
 73
   770
  0
VERTEX
  8
RK-LAVAT
 10
0.0
 20
0.0
 30
0.0
 70
   128
 71
   706
 72
   769
 73
  -770
  0
VERTEX
  8
RK-LAVAT
 10
0.0
 20
0.0
 30
0.0
 70
   128
 71
   708
 72
  -707
 73
   771
  0
VERTEX
  8
RK-LAVAT
 10
0.0
 20
0.0
 30
0.0
 70
   128
 71
   707
 72
   770
 73
  -771
  0
VERTEX
  8
RK-LAVAT
 10
0.0
 20
0.0
 30
0.0
 70
   128
 71
   709
 72
  -708
 73
   772
  0
VERTEX
  8
RK-LAVAT
 10
0.0
 20
0.0
 30
0.0
 70
   128
 71
   708
 72
   771
 73
  -772
  0
VERTEX
  8
RK-LAVAT
 10
0.0
 20
0.0
 30
0.0
 70
   128
 71
   710
 72
  -709
 73
   773
  0
VERTEX
  8
RK-LAVAT
 10
0.0
 20
0.0
 30
0.0
 70
   128
 71
   709
 72
   772
 73
  -773
  0
VERTEX
  8
RK-LAVAT
 10
0.0
 20
0.0
 30
0.0
 70
   128
 71
   711
 72
  -710
 73
   774
  0
VERTEX
  8
RK-LAVAT
 10
0.0
 20
0.0
 30
0.0
 70
   128
 71
   710
 72
   773
 73
  -774
  0
VERTEX
  8
RK-LAVAT
 10
0.0
 20
0.0
 30
0.0
 70
   128
 71
   712
 72
  -711
 73
   775
  0
VERTEX
  8
RK-LAVAT
 10
0.0
 20
0.0
 30
0.0
 70
   128
 71
   711
 72
   774
 73
  -775
  0
VERTEX
  8
RK-LAVAT
 10
0.0
 20
0.0
 30
0.0
 70
   128
 71
   713
 72
  -712
 73
   776
  0
VERTEX
  8
RK-LAVAT
 10
0.0
 20
0.0
 30
0.0
 70
   128
 71
   712
 72
   775
 73
  -776
  0
VERTEX
  8
RK-LAVAT
 10
0.0
 20
0.0
 30
0.0
 70
   128
 71
   714
 72
  -713
 73
   777
  0
VERTEX
  8
RK-LAVAT
 10
0.0
 20
0.0
 30
0.0
 70
   128
 71
   713
 72
   776
 73
  -777
  0
VERTEX
  8
RK-LAVAT
 10
0.0
 20
0.0
 30
0.0
 70
   128
 71
   715
 72
  -714
 73
   778
  0
VERTEX
  8
RK-LAVAT
 10
0.0
 20
0.0
 30
0.0
 70
   128
 71
   714
 72
   777
 73
  -778
  0
VERTEX
  8
RK-LAVAT
 10
0.0
 20
0.0
 30
0.0
 70
   128
 71
   716
 72
  -715
 73
   779
  0
VERTEX
  8
RK-LAVAT
 10
0.0
 20
0.0
 30
0.0
 70
   128
 71
   715
 72
   778
 73
  -779
  0
VERTEX
  8
RK-LAVAT
 10
0.0
 20
0.0
 30
0.0
 70
   128
 71
   717
 72
  -716
 73
   780
  0
VERTEX
  8
RK-LAVAT
 10
0.0
 20
0.0
 30
0.0
 70
   128
 71
   716
 72
   779
 73
  -780
  0
VERTEX
  8
RK-LAVAT
 10
0.0
 20
0.0
 30
0.0
 70
   128
 71
   718
 72
  -717
 73
   781
  0
VERTEX
  8
RK-LAVAT
 10
0.0
 20
0.0
 30
0.0
 70
   128
 71
   717
 72
   780
 73
  -781
  0
VERTEX
  8
RK-LAVAT
 10
0.0
 20
0.0
 30
0.0
 70
   128
 71
   719
 72
  -718
 73
   782
  0
VERTEX
  8
RK-LAVAT
 10
0.0
 20
0.0
 30
0.0
 70
   128
 71
   718
 72
   781
 73
  -782
  0
VERTEX
  8
RK-LAVAT
 10
0.0
 20
0.0
 30
0.0
 70
   128
 71
   720
 72
  -719
 73
   783
  0
VERTEX
  8
RK-LAVAT
 10
0.0
 20
0.0
 30
0.0
 70
   128
 71
   719
 72
   782
 73
  -783
  0
VERTEX
  8
RK-LAVAT
 10
0.0
 20
0.0
 30
0.0
 70
   128
 71
   721
 72
  -720
 73
   784
  0
VERTEX
  8
RK-LAVAT
 10
0.0
 20
0.0
 30
0.0
 70
   128
 71
   720
 72
   783
 73
  -784
  0
VERTEX
  8
RK-LAVAT
 10
0.0
 20
0.0
 30
0.0
 70
   128
 71
   722
 72
  -721
 73
   785
  0
VERTEX
  8
RK-LAVAT
 10
0.0
 20
0.0
 30
0.0
 70
   128
 71
   721
 72
   784
 73
  -785
  0
VERTEX
  8
RK-LAVAT
 10
0.0
 20
0.0
 30
0.0
 70
   128
 71
   723
 72
  -722
 73
   786
  0
VERTEX
  8
RK-LAVAT
 10
0.0
 20
0.0
 30
0.0
 70
   128
 71
   722
 72
   785
 73
  -786
  0
VERTEX
  8
RK-LAVAT
 10
0.0
 20
0.0
 30
0.0
 70
   128
 71
   724
 72
  -723
 73
   787
  0
VERTEX
  8
RK-LAVAT
 10
0.0
 20
0.0
 30
0.0
 70
   128
 71
   723
 72
   786
 73
  -787
  0
VERTEX
  8
RK-LAVAT
 10
0.0
 20
0.0
 30
0.0
 70
   128
 71
   725
 72
  -724
 73
   788
  0
VERTEX
  8
RK-LAVAT
 10
0.0
 20
0.0
 30
0.0
 70
   128
 71
   724
 72
   787
 73
  -788
  0
VERTEX
  8
RK-LAVAT
 10
0.0
 20
0.0
 30
0.0
 70
   128
 71
   726
 72
  -725
 73
   789
  0
VERTEX
  8
RK-LAVAT
 10
0.0
 20
0.0
 30
0.0
 70
   128
 71
   725
 72
   788
 73
  -789
  0
VERTEX
  8
RK-LAVAT
 10
0.0
 20
0.0
 30
0.0
 70
   128
 71
   727
 72
  -726
 73
   790
  0
VERTEX
  8
RK-LAVAT
 10
0.0
 20
0.0
 30
0.0
 70
   128
 71
   726
 72
   789
 73
  -790
  0
VERTEX
  8
RK-LAVAT
 10
0.0
 20
0.0
 30
0.0
 70
   128
 71
   728
 72
  -727
 73
   791
  0
VERTEX
  8
RK-LAVAT
 10
0.0
 20
0.0
 30
0.0
 70
   128
 71
   727
 72
   790
 73
  -791
  0
VERTEX
  8
RK-LAVAT
 10
0.0
 20
0.0
 30
0.0
 70
   128
 71
   729
 72
  -728
 73
   792
  0
VERTEX
  8
RK-LAVAT
 10
0.0
 20
0.0
 30
0.0
 70
   128
 71
   728
 72
   791
 73
  -792
  0
VERTEX
  8
RK-LAVAT
 10
0.0
 20
0.0
 30
0.0
 70
   128
 71
   730
 72
  -729
 73
   793
  0
VERTEX
  8
RK-LAVAT
 10
0.0
 20
0.0
 30
0.0
 70
   128
 71
   729
 72
   792
 73
  -793
  0
VERTEX
  8
RK-LAVAT
 10
0.0
 20
0.0
 30
0.0
 70
   128
 71
   731
 72
  -730
 73
   794
  0
VERTEX
  8
RK-LAVAT
 10
0.0
 20
0.0
 30
0.0
 70
   128
 71
   730
 72
   793
 73
  -794
  0
VERTEX
  8
RK-LAVAT
 10
0.0
 20
0.0
 30
0.0
 70
   128
 71
   732
 72
  -731
 73
   795
  0
VERTEX
  8
RK-LAVAT
 10
0.0
 20
0.0
 30
0.0
 70
   128
 71
   731
 72
   794
 73
  -795
  0
VERTEX
  8
RK-LAVAT
 10
0.0
 20
0.0
 30
0.0
 70
   128
 71
   733
 72
  -732
 73
   796
  0
VERTEX
  8
RK-LAVAT
 10
0.0
 20
0.0
 30
0.0
 70
   128
 71
   732
 72
   795
 73
  -796
  0
VERTEX
  8
RK-LAVAT
 10
0.0
 20
0.0
 30
0.0
 70
   128
 71
   734
 72
  -733
 73
   797
  0
VERTEX
  8
RK-LAVAT
 10
0.0
 20
0.0
 30
0.0
 70
   128
 71
   733
 72
   796
 73
  -797
  0
VERTEX
  8
RK-LAVAT
 10
0.0
 20
0.0
 30
0.0
 70
   128
 71
   735
 72
  -734
 73
   798
  0
VERTEX
  8
RK-LAVAT
 10
0.0
 20
0.0
 30
0.0
 70
   128
 71
   734
 72
   797
 73
  -798
  0
VERTEX
  8
RK-LAVAT
 10
0.0
 20
0.0
 30
0.0
 70
   128
 71
   736
 72
  -735
 73
   799
  0
VERTEX
  8
RK-LAVAT
 10
0.0
 20
0.0
 30
0.0
 70
   128
 71
   735
 72
   798
 73
  -799
  0
VERTEX
  8
RK-LAVAT
 10
0.0
 20
0.0
 30
0.0
 70
   128
 71
   737
 72
  -736
 73
   800
  0
VERTEX
  8
RK-LAVAT
 10
0.0
 20
0.0
 30
0.0
 70
   128
 71
   736
 72
   799
 73
  -800
  0
VERTEX
  8
RK-LAVAT
 10
0.0
 20
0.0
 30
0.0
 70
   128
 71
   738
 72
  -737
 73
   801
  0
VERTEX
  8
RK-LAVAT
 10
0.0
 20
0.0
 30
0.0
 70
   128
 71
   737
 72
   800
 73
  -801
  0
VERTEX
  8
RK-LAVAT
 10
0.0
 20
0.0
 30
0.0
 70
   128
 71
   739
 72
  -738
 73
   802
  0
VERTEX
  8
RK-LAVAT
 10
0.0
 20
0.0
 30
0.0
 70
   128
 71
   738
 72
   801
 73
  -802
  0
VERTEX
  8
RK-LAVAT
 10
0.0
 20
0.0
 30
0.0
 70
   128
 71
   740
 72
  -739
 73
   803
  0
VERTEX
  8
RK-LAVAT
 10
0.0
 20
0.0
 30
0.0
 70
   128
 71
   739
 72
   802
 73
  -803
  0
VERTEX
  8
RK-LAVAT
 10
0.0
 20
0.0
 30
0.0
 70
   128
 71
   741
 72
  -740
 73
   804
  0
VERTEX
  8
RK-LAVAT
 10
0.0
 20
0.0
 30
0.0
 70
   128
 71
   740
 72
   803
 73
  -804
  0
VERTEX
  8
RK-LAVAT
 10
0.0
 20
0.0
 30
0.0
 70
   128
 71
   742
 72
  -741
 73
   805
  0
VERTEX
  8
RK-LAVAT
 10
0.0
 20
0.0
 30
0.0
 70
   128
 71
   741
 72
   804
 73
  -805
  0
VERTEX
  8
RK-LAVAT
 10
0.0
 20
0.0
 30
0.0
 70
   128
 71
   743
 72
  -742
 73
   806
  0
VERTEX
  8
RK-LAVAT
 10
0.0
 20
0.0
 30
0.0
 70
   128
 71
   742
 72
   805
 73
  -806
  0
VERTEX
  8
RK-LAVAT
 10
0.0
 20
0.0
 30
0.0
 70
   128
 71
   744
 72
  -743
 73
   807
  0
VERTEX
  8
RK-LAVAT
 10
0.0
 20
0.0
 30
0.0
 70
   128
 71
   743
 72
   806
 73
  -807
  0
VERTEX
  8
RK-LAVAT
 10
0.0
 20
0.0
 30
0.0
 70
   128
 71
   745
 72
  -744
 73
   808
  0
VERTEX
  8
RK-LAVAT
 10
0.0
 20
0.0
 30
0.0
 70
   128
 71
   744
 72
   807
 73
  -808
  0
VERTEX
  8
RK-LAVAT
 10
0.0
 20
0.0
 30
0.0
 70
   128
 71
   746
 72
  -745
 73
   809
  0
VERTEX
  8
RK-LAVAT
 10
0.0
 20
0.0
 30
0.0
 70
   128
 71
   745
 72
   808
 73
  -809
  0
VERTEX
  8
RK-LAVAT
 10
0.0
 20
0.0
 30
0.0
 70
   128
 71
   747
 72
  -746
 73
   810
  0
VERTEX
  8
RK-LAVAT
 10
0.0
 20
0.0
 30
0.0
 70
   128
 71
   746
 72
   809
 73
  -810
  0
VERTEX
  8
RK-LAVAT
 10
0.0
 20
0.0
 30
0.0
 70
   128
 71
   748
 72
  -747
 73
   811
  0
VERTEX
  8
RK-LAVAT
 10
0.0
 20
0.0
 30
0.0
 70
   128
 71
   747
 72
   810
 73
  -811
  0
VERTEX
  8
RK-LAVAT
 10
0.0
 20
0.0
 30
0.0
 70
   128
 71
   749
 72
  -748
 73
   812
  0
VERTEX
  8
RK-LAVAT
 10
0.0
 20
0.0
 30
0.0
 70
   128
 71
   748
 72
   811
 73
  -812
  0
VERTEX
  8
RK-LAVAT
 10
0.0
 20
0.0
 30
0.0
 70
   128
 71
   750
 72
  -749
 73
   813
  0
VERTEX
  8
RK-LAVAT
 10
0.0
 20
0.0
 30
0.0
 70
   128
 71
   749
 72
   812
 73
  -813
  0
VERTEX
  8
RK-LAVAT
 10
0.0
 20
0.0
 30
0.0
 70
   128
 71
   751
 72
  -750
 73
   814
  0
VERTEX
  8
RK-LAVAT
 10
0.0
 20
0.0
 30
0.0
 70
   128
 71
   750
 72
   813
 73
  -814
  0
VERTEX
  8
RK-LAVAT
 10
0.0
 20
0.0
 30
0.0
 70
   128
 71
   752
 72
  -751
 73
   815
  0
VERTEX
  8
RK-LAVAT
 10
0.0
 20
0.0
 30
0.0
 70
   128
 71
   751
 72
   814
 73
  -815
  0
VERTEX
  8
RK-LAVAT
 10
0.0
 20
0.0
 30
0.0
 70
   128
 71
   753
 72
  -752
 73
   816
  0
VERTEX
  8
RK-LAVAT
 10
0.0
 20
0.0
 30
0.0
 70
   128
 71
   752
 72
   815
 73
  -816
  0
VERTEX
  8
RK-LAVAT
 10
0.0
 20
0.0
 30
0.0
 70
   128
 71
   754
 72
  -753
 73
   817
  0
VERTEX
  8
RK-LAVAT
 10
0.0
 20
0.0
 30
0.0
 70
   128
 71
   753
 72
   816
 73
  -817
  0
VERTEX
  8
RK-LAVAT
 10
0.0
 20
0.0
 30
0.0
 70
   128
 71
   755
 72
  -754
 73
   818
  0
VERTEX
  8
RK-LAVAT
 10
0.0
 20
0.0
 30
0.0
 70
   128
 71
   754
 72
   817
 73
  -818
  0
VERTEX
  8
RK-LAVAT
 10
0.0
 20
0.0
 30
0.0
 70
   128
 71
   756
 72
  -755
 73
   819
  0
VERTEX
  8
RK-LAVAT
 10
0.0
 20
0.0
 30
0.0
 70
   128
 71
   755
 72
   818
 73
  -819
  0
VERTEX
  8
RK-LAVAT
 10
0.0
 20
0.0
 30
0.0
 70
   128
 71
   695
 72
  -756
 73
   758
  0
VERTEX
  8
RK-LAVAT
 10
0.0
 20
0.0
 30
0.0
 70
   128
 71
   756
 72
   819
 73
  -758
  0
VERTEX
  8
RK-LAVAT
 10
0.0
 20
0.0
 30
0.0
 70
   128
 71
  -783
 72
   785
 73
   784
  0
VERTEX
  8
RK-LAVAT
 10
0.0
 20
0.0
 30
0.0
 70
   128
 71
  -783
 72
   786
 73
  -785
  0
VERTEX
  8
RK-LAVAT
 10
0.0
 20
0.0
 30
0.0
 70
   128
 71
  -783
 72
   787
 73
  -786
  0
VERTEX
  8
RK-LAVAT
 10
0.0
 20
0.0
 30
0.0
 70
   128
 71
  -783
 72
   788
 73
  -787
  0
VERTEX
  8
RK-LAVAT
 10
0.0
 20
0.0
 30
0.0
 70
   128
 71
  -783
 72
   789
 73
  -788
  0
VERTEX
  8
RK-LAVAT
 10
0.0
 20
0.0
 30
0.0
 70
   128
 71
  -783
 72
   790
 73
  -789
  0
VERTEX
  8
RK-LAVAT
 10
0.0
 20
0.0
 30
0.0
 70
   128
 71
  -783
 72
   791
 73
  -790
  0
VERTEX
  8
RK-LAVAT
 10
0.0
 20
0.0
 30
0.0
 70
   128
 71
  -783
 72
   792
 73
  -791
  0
VERTEX
  8
RK-LAVAT
 10
0.0
 20
0.0
 30
0.0
 70
   128
 71
  -783
 72
   793
 73
  -792
  0
VERTEX
  8
RK-LAVAT
 10
0.0
 20
0.0
 30
0.0
 70
   128
 71
   783
 72
  -782
 73
  -793
  0
VERTEX
  8
RK-LAVAT
 10
0.0
 20
0.0
 30
0.0
 70
   128
 71
  -782
 72
   794
 73
  -793
  0
VERTEX
  8
RK-LAVAT
 10
0.0
 20
0.0
 30
0.0
 70
   128
 71
   782
 72
  -781
 73
  -794
  0
VERTEX
  8
RK-LAVAT
 10
0.0
 20
0.0
 30
0.0
 70
   128
 71
   781
 72
  -780
 73
  -794
  0
VERTEX
  8
RK-LAVAT
 10
0.0
 20
0.0
 30
0.0
 70
   128
 71
   780
 72
  -779
 73
  -794
  0
VERTEX
  8
RK-LAVAT
 10
0.0
 20
0.0
 30
0.0
 70
   128
 71
   779
 72
  -778
 73
  -794
  0
VERTEX
  8
RK-LAVAT
 10
0.0
 20
0.0
 30
0.0
 70
   128
 71
   778
 72
  -777
 73
  -794
  0
VERTEX
  8
RK-LAVAT
 10
0.0
 20
0.0
 30
0.0
 70
   128
 71
   777
 72
  -776
 73
  -794
  0
VERTEX
  8
RK-LAVAT
 10
0.0
 20
0.0
 30
0.0
 70
   128
 71
  -776
 72
   795
 73
  -794
  0
VERTEX
  8
RK-LAVAT
 10
0.0
 20
0.0
 30
0.0
 70
   128
 71
   776
 72
  -775
 73
  -795
  0
VERTEX
  8
RK-LAVAT
 10
0.0
 20
0.0
 30
0.0
 70
   128
 71
  -775
 72
   796
 73
  -795
  0
VERTEX
  8
RK-LAVAT
 10
0.0
 20
0.0
 30
0.0
 70
   128
 71
  -775
 72
   797
 73
  -796
  0
VERTEX
  8
RK-LAVAT
 10
0.0
 20
0.0
 30
0.0
 70
   128
 71
   775
 72
  -774
 73
  -797
  0
VERTEX
  8
RK-LAVAT
 10
0.0
 20
0.0
 30
0.0
 70
   128
 71
  -774
 72
   798
 73
  -797
  0
VERTEX
  8
RK-LAVAT
 10
0.0
 20
0.0
 30
0.0
 70
   128
 71
   774
 72
  -773
 73
  -798
  0
VERTEX
  8
RK-LAVAT
 10
0.0
 20
0.0
 30
0.0
 70
   128
 71
  -773
 72
   799
 73
  -798
  0
VERTEX
  8
RK-LAVAT
 10
0.0
 20
0.0
 30
0.0
 70
   128
 71
  -773
 72
   800
 73
  -799
  0
VERTEX
  8
RK-LAVAT
 10
0.0
 20
0.0
 30
0.0
 70
   128
 71
   773
 72
  -772
 73
  -800
  0
VERTEX
  8
RK-LAVAT
 10
0.0
 20
0.0
 30
0.0
 70
   128
 71
  -772
 72
   801
 73
  -800
  0
VERTEX
  8
RK-LAVAT
 10
0.0
 20
0.0
 30
0.0
 70
   128
 71
   772
 72
  -771
 73
  -801
  0
VERTEX
  8
RK-LAVAT
 10
0.0
 20
0.0
 30
0.0
 70
   128
 71
  -771
 72
   802
 73
  -801
  0
VERTEX
  8
RK-LAVAT
 10
0.0
 20
0.0
 30
0.0
 70
   128
 71
  -771
 72
   803
 73
  -802
  0
VERTEX
  8
RK-LAVAT
 10
0.0
 20
0.0
 30
0.0
 70
   128
 71
   771
 72
  -770
 73
  -803
  0
VERTEX
  8
RK-LAVAT
 10
0.0
 20
0.0
 30
0.0
 70
   128
 71
  -770
 72
   804
 73
  -803
  0
VERTEX
  8
RK-LAVAT
 10
0.0
 20
0.0
 30
0.0
 70
   128
 71
  -770
 72
   805
 73
  -804
  0
VERTEX
  8
RK-LAVAT
 10
0.0
 20
0.0
 30
0.0
 70
   128
 71
   770
 72
  -769
 73
  -805
  0
VERTEX
  8
RK-LAVAT
 10
0.0
 20
0.0
 30
0.0
 70
   128
 71
  -769
 72
   806
 73
  -805
  0
VERTEX
  8
RK-LAVAT
 10
0.0
 20
0.0
 30
0.0
 70
   128
 71
   769
 72
  -768
 73
  -806
  0
VERTEX
  8
RK-LAVAT
 10
0.0
 20
0.0
 30
0.0
 70
   128
 71
  -768
 72
   807
 73
  -806
  0
VERTEX
  8
RK-LAVAT
 10
0.0
 20
0.0
 30
0.0
 70
   128
 71
  -768
 72
   808
 73
  -807
  0
VERTEX
  8
RK-LAVAT
 10
0.0
 20
0.0
 30
0.0
 70
   128
 71
   768
 72
  -767
 73
  -808
  0
VERTEX
  8
RK-LAVAT
 10
0.0
 20
0.0
 30
0.0
 70
   128
 71
  -767
 72
   809
 73
  -808
  0
VERTEX
  8
RK-LAVAT
 10
0.0
 20
0.0
 30
0.0
 70
   128
 71
   767
 72
  -766
 73
  -809
  0
VERTEX
  8
RK-LAVAT
 10
0.0
 20
0.0
 30
0.0
 70
   128
 71
   766
 72
  -765
 73
  -809
  0
VERTEX
  8
RK-LAVAT
 10
0.0
 20
0.0
 30
0.0
 70
   128
 71
   765
 72
  -764
 73
  -809
  0
VERTEX
  8
RK-LAVAT
 10
0.0
 20
0.0
 30
0.0
 70
   128
 71
   764
 72
  -763
 73
  -809
  0
VERTEX
  8
RK-LAVAT
 10
0.0
 20
0.0
 30
0.0
 70
   128
 71
  -763
 72
   810
 73
  -809
  0
VERTEX
  8
RK-LAVAT
 10
0.0
 20
0.0
 30
0.0
 70
   128
 71
   763
 72
  -762
 73
  -810
  0
VERTEX
  8
RK-LAVAT
 10
0.0
 20
0.0
 30
0.0
 70
   128
 71
   762
 72
  -761
 73
  -810
  0
VERTEX
  8
RK-LAVAT
 10
0.0
 20
0.0
 30
0.0
 70
   128
 71
   761
 72
  -760
 73
  -810
  0
VERTEX
  8
RK-LAVAT
 10
0.0
 20
0.0
 30
0.0
 70
   128
 71
   760
 72
  -759
 73
  -810
  0
VERTEX
  8
RK-LAVAT
 10
0.0
 20
0.0
 30
0.0
 70
   128
 71
  -759
 72
   811
 73
  -810
  0
VERTEX
  8
RK-LAVAT
 10
0.0
 20
0.0
 30
0.0
 70
   128
 71
   759
 72
  -757
 73
  -811
  0
VERTEX
  8
RK-LAVAT
 10
0.0
 20
0.0
 30
0.0
 70
   128
 71
   757
 72
  -758
 73
  -811
  0
VERTEX
  8
RK-LAVAT
 10
0.0
 20
0.0
 30
0.0
 70
   128
 71
   758
 72
  -819
 73
  -811
  0
VERTEX
  8
RK-LAVAT
 10
0.0
 20
0.0
 30
0.0
 70
   128
 71
   819
 72
  -818
 73
  -811
  0
VERTEX
  8
RK-LAVAT
 10
0.0
 20
0.0
 30
0.0
 70
   128
 71
   818
 72
  -817
 73
  -811
  0
VERTEX
  8
RK-LAVAT
 10
0.0
 20
0.0
 30
0.0
 70
   128
 71
   817
 72
  -816
 73
  -811
  0
VERTEX
  8
RK-LAVAT
 10
0.0
 20
0.0
 30
0.0
 70
   128
 71
   816
 72
  -815
 73
  -811
  0
VERTEX
  8
RK-LAVAT
 10
0.0
 20
0.0
 30
0.0
 70
   128
 71
   815
 72
  -814
 73
  -811
  0
VERTEX
  8
RK-LAVAT
 10
0.0
 20
0.0
 30
0.0
 70
   128
 71
   814
 72
  -813
 73
  -811
  0
VERTEX
  8
RK-LAVAT
 10
0.0
 20
0.0
 30
0.0
 70
   128
 71
   813
 72
   812
 73
  -811
  0
VERTEX
  8
RK-LAVAT
 10
0.0
 20
0.0
 30
0.0
 70
   128
 71
   821
 72
   822
 73
   823
 74
   820
  0
VERTEX
  8
RK-LAVAT
 10
0.0
 20
0.0
 30
0.0
 70
   128
 71
   826
 72
  -824
 73
   825
  0
VERTEX
  8
RK-LAVAT
 10
0.0
 20
0.0
 30
0.0
 70
   128
 71
  -825
 72
   824
 73
   827
  0
VERTEX
  8
RK-LAVAT
 10
0.0
 20
0.0
 30
0.0
 70
   128
 71
   824
 72
  -828
 73
   827
  0
VERTEX
  8
RK-LAVAT
 10
0.0
 20
0.0
 30
0.0
 70
   128
 71
  -827
 72
   828
 73
   829
  0
VERTEX
  8
RK-LAVAT
 10
0.0
 20
0.0
 30
0.0
 70
   128
 71
   828
 72
  -830
 73
   829
  0
VERTEX
  8
RK-LAVAT
 10
0.0
 20
0.0
 30
0.0
 70
   128
 71
  -829
 72
   830
 73
   831
  0
VERTEX
  8
RK-LAVAT
 10
0.0
 20
0.0
 30
0.0
 70
   128
 71
   830
 72
  -832
 73
   831
  0
VERTEX
  8
RK-LAVAT
 10
0.0
 20
0.0
 30
0.0
 70
   128
 71
  -831
 72
   832
 73
   833
  0
VERTEX
  8
RK-LAVAT
 10
0.0
 20
0.0
 30
0.0
 70
   128
 71
   832
 72
  -834
 73
   833
  0
VERTEX
  8
RK-LAVAT
 10
0.0
 20
0.0
 30
0.0
 70
   128
 71
  -833
 72
   834
 73
   835
  0
VERTEX
  8
RK-LAVAT
 10
0.0
 20
0.0
 30
0.0
 70
   128
 71
   834
 72
  -836
 73
   835
  0
VERTEX
  8
RK-LAVAT
 10
0.0
 20
0.0
 30
0.0
 70
   128
 71
  -835
 72
   836
 73
   837
  0
VERTEX
  8
RK-LAVAT
 10
0.0
 20
0.0
 30
0.0
 70
   128
 71
   839
 72
  -838
 73
   826
  0
VERTEX
  8
RK-LAVAT
 10
0.0
 20
0.0
 30
0.0
 70
   128
 71
  -826
 72
   838
 73
   824
  0
VERTEX
  8
RK-LAVAT
 10
0.0
 20
0.0
 30
0.0
 70
   128
 71
   838
 72
  -840
 73
   824
  0
VERTEX
  8
RK-LAVAT
 10
0.0
 20
0.0
 30
0.0
 70
   128
 71
  -824
 72
   840
 73
   828
  0
VERTEX
  8
RK-LAVAT
 10
0.0
 20
0.0
 30
0.0
 70
   128
 71
   840
 72
  -841
 73
   828
  0
VERTEX
  8
RK-LAVAT
 10
0.0
 20
0.0
 30
0.0
 70
   128
 71
  -828
 72
   841
 73
   830
  0
VERTEX
  8
RK-LAVAT
 10
0.0
 20
0.0
 30
0.0
 70
   128
 71
   841
 72
  -842
 73
   830
  0
VERTEX
  8
RK-LAVAT
 10
0.0
 20
0.0
 30
0.0
 70
   128
 71
  -830
 72
   842
 73
   832
  0
VERTEX
  8
RK-LAVAT
 10
0.0
 20
0.0
 30
0.0
 70
   128
 71
   842
 72
  -843
 73
   832
  0
VERTEX
  8
RK-LAVAT
 10
0.0
 20
0.0
 30
0.0
 70
   128
 71
  -832
 72
   843
 73
   834
  0
VERTEX
  8
RK-LAVAT
 10
0.0
 20
0.0
 30
0.0
 70
   128
 71
   843
 72
  -844
 73
   834
  0
VERTEX
  8
RK-LAVAT
 10
0.0
 20
0.0
 30
0.0
 70
   128
 71
  -834
 72
   844
 73
   836
  0
VERTEX
  8
RK-LAVAT
 10
0.0
 20
0.0
 30
0.0
 70
   128
 71
   846
 72
  -845
 73
   839
  0
VERTEX
  8
RK-LAVAT
 10
0.0
 20
0.0
 30
0.0
 70
   128
 71
  -839
 72
   845
 73
   838
  0
VERTEX
  8
RK-LAVAT
 10
0.0
 20
0.0
 30
0.0
 70
   128
 71
   845
 72
  -847
 73
   838
  0
VERTEX
  8
RK-LAVAT
 10
0.0
 20
0.0
 30
0.0
 70
   128
 71
  -838
 72
   847
 73
   840
  0
VERTEX
  8
RK-LAVAT
 10
0.0
 20
0.0
 30
0.0
 70
   128
 71
   847
 72
  -848
 73
   840
  0
VERTEX
  8
RK-LAVAT
 10
0.0
 20
0.0
 30
0.0
 70
   128
 71
  -840
 72
   848
 73
   841
  0
VERTEX
  8
RK-LAVAT
 10
0.0
 20
0.0
 30
0.0
 70
   128
 71
   848
 72
  -849
 73
   841
  0
VERTEX
  8
RK-LAVAT
 10
0.0
 20
0.0
 30
0.0
 70
   128
 71
  -841
 72
   849
 73
   842
  0
VERTEX
  8
RK-LAVAT
 10
0.0
 20
0.0
 30
0.0
 70
   128
 71
   849
 72
  -850
 73
   842
  0
VERTEX
  8
RK-LAVAT
 10
0.0
 20
0.0
 30
0.0
 70
   128
 71
  -842
 72
   850
 73
   843
  0
VERTEX
  8
RK-LAVAT
 10
0.0
 20
0.0
 30
0.0
 70
   128
 71
   850
 72
  -851
 73
   843
  0
VERTEX
  8
RK-LAVAT
 10
0.0
 20
0.0
 30
0.0
 70
   128
 71
  -843
 72
   851
 73
   844
  0
VERTEX
  8
RK-LAVAT
 10
0.0
 20
0.0
 30
0.0
 70
   128
 71
   853
 72
  -852
 73
   846
  0
VERTEX
  8
RK-LAVAT
 10
0.0
 20
0.0
 30
0.0
 70
   128
 71
  -846
 72
   852
 73
   845
  0
VERTEX
  8
RK-LAVAT
 10
0.0
 20
0.0
 30
0.0
 70
   128
 71
   852
 72
  -854
 73
   845
  0
VERTEX
  8
RK-LAVAT
 10
0.0
 20
0.0
 30
0.0
 70
   128
 71
  -845
 72
   854
 73
   847
  0
VERTEX
  8
RK-LAVAT
 10
0.0
 20
0.0
 30
0.0
 70
   128
 71
   854
 72
  -855
 73
   847
  0
VERTEX
  8
RK-LAVAT
 10
0.0
 20
0.0
 30
0.0
 70
   128
 71
  -847
 72
   855
 73
   848
  0
VERTEX
  8
RK-LAVAT
 10
0.0
 20
0.0
 30
0.0
 70
   128
 71
   855
 72
  -856
 73
   848
  0
VERTEX
  8
RK-LAVAT
 10
0.0
 20
0.0
 30
0.0
 70
   128
 71
  -848
 72
   856
 73
   849
  0
VERTEX
  8
RK-LAVAT
 10
0.0
 20
0.0
 30
0.0
 70
   128
 71
   856
 72
  -857
 73
   849
  0
VERTEX
  8
RK-LAVAT
 10
0.0
 20
0.0
 30
0.0
 70
   128
 71
  -849
 72
   857
 73
   850
  0
VERTEX
  8
RK-LAVAT
 10
0.0
 20
0.0
 30
0.0
 70
   128
 71
   857
 72
  -858
 73
   850
  0
VERTEX
  8
RK-LAVAT
 10
0.0
 20
0.0
 30
0.0
 70
   128
 71
  -850
 72
   858
 73
   851
  0
VERTEX
  8
RK-LAVAT
 10
0.0
 20
0.0
 30
0.0
 70
   128
 71
   860
 72
  -859
 73
   853
  0
VERTEX
  8
RK-LAVAT
 10
0.0
 20
0.0
 30
0.0
 70
   128
 71
  -853
 72
   859
 73
   852
  0
VERTEX
  8
RK-LAVAT
 10
0.0
 20
0.0
 30
0.0
 70
   128
 71
   859
 72
  -861
 73
   852
  0
VERTEX
  8
RK-LAVAT
 10
0.0
 20
0.0
 30
0.0
 70
   128
 71
  -852
 72
   861
 73
   854
  0
VERTEX
  8
RK-LAVAT
 10
0.0
 20
0.0
 30
0.0
 70
   128
 71
   861
 72
  -862
 73
   854
  0
VERTEX
  8
RK-LAVAT
 10
0.0
 20
0.0
 30
0.0
 70
   128
 71
  -854
 72
   862
 73
   855
  0
VERTEX
  8
RK-LAVAT
 10
0.0
 20
0.0
 30
0.0
 70
   128
 71
   862
 72
  -863
 73
   855
  0
VERTEX
  8
RK-LAVAT
 10
0.0
 20
0.0
 30
0.0
 70
   128
 71
  -855
 72
   863
 73
   856
  0
VERTEX
  8
RK-LAVAT
 10
0.0
 20
0.0
 30
0.0
 70
   128
 71
   863
 72
  -864
 73
   856
  0
VERTEX
  8
RK-LAVAT
 10
0.0
 20
0.0
 30
0.0
 70
   128
 71
  -856
 72
   864
 73
   857
  0
VERTEX
  8
RK-LAVAT
 10
0.0
 20
0.0
 30
0.0
 70
   128
 71
   864
 72
  -865
 73
   857
  0
VERTEX
  8
RK-LAVAT
 10
0.0
 20
0.0
 30
0.0
 70
   128
 71
  -857
 72
   865
 73
   858
  0
VERTEX
  8
RK-LAVAT
 10
0.0
 20
0.0
 30
0.0
 70
   128
 71
   867
 72
  -866
 73
   860
  0
VERTEX
  8
RK-LAVAT
 10
0.0
 20
0.0
 30
0.0
 70
   128
 71
  -860
 72
   866
 73
   859
  0
VERTEX
  8
RK-LAVAT
 10
0.0
 20
0.0
 30
0.0
 70
   128
 71
   866
 72
  -868
 73
   859
  0
VERTEX
  8
RK-LAVAT
 10
0.0
 20
0.0
 30
0.0
 70
   128
 71
  -859
 72
   868
 73
   861
  0
VERTEX
  8
RK-LAVAT
 10
0.0
 20
0.0
 30
0.0
 70
   128
 71
   868
 72
  -869
 73
   861
  0
VERTEX
  8
RK-LAVAT
 10
0.0
 20
0.0
 30
0.0
 70
   128
 71
  -861
 72
   869
 73
   862
  0
VERTEX
  8
RK-LAVAT
 10
0.0
 20
0.0
 30
0.0
 70
   128
 71
   869
 72
  -870
 73
   862
  0
VERTEX
  8
RK-LAVAT
 10
0.0
 20
0.0
 30
0.0
 70
   128
 71
  -862
 72
   870
 73
   863
  0
VERTEX
  8
RK-LAVAT
 10
0.0
 20
0.0
 30
0.0
 70
   128
 71
   870
 72
  -871
 73
   863
  0
VERTEX
  8
RK-LAVAT
 10
0.0
 20
0.0
 30
0.0
 70
   128
 71
  -863
 72
   871
 73
   864
  0
VERTEX
  8
RK-LAVAT
 10
0.0
 20
0.0
 30
0.0
 70
   128
 71
   871
 72
  -872
 73
   864
  0
VERTEX
  8
RK-LAVAT
 10
0.0
 20
0.0
 30
0.0
 70
   128
 71
  -864
 72
   872
 73
   865
  0
VERTEX
  8
RK-LAVAT
 10
0.0
 20
0.0
 30
0.0
 70
   128
 71
   874
 72
  -825
 73
   873
  0
VERTEX
  8
RK-LAVAT
 10
0.0
 20
0.0
 30
0.0
 70
   128
 71
  -873
 72
   825
 73
   875
  0
VERTEX
  8
RK-LAVAT
 10
0.0
 20
0.0
 30
0.0
 70
   128
 71
   827
 72
  -876
 73
   825
  0
VERTEX
  8
RK-LAVAT
 10
0.0
 20
0.0
 30
0.0
 70
   128
 71
   875
 72
  -825
 73
   876
  0
VERTEX
  8
RK-LAVAT
 10
0.0
 20
0.0
 30
0.0
 70
   128
 71
   877
 72
  -876
 73
   829
  0
VERTEX
  8
RK-LAVAT
 10
0.0
 20
0.0
 30
0.0
 70
   128
 71
   827
 72
  -829
 73
   876
  0
VERTEX
  8
RK-LAVAT
 10
0.0
 20
0.0
 30
0.0
 70
   128
 71
   877
 72
  -829
 73
   878
  0
VERTEX
  8
RK-LAVAT
 10
0.0
 20
0.0
 30
0.0
 70
   128
 71
   829
 72
   831
 73
  -878
  0
VERTEX
  8
RK-LAVAT
 10
0.0
 20
0.0
 30
0.0
 70
   128
 71
   831
 72
  -833
 73
   878
  0
VERTEX
  8
RK-LAVAT
 10
0.0
 20
0.0
 30
0.0
 70
   128
 71
  -878
 72
   833
 73
   879
  0
VERTEX
  8
RK-LAVAT
 10
0.0
 20
0.0
 30
0.0
 70
   128
 71
   835
 72
  -880
 73
   833
  0
VERTEX
  8
RK-LAVAT
 10
0.0
 20
0.0
 30
0.0
 70
   128
 71
   879
 72
  -833
 73
   880
  0
VERTEX
  8
RK-LAVAT
 10
0.0
 20
0.0
 30
0.0
 70
   128
 71
   881
 72
  -880
 73
   837
  0
VERTEX
  8
RK-LAVAT
 10
0.0
 20
0.0
 30
0.0
 70
   128
 71
   835
 72
  -837
 73
   880
  0
VERTEX
  8
RK-LAVAT
 10
0.0
 20
0.0
 30
0.0
 70
   128
 71
   837
 72
  -882
 73
   881
  0
VERTEX
  8
RK-LAVAT
 10
0.0
 20
0.0
 30
0.0
 70
   128
 71
   882
 72
   883
 73
  -881
  0
VERTEX
  8
RK-LAVAT
 10
0.0
 20
0.0
 30
0.0
 70
   128
 71
   826
 72
  -825
 73
   884
  0
VERTEX
  8
RK-LAVAT
 10
0.0
 20
0.0
 30
0.0
 70
   128
 71
  -884
 72
   825
 73
   874
  0
VERTEX
  8
RK-LAVAT
 10
0.0
 20
0.0
 30
0.0
 70
   128
 71
   837
 72
  -836
 73
   882
  0
VERTEX
  8
RK-LAVAT
 10
0.0
 20
0.0
 30
0.0
 70
   128
 71
   836
 72
  -885
 73
  -882
  0
VERTEX
  8
RK-LAVAT
 10
0.0
 20
0.0
 30
0.0
 70
   128
 71
   886
 72
   885
 73
   882
  0
VERTEX
  8
RK-LAVAT
 10
0.0
 20
0.0
 30
0.0
 70
   128
 71
   884
 72
  -887
 73
   826
  0
VERTEX
  8
RK-LAVAT
 10
0.0
 20
0.0
 30
0.0
 70
   128
 71
   887
 72
   839
 73
  -826
  0
VERTEX
  8
RK-LAVAT
 10
0.0
 20
0.0
 30
0.0
 70
   128
 71
   888
 72
  -885
 73
   844
  0
VERTEX
  8
RK-LAVAT
 10
0.0
 20
0.0
 30
0.0
 70
   128
 71
  -844
 72
   885
 73
   836
  0
VERTEX
  8
RK-LAVAT
 10
0.0
 20
0.0
 30
0.0
 70
   128
 71
   886
 72
   885
 73
   888
  0
VERTEX
  8
RK-LAVAT
 10
0.0
 20
0.0
 30
0.0
 70
   128
 71
   846
 72
  -839
 73
   889
  0
VERTEX
  8
RK-LAVAT
 10
0.0
 20
0.0
 30
0.0
 70
   128
 71
   887
 72
  -889
 73
   839
  0
VERTEX
  8
RK-LAVAT
 10
0.0
 20
0.0
 30
0.0
 70
   128
 71
   888
 72
  -844
 73
   890
  0
VERTEX
  8
RK-LAVAT
 10
0.0
 20
0.0
 30
0.0
 70
   128
 71
   851
 72
  -890
 73
   844
  0
VERTEX
  8
RK-LAVAT
 10
0.0
 20
0.0
 30
0.0
 70
   128
 71
   890
 72
   888
 73
   891
  0
VERTEX
  8
RK-LAVAT
 10
0.0
 20
0.0
 30
0.0
 70
   128
 71
   889
 72
  -892
 73
   846
  0
VERTEX
  8
RK-LAVAT
 10
0.0
 20
0.0
 30
0.0
 70
   128
 71
   892
 72
   853
 73
  -846
  0
VERTEX
  8
RK-LAVAT
 10
0.0
 20
0.0
 30
0.0
 70
   128
 71
   893
 72
  -890
 73
   858
  0
VERTEX
  8
RK-LAVAT
 10
0.0
 20
0.0
 30
0.0
 70
   128
 71
  -858
 72
   890
 73
   851
  0
VERTEX
  8
RK-LAVAT
 10
0.0
 20
0.0
 30
0.0
 70
   128
 71
   893
 72
   890
 73
   894
  0
VERTEX
  8
RK-LAVAT
 10
0.0
 20
0.0
 30
0.0
 70
   128
 71
   853
 72
  -892
 73
   860
  0
VERTEX
  8
RK-LAVAT
 10
0.0
 20
0.0
 30
0.0
 70
   128
 71
   895
 72
  -860
 73
   892
  0
VERTEX
  8
RK-LAVAT
 10
0.0
 20
0.0
 30
0.0
 70
   128
 71
   858
 72
  -865
 73
   893
  0
VERTEX
  8
RK-LAVAT
 10
0.0
 20
0.0
 30
0.0
 70
   128
 71
   896
 72
  -893
 73
   865
  0
VERTEX
  8
RK-LAVAT
 10
0.0
 20
0.0
 30
0.0
 70
   128
 71
   896
 72
   893
 73
   897
  0
VERTEX
  8
RK-LAVAT
 10
0.0
 20
0.0
 30
0.0
 70
   128
 71
   867
 72
  -860
 73
   898
  0
VERTEX
  8
RK-LAVAT
 10
0.0
 20
0.0
 30
0.0
 70
   128
 71
   895
 72
  -898
 73
   860
  0
VERTEX
  8
RK-LAVAT
 10
0.0
 20
0.0
 30
0.0
 70
   128
 71
  -872
 72
  -899
 73
   865
  0
VERTEX
  8
RK-LAVAT
 10
0.0
 20
0.0
 30
0.0
 70
   128
 71
   896
 72
  -865
 73
   899
  0
VERTEX
  8
RK-LAVAT
 10
0.0
 20
0.0
 30
0.0
 70
   128
 71
   902
 72
  -900
 73
   901
  0
VERTEX
  8
RK-LAVAT
 10
0.0
 20
0.0
 30
0.0
 70
   128
 71
  -901
 72
   900
 73
   903
  0
VERTEX
  8
RK-LAVAT
 10
0.0
 20
0.0
 30
0.0
 70
   128
 71
   900
 72
  -904
 73
   903
  0
VERTEX
  8
RK-LAVAT
 10
0.0
 20
0.0
 30
0.0
 70
   128
 71
  -903
 72
   904
 73
   905
  0
VERTEX
  8
RK-LAVAT
 10
0.0
 20
0.0
 30
0.0
 70
   128
 71
   904
 72
  -906
 73
   905
  0
VERTEX
  8
RK-LAVAT
 10
0.0
 20
0.0
 30
0.0
 70
   128
 71
  -905
 72
   906
 73
   907
  0
VERTEX
  8
RK-LAVAT
 10
0.0
 20
0.0
 30
0.0
 70
   128
 71
   906
 72
  -908
 73
   907
  0
VERTEX
  8
RK-LAVAT
 10
0.0
 20
0.0
 30
0.0
 70
   128
 71
  -907
 72
   908
 73
   909
  0
VERTEX
  8
RK-LAVAT
 10
0.0
 20
0.0
 30
0.0
 70
   128
 71
   908
 72
  -910
 73
   909
  0
VERTEX
  8
RK-LAVAT
 10
0.0
 20
0.0
 30
0.0
 70
   128
 71
  -909
 72
   910
 73
   911
  0
VERTEX
  8
RK-LAVAT
 10
0.0
 20
0.0
 30
0.0
 70
   128
 71
   910
 72
  -912
 73
   911
  0
VERTEX
  8
RK-LAVAT
 10
0.0
 20
0.0
 30
0.0
 70
   128
 71
  -911
 72
   912
 73
   913
  0
VERTEX
  8
RK-LAVAT
 10
0.0
 20
0.0
 30
0.0
 70
   128
 71
   912
 72
  -914
 73
   913
  0
VERTEX
  8
RK-LAVAT
 10
0.0
 20
0.0
 30
0.0
 70
   128
 71
  -913
 72
   914
 73
   915
  0
VERTEX
  8
RK-LAVAT
 10
0.0
 20
0.0
 30
0.0
 70
   128
 71
   917
 72
  -916
 73
   902
  0
VERTEX
  8
RK-LAVAT
 10
0.0
 20
0.0
 30
0.0
 70
   128
 71
  -902
 72
   916
 73
   900
  0
VERTEX
  8
RK-LAVAT
 10
0.0
 20
0.0
 30
0.0
 70
   128
 71
   916
 72
  -918
 73
   900
  0
VERTEX
  8
RK-LAVAT
 10
0.0
 20
0.0
 30
0.0
 70
   128
 71
  -900
 72
   918
 73
   904
  0
VERTEX
  8
RK-LAVAT
 10
0.0
 20
0.0
 30
0.0
 70
   128
 71
   918
 72
  -919
 73
   904
  0
VERTEX
  8
RK-LAVAT
 10
0.0
 20
0.0
 30
0.0
 70
   128
 71
  -904
 72
   919
 73
   906
  0
VERTEX
  8
RK-LAVAT
 10
0.0
 20
0.0
 30
0.0
 70
   128
 71
   919
 72
  -920
 73
   906
  0
VERTEX
  8
RK-LAVAT
 10
0.0
 20
0.0
 30
0.0
 70
   128
 71
  -906
 72
   920
 73
   908
  0
VERTEX
  8
RK-LAVAT
 10
0.0
 20
0.0
 30
0.0
 70
   128
 71
   920
 72
  -921
 73
   908
  0
VERTEX
  8
RK-LAVAT
 10
0.0
 20
0.0
 30
0.0
 70
   128
 71
  -908
 72
   921
 73
   910
  0
VERTEX
  8
RK-LAVAT
 10
0.0
 20
0.0
 30
0.0
 70
   128
 71
   921
 72
  -922
 73
   910
  0
VERTEX
  8
RK-LAVAT
 10
0.0
 20
0.0
 30
0.0
 70
   128
 71
  -910
 72
   922
 73
   912
  0
VERTEX
  8
RK-LAVAT
 10
0.0
 20
0.0
 30
0.0
 70
   128
 71
   922
 72
  -923
 73
   912
  0
VERTEX
  8
RK-LAVAT
 10
0.0
 20
0.0
 30
0.0
 70
   128
 71
  -912
 72
   923
 73
   914
  0
VERTEX
  8
RK-LAVAT
 10
0.0
 20
0.0
 30
0.0
 70
   128
 71
   925
 72
  -924
 73
   917
  0
VERTEX
  8
RK-LAVAT
 10
0.0
 20
0.0
 30
0.0
 70
   128
 71
  -917
 72
   924
 73
   916
  0
VERTEX
  8
RK-LAVAT
 10
0.0
 20
0.0
 30
0.0
 70
   128
 71
   924
 72
  -926
 73
   916
  0
VERTEX
  8
RK-LAVAT
 10
0.0
 20
0.0
 30
0.0
 70
   128
 71
  -916
 72
   926
 73
   918
  0
VERTEX
  8
RK-LAVAT
 10
0.0
 20
0.0
 30
0.0
 70
   128
 71
   926
 72
  -927
 73
   918
  0
VERTEX
  8
RK-LAVAT
 10
0.0
 20
0.0
 30
0.0
 70
   128
 71
  -918
 72
   927
 73
   919
  0
VERTEX
  8
RK-LAVAT
 10
0.0
 20
0.0
 30
0.0
 70
   128
 71
   927
 72
  -928
 73
   919
  0
VERTEX
  8
RK-LAVAT
 10
0.0
 20
0.0
 30
0.0
 70
   128
 71
  -919
 72
   928
 73
   920
  0
VERTEX
  8
RK-LAVAT
 10
0.0
 20
0.0
 30
0.0
 70
   128
 71
   928
 72
  -929
 73
   920
  0
VERTEX
  8
RK-LAVAT
 10
0.0
 20
0.0
 30
0.0
 70
   128
 71
  -920
 72
   929
 73
   921
  0
VERTEX
  8
RK-LAVAT
 10
0.0
 20
0.0
 30
0.0
 70
   128
 71
   929
 72
  -930
 73
   921
  0
VERTEX
  8
RK-LAVAT
 10
0.0
 20
0.0
 30
0.0
 70
   128
 71
  -921
 72
   930
 73
   922
  0
VERTEX
  8
RK-LAVAT
 10
0.0
 20
0.0
 30
0.0
 70
   128
 71
   930
 72
  -931
 73
   922
  0
VERTEX
  8
RK-LAVAT
 10
0.0
 20
0.0
 30
0.0
 70
   128
 71
  -922
 72
   931
 73
   923
  0
VERTEX
  8
RK-LAVAT
 10
0.0
 20
0.0
 30
0.0
 70
   128
 71
   933
 72
  -932
 73
   925
  0
VERTEX
  8
RK-LAVAT
 10
0.0
 20
0.0
 30
0.0
 70
   128
 71
  -925
 72
   932
 73
   924
  0
VERTEX
  8
RK-LAVAT
 10
0.0
 20
0.0
 30
0.0
 70
   128
 71
   932
 72
  -934
 73
   924
  0
VERTEX
  8
RK-LAVAT
 10
0.0
 20
0.0
 30
0.0
 70
   128
 71
  -924
 72
   934
 73
   926
  0
VERTEX
  8
RK-LAVAT
 10
0.0
 20
0.0
 30
0.0
 70
   128
 71
   934
 72
  -935
 73
   926
  0
VERTEX
  8
RK-LAVAT
 10
0.0
 20
0.0
 30
0.0
 70
   128
 71
  -926
 72
   935
 73
   927
  0
VERTEX
  8
RK-LAVAT
 10
0.0
 20
0.0
 30
0.0
 70
   128
 71
   935
 72
  -936
 73
   927
  0
VERTEX
  8
RK-LAVAT
 10
0.0
 20
0.0
 30
0.0
 70
   128
 71
  -927
 72
   936
 73
   928
  0
VERTEX
  8
RK-LAVAT
 10
0.0
 20
0.0
 30
0.0
 70
   128
 71
   936
 72
  -937
 73
   928
  0
VERTEX
  8
RK-LAVAT
 10
0.0
 20
0.0
 30
0.0
 70
   128
 71
  -928
 72
   937
 73
   929
  0
VERTEX
  8
RK-LAVAT
 10
0.0
 20
0.0
 30
0.0
 70
   128
 71
   937
 72
  -938
 73
   929
  0
VERTEX
  8
RK-LAVAT
 10
0.0
 20
0.0
 30
0.0
 70
   128
 71
  -929
 72
   938
 73
   930
  0
VERTEX
  8
RK-LAVAT
 10
0.0
 20
0.0
 30
0.0
 70
   128
 71
   938
 72
  -939
 73
   930
  0
VERTEX
  8
RK-LAVAT
 10
0.0
 20
0.0
 30
0.0
 70
   128
 71
  -930
 72
   939
 73
   931
  0
VERTEX
  8
RK-LAVAT
 10
0.0
 20
0.0
 30
0.0
 70
   128
 71
   941
 72
  -940
 73
   933
  0
VERTEX
  8
RK-LAVAT
 10
0.0
 20
0.0
 30
0.0
 70
   128
 71
  -933
 72
   940
 73
   932
  0
VERTEX
  8
RK-LAVAT
 10
0.0
 20
0.0
 30
0.0
 70
   128
 71
   940
 72
  -942
 73
   932
  0
VERTEX
  8
RK-LAVAT
 10
0.0
 20
0.0
 30
0.0
 70
   128
 71
  -932
 72
   942
 73
   934
  0
VERTEX
  8
RK-LAVAT
 10
0.0
 20
0.0
 30
0.0
 70
   128
 71
   942
 72
  -943
 73
   934
  0
VERTEX
  8
RK-LAVAT
 10
0.0
 20
0.0
 30
0.0
 70
   128
 71
  -934
 72
   943
 73
   935
  0
VERTEX
  8
RK-LAVAT
 10
0.0
 20
0.0
 30
0.0
 70
   128
 71
   943
 72
  -944
 73
   935
  0
VERTEX
  8
RK-LAVAT
 10
0.0
 20
0.0
 30
0.0
 70
   128
 71
  -935
 72
   944
 73
   936
  0
VERTEX
  8
RK-LAVAT
 10
0.0
 20
0.0
 30
0.0
 70
   128
 71
   944
 72
  -945
 73
   936
  0
VERTEX
  8
RK-LAVAT
 10
0.0
 20
0.0
 30
0.0
 70
   128
 71
  -936
 72
   945
 73
   937
  0
VERTEX
  8
RK-LAVAT
 10
0.0
 20
0.0
 30
0.0
 70
   128
 71
   945
 72
  -946
 73
   937
  0
VERTEX
  8
RK-LAVAT
 10
0.0
 20
0.0
 30
0.0
 70
   128
 71
  -937
 72
   946
 73
   938
  0
VERTEX
  8
RK-LAVAT
 10
0.0
 20
0.0
 30
0.0
 70
   128
 71
   946
 72
  -822
 73
   938
  0
VERTEX
  8
RK-LAVAT
 10
0.0
 20
0.0
 30
0.0
 70
   128
 71
  -938
 72
   822
 73
   939
  0
VERTEX
  8
RK-LAVAT
 10
0.0
 20
0.0
 30
0.0
 70
   128
 71
   948
 72
  -947
 73
   941
  0
VERTEX
  8
RK-LAVAT
 10
0.0
 20
0.0
 30
0.0
 70
   128
 71
  -941
 72
   947
 73
   940
  0
VERTEX
  8
RK-LAVAT
 10
0.0
 20
0.0
 30
0.0
 70
   128
 71
   947
 72
  -949
 73
   940
  0
VERTEX
  8
RK-LAVAT
 10
0.0
 20
0.0
 30
0.0
 70
   128
 71
  -940
 72
   949
 73
   942
  0
VERTEX
  8
RK-LAVAT
 10
0.0
 20
0.0
 30
0.0
 70
   128
 71
   949
 72
  -950
 73
   942
  0
VERTEX
  8
RK-LAVAT
 10
0.0
 20
0.0
 30
0.0
 70
   128
 71
  -942
 72
   950
 73
   943
  0
VERTEX
  8
RK-LAVAT
 10
0.0
 20
0.0
 30
0.0
 70
   128
 71
   950
 72
  -951
 73
   943
  0
VERTEX
  8
RK-LAVAT
 10
0.0
 20
0.0
 30
0.0
 70
   128
 71
  -943
 72
   951
 73
   944
  0
VERTEX
  8
RK-LAVAT
 10
0.0
 20
0.0
 30
0.0
 70
   128
 71
   951
 72
  -952
 73
   944
  0
VERTEX
  8
RK-LAVAT
 10
0.0
 20
0.0
 30
0.0
 70
   128
 71
  -944
 72
   952
 73
   945
  0
VERTEX
  8
RK-LAVAT
 10
0.0
 20
0.0
 30
0.0
 70
   128
 71
   952
 72
  -953
 73
   945
  0
VERTEX
  8
RK-LAVAT
 10
0.0
 20
0.0
 30
0.0
 70
   128
 71
  -945
 72
   953
 73
   946
  0
VERTEX
  8
RK-LAVAT
 10
0.0
 20
0.0
 30
0.0
 70
   128
 71
   953
 72
  -823
 73
   946
  0
VERTEX
  8
RK-LAVAT
 10
0.0
 20
0.0
 30
0.0
 70
   128
 71
  -946
 72
   823
 73
   822
  0
VERTEX
  8
RK-LAVAT
 10
0.0
 20
0.0
 30
0.0
 70
   128
 71
   882
 72
  -901
 73
   883
  0
VERTEX
  8
RK-LAVAT
 10
0.0
 20
0.0
 30
0.0
 70
   128
 71
  -883
 72
   901
 73
   954
  0
VERTEX
  8
RK-LAVAT
 10
0.0
 20
0.0
 30
0.0
 70
   128
 71
   903
 72
  -955
 73
   901
  0
VERTEX
  8
RK-LAVAT
 10
0.0
 20
0.0
 30
0.0
 70
   128
 71
   954
 72
  -901
 73
   955
  0
VERTEX
  8
RK-LAVAT
 10
0.0
 20
0.0
 30
0.0
 70
   128
 71
   956
 72
  -955
 73
   905
  0
VERTEX
  8
RK-LAVAT
 10
0.0
 20
0.0
 30
0.0
 70
   128
 71
   903
 72
  -905
 73
   955
  0
VERTEX
  8
RK-LAVAT
 10
0.0
 20
0.0
 30
0.0
 70
   128
 71
   956
 72
  -905
 73
   957
  0
VERTEX
  8
RK-LAVAT
 10
0.0
 20
0.0
 30
0.0
 70
   128
 71
   905
 72
   907
 73
  -957
  0
VERTEX
  8
RK-LAVAT
 10
0.0
 20
0.0
 30
0.0
 70
   128
 71
   907
 72
  -909
 73
   957
  0
VERTEX
  8
RK-LAVAT
 10
0.0
 20
0.0
 30
0.0
 70
   128
 71
  -957
 72
   909
 73
   958
  0
VERTEX
  8
RK-LAVAT
 10
0.0
 20
0.0
 30
0.0
 70
   128
 71
   911
 72
  -959
 73
   909
  0
VERTEX
  8
RK-LAVAT
 10
0.0
 20
0.0
 30
0.0
 70
   128
 71
   958
 72
  -909
 73
   959
  0
VERTEX
  8
RK-LAVAT
 10
0.0
 20
0.0
 30
0.0
 70
   128
 71
   960
 72
  -959
 73
   913
  0
VERTEX
  8
RK-LAVAT
 10
0.0
 20
0.0
 30
0.0
 70
   128
 71
   911
 72
  -913
 73
   959
  0
VERTEX
  8
RK-LAVAT
 10
0.0
 20
0.0
 30
0.0
 70
   128
 71
   960
 72
  -913
 73
   961
  0
VERTEX
  8
RK-LAVAT
 10
0.0
 20
0.0
 30
0.0
 70
   128
 71
   913
 72
   915
 73
  -961
  0
VERTEX
  8
RK-LAVAT
 10
0.0
 20
0.0
 30
0.0
 70
   128
 71
   963
 72
  -962
 73
   915
  0
VERTEX
  8
RK-LAVAT
 10
0.0
 20
0.0
 30
0.0
 70
   128
 71
  -915
 72
   962
 73
   961
  0
VERTEX
  8
RK-LAVAT
 10
0.0
 20
0.0
 30
0.0
 70
   128
 71
   902
 72
  -901
 73
   964
  0
VERTEX
  8
RK-LAVAT
 10
0.0
 20
0.0
 30
0.0
 70
   128
 71
   882
 72
  -964
 73
   901
  0
VERTEX
  8
RK-LAVAT
 10
0.0
 20
0.0
 30
0.0
 70
   128
 71
   915
 72
  -914
 73
   963
  0
VERTEX
  8
RK-LAVAT
 10
0.0
 20
0.0
 30
0.0
 70
   128
 71
   965
 72
  -963
 73
   914
  0
VERTEX
  8
RK-LAVAT
 10
0.0
 20
0.0
 30
0.0
 70
   128
 71
   964
 72
  -888
 73
   902
  0
VERTEX
  8
RK-LAVAT
 10
0.0
 20
0.0
 30
0.0
 70
   128
 71
   888
 72
   917
 73
  -902
  0
VERTEX
  8
RK-LAVAT
 10
0.0
 20
0.0
 30
0.0
 70
   128
 71
   923
 72
  -966
 73
   914
  0
VERTEX
  8
RK-LAVAT
 10
0.0
 20
0.0
 30
0.0
 70
   128
 71
  -914
 72
   966
 73
   965
  0
VERTEX
  8
RK-LAVAT
 10
0.0
 20
0.0
 30
0.0
 70
   128
 71
   966
 72
   965
 73
   967
  0
VERTEX
  8
RK-LAVAT
 10
0.0
 20
0.0
 30
0.0
 70
   128
 71
   917
 72
  -888
 73
   925
  0
VERTEX
  8
RK-LAVAT
 10
0.0
 20
0.0
 30
0.0
 70
   128
 71
   890
 72
  -925
 73
   888
  0
VERTEX
  8
RK-LAVAT
 10
0.0
 20
0.0
 30
0.0
 70
   128
 71
   966
 72
  -923
 73
   968
  0
VERTEX
  8
RK-LAVAT
 10
0.0
 20
0.0
 30
0.0
 70
   128
 71
   931
 72
  -968
 73
   923
  0
VERTEX
  8
RK-LAVAT
 10
0.0
 20
0.0
 30
0.0
 70
   128
 71
   890
 72
  -893
 73
   925
  0
VERTEX
  8
RK-LAVAT
 10
0.0
 20
0.0
 30
0.0
 70
   128
 71
   893
 72
   933
 73
  -925
  0
VERTEX
  8
RK-LAVAT
 10
0.0
 20
0.0
 30
0.0
 70
   128
 71
   969
 72
  -968
 73
   939
  0
VERTEX
  8
RK-LAVAT
 10
0.0
 20
0.0
 30
0.0
 70
   128
 71
  -939
 72
   968
 73
   931
  0
VERTEX
  8
RK-LAVAT
 10
0.0
 20
0.0
 30
0.0
 70
   128
 71
   941
 72
  -933
 73
   896
  0
VERTEX
  8
RK-LAVAT
 10
0.0
 20
0.0
 30
0.0
 70
   128
 71
   893
 72
  -896
 73
   933
  0
VERTEX
  8
RK-LAVAT
 10
0.0
 20
0.0
 30
0.0
 70
   128
 71
   939
 72
  -822
 73
   969
  0
VERTEX
  8
RK-LAVAT
 10
0.0
 20
0.0
 30
0.0
 70
   128
 71
   821
 72
  -969
 73
   822
  0
VERTEX
  8
RK-LAVAT
 10
0.0
 20
0.0
 30
0.0
 70
   128
 71
   896
 72
  -899
 73
   941
  0
VERTEX
  8
RK-LAVAT
 10
0.0
 20
0.0
 30
0.0
 70
   128
 71
   899
 72
   948
 73
  -941
  0
VERTEX
  8
RK-LAVAT
 10
0.0
 20
0.0
 30
0.0
 70
   128
 71
   972
 72
  -970
 73
   971
  0
VERTEX
  8
RK-LAVAT
 10
0.0
 20
0.0
 30
0.0
 70
   128
 71
  -971
 72
  -970
 73
   973
  0
VERTEX
  8
RK-LAVAT
 10
0.0
 20
0.0
 30
0.0
 70
   128
 71
  -973
 72
  -970
 73
   974
  0
VERTEX
  8
RK-LAVAT
 10
0.0
 20
0.0
 30
0.0
 70
   128
 71
  -974
 72
  -970
 73
   899
  0
VERTEX
  8
RK-LAVAT
 10
0.0
 20
0.0
 30
0.0
 70
   128
 71
   975
 72
  -882
 73
   899
  0
VERTEX
  8
RK-LAVAT
 10
0.0
 20
0.0
 30
0.0
 70
   128
 71
  -896
 72
  -893
 73
  -899
  0
VERTEX
  8
RK-LAVAT
 10
0.0
 20
0.0
 30
0.0
 70
   128
 71
  -899
 72
  -893
 73
  -882
  0
VERTEX
  8
RK-LAVAT
 10
0.0
 20
0.0
 30
0.0
 70
   128
 71
   976
 72
  -882
 73
   888
  0
VERTEX
  8
RK-LAVAT
 10
0.0
 20
0.0
 30
0.0
 70
   128
 71
   890
 72
  -888
 73
   893
  0
VERTEX
  8
RK-LAVAT
 10
0.0
 20
0.0
 30
0.0
 70
   128
 71
  -888
 72
  -882
 73
  -893
  0
VERTEX
  8
RK-LAVAT
 10
0.0
 20
0.0
 30
0.0
 70
   128
 71
   979
 72
  -977
 73
   978
  0
VERTEX
  8
RK-LAVAT
 10
0.0
 20
0.0
 30
0.0
 70
   128
 71
  -978
 72
   977
 73
   980
  0
VERTEX
  8
RK-LAVAT
 10
0.0
 20
0.0
 30
0.0
 70
   128
 71
   977
 72
  -981
 73
   980
  0
VERTEX
  8
RK-LAVAT
 10
0.0
 20
0.0
 30
0.0
 70
   128
 71
  -980
 72
   981
 73
   982
  0
VERTEX
  8
RK-LAVAT
 10
0.0
 20
0.0
 30
0.0
 70
   128
 71
   981
 72
  -983
 73
   982
  0
VERTEX
  8
RK-LAVAT
 10
0.0
 20
0.0
 30
0.0
 70
   128
 71
  -982
 72
   983
 73
   984
  0
VERTEX
  8
RK-LAVAT
 10
0.0
 20
0.0
 30
0.0
 70
   128
 71
   983
 72
  -985
 73
   984
  0
VERTEX
  8
RK-LAVAT
 10
0.0
 20
0.0
 30
0.0
 70
   128
 71
  -984
 72
   985
 73
   986
  0
VERTEX
  8
RK-LAVAT
 10
0.0
 20
0.0
 30
0.0
 70
   128
 71
   985
 72
  -987
 73
   986
  0
VERTEX
  8
RK-LAVAT
 10
0.0
 20
0.0
 30
0.0
 70
   128
 71
  -986
 72
   987
 73
   988
  0
VERTEX
  8
RK-LAVAT
 10
0.0
 20
0.0
 30
0.0
 70
   128
 71
   987
 72
  -989
 73
   988
  0
VERTEX
  8
RK-LAVAT
 10
0.0
 20
0.0
 30
0.0
 70
   128
 71
  -988
 72
   989
 73
   990
  0
VERTEX
  8
RK-LAVAT
 10
0.0
 20
0.0
 30
0.0
 70
   128
 71
   989
 72
  -991
 73
   990
  0
VERTEX
  8
RK-LAVAT
 10
0.0
 20
0.0
 30
0.0
 70
   128
 71
  -990
 72
   991
 73
   992
  0
VERTEX
  8
RK-LAVAT
 10
0.0
 20
0.0
 30
0.0
 70
   128
 71
   991
 72
  -884
 73
   992
  0
VERTEX
  8
RK-LAVAT
 10
0.0
 20
0.0
 30
0.0
 70
   128
 71
  -992
 72
   884
 73
   874
  0
VERTEX
  8
RK-LAVAT
 10
0.0
 20
0.0
 30
0.0
 70
   128
 71
   994
 72
  -993
 73
   979
  0
VERTEX
  8
RK-LAVAT
 10
0.0
 20
0.0
 30
0.0
 70
   128
 71
  -979
 72
   993
 73
   977
  0
VERTEX
  8
RK-LAVAT
 10
0.0
 20
0.0
 30
0.0
 70
   128
 71
   993
 72
  -995
 73
   977
  0
VERTEX
  8
RK-LAVAT
 10
0.0
 20
0.0
 30
0.0
 70
   128
 71
  -977
 72
   995
 73
   981
  0
VERTEX
  8
RK-LAVAT
 10
0.0
 20
0.0
 30
0.0
 70
   128
 71
   995
 72
  -996
 73
   981
  0
VERTEX
  8
RK-LAVAT
 10
0.0
 20
0.0
 30
0.0
 70
   128
 71
  -981
 72
   996
 73
   983
  0
VERTEX
  8
RK-LAVAT
 10
0.0
 20
0.0
 30
0.0
 70
   128
 71
   996
 72
  -997
 73
   983
  0
VERTEX
  8
RK-LAVAT
 10
0.0
 20
0.0
 30
0.0
 70
   128
 71
  -983
 72
   997
 73
   985
  0
VERTEX
  8
RK-LAVAT
 10
0.0
 20
0.0
 30
0.0
 70
   128
 71
   997
 72
  -998
 73
   985
  0
VERTEX
  8
RK-LAVAT
 10
0.0
 20
0.0
 30
0.0
 70
   128
 71
  -985
 72
   998
 73
   987
  0
VERTEX
  8
RK-LAVAT
 10
0.0
 20
0.0
 30
0.0
 70
   128
 71
   998
 72
  -999
 73
   987
  0
VERTEX
  8
RK-LAVAT
 10
0.0
 20
0.0
 30
0.0
 70
   128
 71
  -987
 72
   999
 73
   989
  0
VERTEX
  8
RK-LAVAT
 10
0.0
 20
0.0
 30
0.0
 70
   128
 71
   999
 72
 -1000
 73
   989
  0
VERTEX
  8
RK-LAVAT
 10
0.0
 20
0.0
 30
0.0
 70
   128
 71
  -989
 72
  1000
 73
   991
  0
VERTEX
  8
RK-LAVAT
 10
0.0
 20
0.0
 30
0.0
 70
   128
 71
  1000
 72
  -887
 73
   991
  0
VERTEX
  8
RK-LAVAT
 10
0.0
 20
0.0
 30
0.0
 70
   128
 71
  -991
 72
   887
 73
   884
  0
VERTEX
  8
RK-LAVAT
 10
0.0
 20
0.0
 30
0.0
 70
   128
 71
  1002
 72
 -1001
 73
   994
  0
VERTEX
  8
RK-LAVAT
 10
0.0
 20
0.0
 30
0.0
 70
   128
 71
  -994
 72
  1001
 73
   993
  0
VERTEX
  8
RK-LAVAT
 10
0.0
 20
0.0
 30
0.0
 70
   128
 71
  1001
 72
 -1003
 73
   993
  0
VERTEX
  8
RK-LAVAT
 10
0.0
 20
0.0
 30
0.0
 70
   128
 71
  -993
 72
  1003
 73
   995
  0
VERTEX
  8
RK-LAVAT
 10
0.0
 20
0.0
 30
0.0
 70
   128
 71
  1003
 72
 -1004
 73
   995
  0
VERTEX
  8
RK-LAVAT
 10
0.0
 20
0.0
 30
0.0
 70
   128
 71
  -995
 72
  1004
 73
   996
  0
VERTEX
  8
RK-LAVAT
 10
0.0
 20
0.0
 30
0.0
 70
   128
 71
  1004
 72
 -1005
 73
   996
  0
VERTEX
  8
RK-LAVAT
 10
0.0
 20
0.0
 30
0.0
 70
   128
 71
  -996
 72
  1005
 73
   997
  0
VERTEX
  8
RK-LAVAT
 10
0.0
 20
0.0
 30
0.0
 70
   128
 71
  1005
 72
 -1006
 73
   997
  0
VERTEX
  8
RK-LAVAT
 10
0.0
 20
0.0
 30
0.0
 70
   128
 71
  -997
 72
  1006
 73
   998
  0
VERTEX
  8
RK-LAVAT
 10
0.0
 20
0.0
 30
0.0
 70
   128
 71
  1006
 72
 -1007
 73
   998
  0
VERTEX
  8
RK-LAVAT
 10
0.0
 20
0.0
 30
0.0
 70
   128
 71
  -998
 72
  1007
 73
   999
  0
VERTEX
  8
RK-LAVAT
 10
0.0
 20
0.0
 30
0.0
 70
   128
 71
  1007
 72
 -1008
 73
   999
  0
VERTEX
  8
RK-LAVAT
 10
0.0
 20
0.0
 30
0.0
 70
   128
 71
  -999
 72
  1008
 73
  1000
  0
VERTEX
  8
RK-LAVAT
 10
0.0
 20
0.0
 30
0.0
 70
   128
 71
  1008
 72
  -889
 73
  1000
  0
VERTEX
  8
RK-LAVAT
 10
0.0
 20
0.0
 30
0.0
 70
   128
 71
 -1000
 72
   889
 73
   887
  0
VERTEX
  8
RK-LAVAT
 10
0.0
 20
0.0
 30
0.0
 70
   128
 71
  1010
 72
 -1009
 73
  1002
  0
VERTEX
  8
RK-LAVAT
 10
0.0
 20
0.0
 30
0.0
 70
   128
 71
 -1002
 72
  1009
 73
  1001
  0
VERTEX
  8
RK-LAVAT
 10
0.0
 20
0.0
 30
0.0
 70
   128
 71
  1009
 72
 -1011
 73
  1001
  0
VERTEX
  8
RK-LAVAT
 10
0.0
 20
0.0
 30
0.0
 70
   128
 71
 -1001
 72
  1011
 73
  1003
  0
VERTEX
  8
RK-LAVAT
 10
0.0
 20
0.0
 30
0.0
 70
   128
 71
  1011
 72
 -1012
 73
  1003
  0
VERTEX
  8
RK-LAVAT
 10
0.0
 20
0.0
 30
0.0
 70
   128
 71
 -1003
 72
  1012
 73
  1004
  0
VERTEX
  8
RK-LAVAT
 10
0.0
 20
0.0
 30
0.0
 70
   128
 71
  1012
 72
 -1013
 73
  1004
  0
VERTEX
  8
RK-LAVAT
 10
0.0
 20
0.0
 30
0.0
 70
   128
 71
 -1004
 72
  1013
 73
  1005
  0
VERTEX
  8
RK-LAVAT
 10
0.0
 20
0.0
 30
0.0
 70
   128
 71
  1013
 72
 -1014
 73
  1005
  0
VERTEX
  8
RK-LAVAT
 10
0.0
 20
0.0
 30
0.0
 70
   128
 71
 -1005
 72
  1014
 73
  1006
  0
VERTEX
  8
RK-LAVAT
 10
0.0
 20
0.0
 30
0.0
 70
   128
 71
  1014
 72
 -1015
 73
  1006
  0
VERTEX
  8
RK-LAVAT
 10
0.0
 20
0.0
 30
0.0
 70
   128
 71
 -1006
 72
  1015
 73
  1007
  0
VERTEX
  8
RK-LAVAT
 10
0.0
 20
0.0
 30
0.0
 70
   128
 71
  1015
 72
 -1016
 73
  1007
  0
VERTEX
  8
RK-LAVAT
 10
0.0
 20
0.0
 30
0.0
 70
   128
 71
 -1007
 72
  1016
 73
  1008
  0
VERTEX
  8
RK-LAVAT
 10
0.0
 20
0.0
 30
0.0
 70
   128
 71
  1016
 72
  -892
 73
  1008
  0
VERTEX
  8
RK-LAVAT
 10
0.0
 20
0.0
 30
0.0
 70
   128
 71
 -1008
 72
   892
 73
   889
  0
VERTEX
  8
RK-LAVAT
 10
0.0
 20
0.0
 30
0.0
 70
   128
 71
  1018
 72
 -1017
 73
  1010
  0
VERTEX
  8
RK-LAVAT
 10
0.0
 20
0.0
 30
0.0
 70
   128
 71
 -1010
 72
  1017
 73
  1009
  0
VERTEX
  8
RK-LAVAT
 10
0.0
 20
0.0
 30
0.0
 70
   128
 71
  1017
 72
 -1019
 73
  1009
  0
VERTEX
  8
RK-LAVAT
 10
0.0
 20
0.0
 30
0.0
 70
   128
 71
 -1009
 72
  1019
 73
  1011
  0
VERTEX
  8
RK-LAVAT
 10
0.0
 20
0.0
 30
0.0
 70
   128
 71
  1019
 72
 -1020
 73
  1011
  0
VERTEX
  8
RK-LAVAT
 10
0.0
 20
0.0
 30
0.0
 70
   128
 71
 -1011
 72
  1020
 73
  1012
  0
VERTEX
  8
RK-LAVAT
 10
0.0
 20
0.0
 30
0.0
 70
   128
 71
  1020
 72
 -1021
 73
  1012
  0
VERTEX
  8
RK-LAVAT
 10
0.0
 20
0.0
 30
0.0
 70
   128
 71
 -1012
 72
  1021
 73
  1013
  0
VERTEX
  8
RK-LAVAT
 10
0.0
 20
0.0
 30
0.0
 70
   128
 71
  1021
 72
 -1022
 73
  1013
  0
VERTEX
  8
RK-LAVAT
 10
0.0
 20
0.0
 30
0.0
 70
   128
 71
 -1013
 72
  1022
 73
  1014
  0
VERTEX
  8
RK-LAVAT
 10
0.0
 20
0.0
 30
0.0
 70
   128
 71
  1022
 72
 -1023
 73
  1014
  0
VERTEX
  8
RK-LAVAT
 10
0.0
 20
0.0
 30
0.0
 70
   128
 71
 -1014
 72
  1023
 73
  1015
  0
VERTEX
  8
RK-LAVAT
 10
0.0
 20
0.0
 30
0.0
 70
   128
 71
  1023
 72
 -1024
 73
  1015
  0
VERTEX
  8
RK-LAVAT
 10
0.0
 20
0.0
 30
0.0
 70
   128
 71
 -1015
 72
  1024
 73
  1016
  0
VERTEX
  8
RK-LAVAT
 10
0.0
 20
0.0
 30
0.0
 70
   128
 71
  1024
 72
  -895
 73
  1016
  0
VERTEX
  8
RK-LAVAT
 10
0.0
 20
0.0
 30
0.0
 70
   128
 71
 -1016
 72
   895
 73
   892
  0
VERTEX
  8
RK-LAVAT
 10
0.0
 20
0.0
 30
0.0
 70
   128
 71
  1026
 72
 -1025
 73
  1018
  0
VERTEX
  8
RK-LAVAT
 10
0.0
 20
0.0
 30
0.0
 70
   128
 71
 -1018
 72
  1025
 73
  1017
  0
VERTEX
  8
RK-LAVAT
 10
0.0
 20
0.0
 30
0.0
 70
   128
 71
  1025
 72
 -1027
 73
  1017
  0
VERTEX
  8
RK-LAVAT
 10
0.0
 20
0.0
 30
0.0
 70
   128
 71
 -1017
 72
  1027
 73
  1019
  0
VERTEX
  8
RK-LAVAT
 10
0.0
 20
0.0
 30
0.0
 70
   128
 71
  1027
 72
 -1028
 73
  1019
  0
VERTEX
  8
RK-LAVAT
 10
0.0
 20
0.0
 30
0.0
 70
   128
 71
 -1019
 72
  1028
 73
  1020
  0
VERTEX
  8
RK-LAVAT
 10
0.0
 20
0.0
 30
0.0
 70
   128
 71
  1028
 72
 -1029
 73
  1020
  0
VERTEX
  8
RK-LAVAT
 10
0.0
 20
0.0
 30
0.0
 70
   128
 71
 -1020
 72
  1029
 73
  1021
  0
VERTEX
  8
RK-LAVAT
 10
0.0
 20
0.0
 30
0.0
 70
   128
 71
  1029
 72
 -1030
 73
  1021
  0
VERTEX
  8
RK-LAVAT
 10
0.0
 20
0.0
 30
0.0
 70
   128
 71
 -1021
 72
  1030
 73
  1022
  0
VERTEX
  8
RK-LAVAT
 10
0.0
 20
0.0
 30
0.0
 70
   128
 71
  1030
 72
 -1031
 73
  1022
  0
VERTEX
  8
RK-LAVAT
 10
0.0
 20
0.0
 30
0.0
 70
   128
 71
 -1022
 72
  1031
 73
  1023
  0
VERTEX
  8
RK-LAVAT
 10
0.0
 20
0.0
 30
0.0
 70
   128
 71
  1031
 72
 -1032
 73
  1023
  0
VERTEX
  8
RK-LAVAT
 10
0.0
 20
0.0
 30
0.0
 70
   128
 71
 -1023
 72
  1032
 73
  1024
  0
VERTEX
  8
RK-LAVAT
 10
0.0
 20
0.0
 30
0.0
 70
   128
 71
  1035
 72
 -1033
 73
  1034
  0
VERTEX
  8
RK-LAVAT
 10
0.0
 20
0.0
 30
0.0
 70
   128
 71
  1033
 72
   978
 73
 -1034
  0
VERTEX
  8
RK-LAVAT
 10
0.0
 20
0.0
 30
0.0
 70
   128
 71
   978
 72
  -980
 73
  1034
  0
VERTEX
  8
RK-LAVAT
 10
0.0
 20
0.0
 30
0.0
 70
   128
 71
 -1034
 72
   980
 73
  1036
  0
VERTEX
  8
RK-LAVAT
 10
0.0
 20
0.0
 30
0.0
 70
   128
 71
   982
 72
 -1037
 73
   980
  0
VERTEX
  8
RK-LAVAT
 10
0.0
 20
0.0
 30
0.0
 70
   128
 71
  1036
 72
  -980
 73
  1037
  0
VERTEX
  8
RK-LAVAT
 10
0.0
 20
0.0
 30
0.0
 70
   128
 71
  1038
 72
 -1037
 73
   984
  0
VERTEX
  8
RK-LAVAT
 10
0.0
 20
0.0
 30
0.0
 70
   128
 71
   982
 72
  -984
 73
  1037
  0
VERTEX
  8
RK-LAVAT
 10
0.0
 20
0.0
 30
0.0
 70
   128
 71
  1038
 72
  -984
 73
  1039
  0
VERTEX
  8
RK-LAVAT
 10
0.0
 20
0.0
 30
0.0
 70
   128
 71
   984
 72
   986
 73
 -1039
  0
VERTEX
  8
RK-LAVAT
 10
0.0
 20
0.0
 30
0.0
 70
   128
 71
   986
 72
  -988
 73
  1039
  0
VERTEX
  8
RK-LAVAT
 10
0.0
 20
0.0
 30
0.0
 70
   128
 71
 -1039
 72
   988
 73
  1040
  0
VERTEX
  8
RK-LAVAT
 10
0.0
 20
0.0
 30
0.0
 70
   128
 71
   990
 72
 -1041
 73
   988
  0
VERTEX
  8
RK-LAVAT
 10
0.0
 20
0.0
 30
0.0
 70
   128
 71
  1040
 72
  -988
 73
  1041
  0
VERTEX
  8
RK-LAVAT
 10
0.0
 20
0.0
 30
0.0
 70
   128
 71
  1042
 72
 -1041
 73
   992
  0
VERTEX
  8
RK-LAVAT
 10
0.0
 20
0.0
 30
0.0
 70
   128
 71
   990
 72
  -992
 73
  1041
  0
VERTEX
  8
RK-LAVAT
 10
0.0
 20
0.0
 30
0.0
 70
   128
 71
  1042
 72
  -992
 73
   873
  0
VERTEX
  8
RK-LAVAT
 10
0.0
 20
0.0
 30
0.0
 70
   128
 71
   992
 72
   874
 73
  -873
  0
VERTEX
  8
RK-LAVAT
 10
0.0
 20
0.0
 30
0.0
 70
   128
 71
  1043
 72
  -979
 73
  1033
  0
VERTEX
  8
RK-LAVAT
 10
0.0
 20
0.0
 30
0.0
 70
   128
 71
 -1033
 72
   979
 73
   978
  0
VERTEX
  8
RK-LAVAT
 10
0.0
 20
0.0
 30
0.0
 70
   128
 71
   884
 72
  1044
 73
   874
  0
VERTEX
  8
RK-LAVAT
 10
0.0
 20
0.0
 30
0.0
 70
   128
 71
   994
 72
  -979
 73
  1045
  0
VERTEX
  8
RK-LAVAT
 10
0.0
 20
0.0
 30
0.0
 70
   128
 71
  1043
 72
 -1045
 73
   979
  0
VERTEX
  8
RK-LAVAT
 10
0.0
 20
0.0
 30
0.0
 70
   128
 71
   887
 72
   884
 73
  1046
  0
VERTEX
  8
RK-LAVAT
 10
0.0
 20
0.0
 30
0.0
 70
   128
 71
   994
 72
 -1045
 73
  1002
  0
VERTEX
  8
RK-LAVAT
 10
0.0
 20
0.0
 30
0.0
 70
   128
 71
  1047
 72
 -1002
 73
  1045
  0
VERTEX
  8
RK-LAVAT
 10
0.0
 20
0.0
 30
0.0
 70
   128
 71
  1048
 72
   889
 73
   887
  0
VERTEX
  8
RK-LAVAT
 10
0.0
 20
0.0
 30
0.0
 70
   128
 71
  1047
 72
 -1049
 73
  1002
  0
VERTEX
  8
RK-LAVAT
 10
0.0
 20
0.0
 30
0.0
 70
   128
 71
  1049
 72
  1010
 73
 -1002
  0
VERTEX
  8
RK-LAVAT
 10
0.0
 20
0.0
 30
0.0
 70
   128
 71
   892
 72
   889
 73
  1050
  0
VERTEX
  8
RK-LAVAT
 10
0.0
 20
0.0
 30
0.0
 70
   128
 71
  1018
 72
 -1010
 73
  1051
  0
VERTEX
  8
RK-LAVAT
 10
0.0
 20
0.0
 30
0.0
 70
   128
 71
 -1051
 72
  1010
 73
  1049
  0
VERTEX
  8
RK-LAVAT
 10
0.0
 20
0.0
 30
0.0
 70
   128
 71
  1052
 72
   895
 73
   892
  0
VERTEX
  8
RK-LAVAT
 10
0.0
 20
0.0
 30
0.0
 70
   128
 71
  1018
 72
 -1051
 73
  1026
  0
VERTEX
  8
RK-LAVAT
 10
0.0
 20
0.0
 30
0.0
 70
   128
 71
 -1053
 72
 -1026
 73
  1051
  0
VERTEX
  8
RK-LAVAT
 10
0.0
 20
0.0
 30
0.0
 70
   128
 71
   895
 72
 -1024
 73
   898
  0
VERTEX
  8
RK-LAVAT
 10
0.0
 20
0.0
 30
0.0
 70
   128
 71
  1032
 72
  -898
 73
  1024
  0
VERTEX
  8
RK-LAVAT
 10
0.0
 20
0.0
 30
0.0
 70
   128
 71
   898
 72
  1054
 73
   895
  0
VERTEX
  8
RK-LAVAT
 10
0.0
 20
0.0
 30
0.0
 70
   128
 71
  1057
 72
 -1055
 73
  1056
  0
VERTEX
  8
RK-LAVAT
 10
0.0
 20
0.0
 30
0.0
 70
   128
 71
 -1056
 72
  1055
 73
  1058
  0
VERTEX
  8
RK-LAVAT
 10
0.0
 20
0.0
 30
0.0
 70
   128
 71
  1055
 72
 -1059
 73
  1058
  0
VERTEX
  8
RK-LAVAT
 10
0.0
 20
0.0
 30
0.0
 70
   128
 71
 -1058
 72
  1059
 73
  1060
  0
VERTEX
  8
RK-LAVAT
 10
0.0
 20
0.0
 30
0.0
 70
   128
 71
  1059
 72
 -1061
 73
  1060
  0
VERTEX
  8
RK-LAVAT
 10
0.0
 20
0.0
 30
0.0
 70
   128
 71
 -1060
 72
  1061
 73
  1062
  0
VERTEX
  8
RK-LAVAT
 10
0.0
 20
0.0
 30
0.0
 70
   128
 71
  1061
 72
 -1063
 73
  1062
  0
VERTEX
  8
RK-LAVAT
 10
0.0
 20
0.0
 30
0.0
 70
   128
 71
 -1062
 72
  1063
 73
  1064
  0
VERTEX
  8
RK-LAVAT
 10
0.0
 20
0.0
 30
0.0
 70
   128
 71
  1063
 72
 -1065
 73
  1064
  0
VERTEX
  8
RK-LAVAT
 10
0.0
 20
0.0
 30
0.0
 70
   128
 71
 -1064
 72
  1065
 73
  1066
  0
VERTEX
  8
RK-LAVAT
 10
0.0
 20
0.0
 30
0.0
 70
   128
 71
  1065
 72
 -1067
 73
  1066
  0
VERTEX
  8
RK-LAVAT
 10
0.0
 20
0.0
 30
0.0
 70
   128
 71
 -1066
 72
  1067
 73
  1068
  0
VERTEX
  8
RK-LAVAT
 10
0.0
 20
0.0
 30
0.0
 70
   128
 71
  1067
 72
 -1043
 73
  1068
  0
VERTEX
  8
RK-LAVAT
 10
0.0
 20
0.0
 30
0.0
 70
   128
 71
 -1068
 72
  1043
 73
  1033
  0
VERTEX
  8
RK-LAVAT
 10
0.0
 20
0.0
 30
0.0
 70
   128
 71
  1070
 72
 -1069
 73
  1057
  0
VERTEX
  8
RK-LAVAT
 10
0.0
 20
0.0
 30
0.0
 70
   128
 71
 -1057
 72
  1069
 73
  1055
  0
VERTEX
  8
RK-LAVAT
 10
0.0
 20
0.0
 30
0.0
 70
   128
 71
  1069
 72
 -1071
 73
  1055
  0
VERTEX
  8
RK-LAVAT
 10
0.0
 20
0.0
 30
0.0
 70
   128
 71
 -1055
 72
  1071
 73
  1059
  0
VERTEX
  8
RK-LAVAT
 10
0.0
 20
0.0
 30
0.0
 70
   128
 71
  1071
 72
 -1072
 73
  1059
  0
VERTEX
  8
RK-LAVAT
 10
0.0
 20
0.0
 30
0.0
 70
   128
 71
 -1059
 72
  1072
 73
  1061
  0
VERTEX
  8
RK-LAVAT
 10
0.0
 20
0.0
 30
0.0
 70
   128
 71
  1072
 72
 -1073
 73
  1061
  0
VERTEX
  8
RK-LAVAT
 10
0.0
 20
0.0
 30
0.0
 70
   128
 71
 -1061
 72
  1073
 73
  1063
  0
VERTEX
  8
RK-LAVAT
 10
0.0
 20
0.0
 30
0.0
 70
   128
 71
  1073
 72
 -1074
 73
  1063
  0
VERTEX
  8
RK-LAVAT
 10
0.0
 20
0.0
 30
0.0
 70
   128
 71
 -1063
 72
  1074
 73
  1065
  0
VERTEX
  8
RK-LAVAT
 10
0.0
 20
0.0
 30
0.0
 70
   128
 71
  1074
 72
 -1075
 73
  1065
  0
VERTEX
  8
RK-LAVAT
 10
0.0
 20
0.0
 30
0.0
 70
   128
 71
 -1065
 72
  1075
 73
  1067
  0
VERTEX
  8
RK-LAVAT
 10
0.0
 20
0.0
 30
0.0
 70
   128
 71
  1075
 72
 -1045
 73
  1067
  0
VERTEX
  8
RK-LAVAT
 10
0.0
 20
0.0
 30
0.0
 70
   128
 71
 -1067
 72
  1045
 73
  1043
  0
VERTEX
  8
RK-LAVAT
 10
0.0
 20
0.0
 30
0.0
 70
   128
 71
  1077
 72
 -1076
 73
  1070
  0
VERTEX
  8
RK-LAVAT
 10
0.0
 20
0.0
 30
0.0
 70
   128
 71
 -1070
 72
  1076
 73
  1069
  0
VERTEX
  8
RK-LAVAT
 10
0.0
 20
0.0
 30
0.0
 70
   128
 71
  1076
 72
 -1078
 73
  1069
  0
VERTEX
  8
RK-LAVAT
 10
0.0
 20
0.0
 30
0.0
 70
   128
 71
 -1069
 72
  1078
 73
  1071
  0
VERTEX
  8
RK-LAVAT
 10
0.0
 20
0.0
 30
0.0
 70
   128
 71
  1078
 72
 -1079
 73
  1071
  0
VERTEX
  8
RK-LAVAT
 10
0.0
 20
0.0
 30
0.0
 70
   128
 71
 -1071
 72
  1079
 73
  1072
  0
VERTEX
  8
RK-LAVAT
 10
0.0
 20
0.0
 30
0.0
 70
   128
 71
  1079
 72
 -1080
 73
  1072
  0
VERTEX
  8
RK-LAVAT
 10
0.0
 20
0.0
 30
0.0
 70
   128
 71
 -1072
 72
  1080
 73
  1073
  0
VERTEX
  8
RK-LAVAT
 10
0.0
 20
0.0
 30
0.0
 70
   128
 71
  1080
 72
 -1081
 73
  1073
  0
VERTEX
  8
RK-LAVAT
 10
0.0
 20
0.0
 30
0.0
 70
   128
 71
 -1073
 72
  1081
 73
  1074
  0
VERTEX
  8
RK-LAVAT
 10
0.0
 20
0.0
 30
0.0
 70
   128
 71
  1081
 72
 -1082
 73
  1074
  0
VERTEX
  8
RK-LAVAT
 10
0.0
 20
0.0
 30
0.0
 70
   128
 71
 -1074
 72
  1082
 73
  1075
  0
VERTEX
  8
RK-LAVAT
 10
0.0
 20
0.0
 30
0.0
 70
   128
 71
  1082
 72
 -1047
 73
  1075
  0
VERTEX
  8
RK-LAVAT
 10
0.0
 20
0.0
 30
0.0
 70
   128
 71
 -1075
 72
  1047
 73
  1045
  0
VERTEX
  8
RK-LAVAT
 10
0.0
 20
0.0
 30
0.0
 70
   128
 71
  1084
 72
 -1083
 73
  1077
  0
VERTEX
  8
RK-LAVAT
 10
0.0
 20
0.0
 30
0.0
 70
   128
 71
 -1077
 72
  1083
 73
  1076
  0
VERTEX
  8
RK-LAVAT
 10
0.0
 20
0.0
 30
0.0
 70
   128
 71
  1083
 72
 -1085
 73
  1076
  0
VERTEX
  8
RK-LAVAT
 10
0.0
 20
0.0
 30
0.0
 70
   128
 71
 -1076
 72
  1085
 73
  1078
  0
VERTEX
  8
RK-LAVAT
 10
0.0
 20
0.0
 30
0.0
 70
   128
 71
  1085
 72
 -1086
 73
  1078
  0
VERTEX
  8
RK-LAVAT
 10
0.0
 20
0.0
 30
0.0
 70
   128
 71
 -1078
 72
  1086
 73
  1079
  0
VERTEX
  8
RK-LAVAT
 10
0.0
 20
0.0
 30
0.0
 70
   128
 71
  1086
 72
 -1087
 73
  1079
  0
VERTEX
  8
RK-LAVAT
 10
0.0
 20
0.0
 30
0.0
 70
   128
 71
 -1079
 72
  1087
 73
  1080
  0
VERTEX
  8
RK-LAVAT
 10
0.0
 20
0.0
 30
0.0
 70
   128
 71
  1087
 72
 -1088
 73
  1080
  0
VERTEX
  8
RK-LAVAT
 10
0.0
 20
0.0
 30
0.0
 70
   128
 71
 -1080
 72
  1088
 73
  1081
  0
VERTEX
  8
RK-LAVAT
 10
0.0
 20
0.0
 30
0.0
 70
   128
 71
  1088
 72
 -1089
 73
  1081
  0
VERTEX
  8
RK-LAVAT
 10
0.0
 20
0.0
 30
0.0
 70
   128
 71
 -1081
 72
  1089
 73
  1082
  0
VERTEX
  8
RK-LAVAT
 10
0.0
 20
0.0
 30
0.0
 70
   128
 71
  1089
 72
 -1049
 73
  1082
  0
VERTEX
  8
RK-LAVAT
 10
0.0
 20
0.0
 30
0.0
 70
   128
 71
 -1082
 72
  1049
 73
  1047
  0
VERTEX
  8
RK-LAVAT
 10
0.0
 20
0.0
 30
0.0
 70
   128
 71
  1091
 72
 -1090
 73
  1084
  0
VERTEX
  8
RK-LAVAT
 10
0.0
 20
0.0
 30
0.0
 70
   128
 71
 -1084
 72
  1090
 73
  1083
  0
VERTEX
  8
RK-LAVAT
 10
0.0
 20
0.0
 30
0.0
 70
   128
 71
  1090
 72
 -1092
 73
  1083
  0
VERTEX
  8
RK-LAVAT
 10
0.0
 20
0.0
 30
0.0
 70
   128
 71
 -1083
 72
  1092
 73
  1085
  0
VERTEX
  8
RK-LAVAT
 10
0.0
 20
0.0
 30
0.0
 70
   128
 71
  1092
 72
 -1093
 73
  1085
  0
VERTEX
  8
RK-LAVAT
 10
0.0
 20
0.0
 30
0.0
 70
   128
 71
 -1085
 72
  1093
 73
  1086
  0
VERTEX
  8
RK-LAVAT
 10
0.0
 20
0.0
 30
0.0
 70
   128
 71
  1093
 72
 -1094
 73
  1086
  0
VERTEX
  8
RK-LAVAT
 10
0.0
 20
0.0
 30
0.0
 70
   128
 71
 -1086
 72
  1094
 73
  1087
  0
VERTEX
  8
RK-LAVAT
 10
0.0
 20
0.0
 30
0.0
 70
   128
 71
  1094
 72
 -1095
 73
  1087
  0
VERTEX
  8
RK-LAVAT
 10
0.0
 20
0.0
 30
0.0
 70
   128
 71
 -1087
 72
  1095
 73
  1088
  0
VERTEX
  8
RK-LAVAT
 10
0.0
 20
0.0
 30
0.0
 70
   128
 71
  1095
 72
 -1096
 73
  1088
  0
VERTEX
  8
RK-LAVAT
 10
0.0
 20
0.0
 30
0.0
 70
   128
 71
 -1088
 72
  1096
 73
  1089
  0
VERTEX
  8
RK-LAVAT
 10
0.0
 20
0.0
 30
0.0
 70
   128
 71
  1096
 72
 -1051
 73
  1089
  0
VERTEX
  8
RK-LAVAT
 10
0.0
 20
0.0
 30
0.0
 70
   128
 71
 -1089
 72
  1051
 73
  1049
  0
VERTEX
  8
RK-LAVAT
 10
0.0
 20
0.0
 30
0.0
 70
   128
 71
  1098
 72
 -1097
 73
  1091
  0
VERTEX
  8
RK-LAVAT
 10
0.0
 20
0.0
 30
0.0
 70
   128
 71
 -1091
 72
  1097
 73
  1090
  0
VERTEX
  8
RK-LAVAT
 10
0.0
 20
0.0
 30
0.0
 70
   128
 71
  1097
 72
 -1099
 73
  1090
  0
VERTEX
  8
RK-LAVAT
 10
0.0
 20
0.0
 30
0.0
 70
   128
 71
 -1090
 72
  1099
 73
  1092
  0
VERTEX
  8
RK-LAVAT
 10
0.0
 20
0.0
 30
0.0
 70
   128
 71
  1099
 72
 -1100
 73
  1092
  0
VERTEX
  8
RK-LAVAT
 10
0.0
 20
0.0
 30
0.0
 70
   128
 71
 -1092
 72
  1100
 73
  1093
  0
VERTEX
  8
RK-LAVAT
 10
0.0
 20
0.0
 30
0.0
 70
   128
 71
  1100
 72
 -1101
 73
  1093
  0
VERTEX
  8
RK-LAVAT
 10
0.0
 20
0.0
 30
0.0
 70
   128
 71
 -1093
 72
  1101
 73
  1094
  0
VERTEX
  8
RK-LAVAT
 10
0.0
 20
0.0
 30
0.0
 70
   128
 71
  1101
 72
 -1102
 73
  1094
  0
VERTEX
  8
RK-LAVAT
 10
0.0
 20
0.0
 30
0.0
 70
   128
 71
 -1094
 72
  1102
 73
  1095
  0
VERTEX
  8
RK-LAVAT
 10
0.0
 20
0.0
 30
0.0
 70
   128
 71
  1102
 72
 -1103
 73
  1095
  0
VERTEX
  8
RK-LAVAT
 10
0.0
 20
0.0
 30
0.0
 70
   128
 71
 -1095
 72
  1103
 73
  1096
  0
VERTEX
  8
RK-LAVAT
 10
0.0
 20
0.0
 30
0.0
 70
   128
 71
  1104
 72
  -962
 73
  1056
  0
VERTEX
  8
RK-LAVAT
 10
0.0
 20
0.0
 30
0.0
 70
   128
 71
   963
 72
 -1056
 73
   962
  0
VERTEX
  8
RK-LAVAT
 10
0.0
 20
0.0
 30
0.0
 70
   128
 71
  1104
 72
 -1056
 73
  1105
  0
VERTEX
  8
RK-LAVAT
 10
0.0
 20
0.0
 30
0.0
 70
   128
 71
  1056
 72
  1058
 73
 -1105
  0
VERTEX
  8
RK-LAVAT
 10
0.0
 20
0.0
 30
0.0
 70
   128
 71
  1058
 72
 -1060
 73
  1105
  0
VERTEX
  8
RK-LAVAT
 10
0.0
 20
0.0
 30
0.0
 70
   128
 71
 -1105
 72
  1060
 73
  1106
  0
VERTEX
  8
RK-LAVAT
 10
0.0
 20
0.0
 30
0.0
 70
   128
 71
  1062
 72
 -1107
 73
  1060
  0
VERTEX
  8
RK-LAVAT
 10
0.0
 20
0.0
 30
0.0
 70
   128
 71
  1106
 72
 -1060
 73
  1107
  0
VERTEX
  8
RK-LAVAT
 10
0.0
 20
0.0
 30
0.0
 70
   128
 71
  1108
 72
 -1107
 73
  1064
  0
VERTEX
  8
RK-LAVAT
 10
0.0
 20
0.0
 30
0.0
 70
   128
 71
  1062
 72
 -1064
 73
  1107
  0
VERTEX
  8
RK-LAVAT
 10
0.0
 20
0.0
 30
0.0
 70
   128
 71
  1108
 72
 -1064
 73
  1109
  0
VERTEX
  8
RK-LAVAT
 10
0.0
 20
0.0
 30
0.0
 70
   128
 71
  1064
 72
  1066
 73
 -1109
  0
VERTEX
  8
RK-LAVAT
 10
0.0
 20
0.0
 30
0.0
 70
   128
 71
  1066
 72
 -1068
 73
  1109
  0
VERTEX
  8
RK-LAVAT
 10
0.0
 20
0.0
 30
0.0
 70
   128
 71
 -1109
 72
  1068
 73
  1110
  0
VERTEX
  8
RK-LAVAT
 10
0.0
 20
0.0
 30
0.0
 70
   128
 71
  1033
 72
 -1035
 73
  1068
  0
VERTEX
  8
RK-LAVAT
 10
0.0
 20
0.0
 30
0.0
 70
   128
 71
  1110
 72
 -1068
 73
  1035
  0
VERTEX
  8
RK-LAVAT
 10
0.0
 20
0.0
 30
0.0
 70
   128
 71
  1056
 72
  -963
 73
  1057
  0
VERTEX
  8
RK-LAVAT
 10
0.0
 20
0.0
 30
0.0
 70
   128
 71
   965
 72
 -1057
 73
   963
  0
VERTEX
  8
RK-LAVAT
 10
0.0
 20
0.0
 30
0.0
 70
   128
 71
  1111
 72
  1043
 73
  1033
  0
VERTEX
  8
RK-LAVAT
 10
0.0
 20
0.0
 30
0.0
 70
   128
 71
   966
 72
 -1070
 73
   965
  0
VERTEX
  8
RK-LAVAT
 10
0.0
 20
0.0
 30
0.0
 70
   128
 71
  1070
 72
  1057
 73
  -965
  0
VERTEX
  8
RK-LAVAT
 10
0.0
 20
0.0
 30
0.0
 70
   128
 71
  1112
 72
  1045
 73
  1043
  0
VERTEX
  8
RK-LAVAT
 10
0.0
 20
0.0
 30
0.0
 70
   128
 71
   968
 72
 -1077
 73
   966
  0
VERTEX
  8
RK-LAVAT
 10
0.0
 20
0.0
 30
0.0
 70
   128
 71
  -966
 72
  1077
 73
  1070
  0
VERTEX
  8
RK-LAVAT
 10
0.0
 20
0.0
 30
0.0
 70
   128
 71
  1047
 72
  1045
 73
  1113
  0
VERTEX
  8
RK-LAVAT
 10
0.0
 20
0.0
 30
0.0
 70
   128
 71
  1084
 72
 -1077
 73
   969
  0
VERTEX
  8
RK-LAVAT
 10
0.0
 20
0.0
 30
0.0
 70
   128
 71
   968
 72
  -969
 73
  1077
  0
VERTEX
  8
RK-LAVAT
 10
0.0
 20
0.0
 30
0.0
 70
   128
 71
  1114
 72
  1049
 73
  1047
  0
VERTEX
  8
RK-LAVAT
 10
0.0
 20
0.0
 30
0.0
 70
   128
 71
  1084
 72
  -969
 73
  1091
  0
VERTEX
  8
RK-LAVAT
 10
0.0
 20
0.0
 30
0.0
 70
   128
 71
   821
 72
 -1091
 73
   969
  0
VERTEX
  8
RK-LAVAT
 10
0.0
 20
0.0
 30
0.0
 70
   128
 71
  1115
 72
  1049
 73
  1051
  0
VERTEX
  8
RK-LAVAT
 10
0.0
 20
0.0
 30
0.0
 70
   128
 71
   821
 72
  -820
 73
  1091
  0
VERTEX
  8
RK-LAVAT
 10
0.0
 20
0.0
 30
0.0
 70
   128
 71
   820
 72
  1098
 73
 -1091
  0
VERTEX
  8
RK-LAVAT
 10
0.0
 20
0.0
 30
0.0
 70
   128
 71
  1103
 72
 -1053
 73
  1096
  0
VERTEX
  8
RK-LAVAT
 10
0.0
 20
0.0
 30
0.0
 70
   128
 71
 -1096
 72
  1053
 73
  1051
  0
VERTEX
  8
RK-LAVAT
 10
0.0
 20
0.0
 30
0.0
 70
   128
 71
  1053
 72
  1116
 73
  1051
  0
VERTEX
  8
RK-LAVAT
 10
0.0
 20
0.0
 30
0.0
 70
   128
 71
  -951
 72
  1117
 73
 -1118
  0
VERTEX
  8
RK-LAVAT
 10
0.0
 20
0.0
 30
0.0
 70
   128
 71
  -950
 72
 -1117
 73
   951
  0
VERTEX
  8
RK-LAVAT
 10
0.0
 20
0.0
 30
0.0
 70
   128
 71
  -950
 72
  1119
 73
 -1117
  0
VERTEX
  8
RK-LAVAT
 10
0.0
 20
0.0
 30
0.0
 70
   128
 71
  -949
 72
 -1119
 73
   950
  0
VERTEX
  8
RK-LAVAT
 10
0.0
 20
0.0
 30
0.0
 70
   128
 71
  -949
 72
  1120
 73
 -1119
  0
VERTEX
  8
RK-LAVAT
 10
0.0
 20
0.0
 30
0.0
 70
   128
 71
  -949
 72
  1121
 73
 -1120
  0
VERTEX
  8
RK-LAVAT
 10
0.0
 20
0.0
 30
0.0
 70
   128
 71
  -947
 72
 -1121
 73
   949
  0
VERTEX
  8
RK-LAVAT
 10
0.0
 20
0.0
 30
0.0
 70
   128
 71
  -947
 72
  1122
 73
 -1121
  0
VERTEX
  8
RK-LAVAT
 10
0.0
 20
0.0
 30
0.0
 70
   128
 71
  -948
 72
 -1122
 73
   947
  0
VERTEX
  8
RK-LAVAT
 10
0.0
 20
0.0
 30
0.0
 70
   128
 71
  -948
 72
  1123
 73
 -1122
  0
VERTEX
  8
RK-LAVAT
 10
0.0
 20
0.0
 30
0.0
 70
   128
 71
  -948
 72
  1124
 73
 -1123
  0
VERTEX
  8
RK-LAVAT
 10
0.0
 20
0.0
 30
0.0
 70
   128
 71
  -899
 72
 -1124
 73
   948
  0
VERTEX
  8
RK-LAVAT
 10
0.0
 20
0.0
 30
0.0
 70
   128
 71
  -899
 72
  1125
 73
 -1124
  0
VERTEX
  8
RK-LAVAT
 10
0.0
 20
0.0
 30
0.0
 70
   128
 71
  -872
 72
 -1125
 73
   899
  0
VERTEX
  8
RK-LAVAT
 10
0.0
 20
0.0
 30
0.0
 70
   128
 71
  -872
 72
  1126
 73
 -1125
  0
VERTEX
  8
RK-LAVAT
 10
0.0
 20
0.0
 30
0.0
 70
   128
 71
  -871
 72
 -1126
 73
   872
  0
VERTEX
  8
RK-LAVAT
 10
0.0
 20
0.0
 30
0.0
 70
   128
 71
  -871
 72
  1127
 73
 -1126
  0
VERTEX
  8
RK-LAVAT
 10
0.0
 20
0.0
 30
0.0
 70
   128
 71
  -870
 72
 -1127
 73
   871
  0
VERTEX
  8
RK-LAVAT
 10
0.0
 20
0.0
 30
0.0
 70
   128
 71
  -870
 72
  1128
 73
 -1127
  0
VERTEX
  8
RK-LAVAT
 10
0.0
 20
0.0
 30
0.0
 70
   128
 71
  -869
 72
 -1128
 73
   870
  0
VERTEX
  8
RK-LAVAT
 10
0.0
 20
0.0
 30
0.0
 70
   128
 71
  -869
 72
  1129
 73
 -1128
  0
VERTEX
  8
RK-LAVAT
 10
0.0
 20
0.0
 30
0.0
 70
   128
 71
  -868
 72
 -1129
 73
   869
  0
VERTEX
  8
RK-LAVAT
 10
0.0
 20
0.0
 30
0.0
 70
   128
 71
  -868
 72
  1130
 73
 -1129
  0
VERTEX
  8
RK-LAVAT
 10
0.0
 20
0.0
 30
0.0
 70
   128
 71
  -866
 72
 -1130
 73
   868
  0
VERTEX
  8
RK-LAVAT
 10
0.0
 20
0.0
 30
0.0
 70
   128
 71
  -866
 72
  1131
 73
 -1130
  0
VERTEX
  8
RK-LAVAT
 10
0.0
 20
0.0
 30
0.0
 70
   128
 71
  -898
 72
   866
 73
   867
  0
VERTEX
  8
RK-LAVAT
 10
0.0
 20
0.0
 30
0.0
 70
   128
 71
 -1031
 72
   898
 73
  1032
  0
VERTEX
  8
RK-LAVAT
 10
0.0
 20
0.0
 30
0.0
 70
   128
 71
 -1029
 72
  1031
 73
  1030
  0
VERTEX
  8
RK-LAVAT
 10
0.0
 20
0.0
 30
0.0
 70
   128
 71
 -1027
 72
  1029
 73
  1028
  0
VERTEX
  8
RK-LAVAT
 10
0.0
 20
0.0
 30
0.0
 70
   128
 71
 -1026
 72
  1027
 73
  1025
  0
VERTEX
  8
RK-LAVAT
 10
0.0
 20
0.0
 30
0.0
 70
   128
 71
 -1103
 72
  1026
 73
  1053
  0
VERTEX
  8
RK-LAVAT
 10
0.0
 20
0.0
 30
0.0
 70
   128
 71
 -1101
 72
  1103
 73
  1102
  0
VERTEX
  8
RK-LAVAT
 10
0.0
 20
0.0
 30
0.0
 70
   128
 71
 -1099
 72
  1101
 73
  1100
  0
VERTEX
  8
RK-LAVAT
 10
0.0
 20
0.0
 30
0.0
 70
   128
 71
 -1098
 72
  1099
 73
  1097
  0
VERTEX
  8
RK-LAVAT
 10
0.0
 20
0.0
 30
0.0
 70
   128
 71
  -823
 72
  1098
 73
   820
  0
VERTEX
  8
RK-LAVAT
 10
0.0
 20
0.0
 30
0.0
 70
   128
 71
  -952
 72
   823
 73
   953
  0
VERTEX
  8
RK-LAVAT
 10
0.0
 20
0.0
 30
0.0
 70
   128
 71
 -1118
 72
   952
 73
  -951
  0
VERTEX
  8
RK-LAVAT
 10
0.0
 20
0.0
 30
0.0
 70
   128
 71
  -898
 72
 -1131
 73
  -866
  0
VERTEX
  8
RK-LAVAT
 10
0.0
 20
0.0
 30
0.0
 70
   128
 71
  -898
 72
  1132
 73
 -1131
  0
VERTEX
  8
RK-LAVAT
 10
0.0
 20
0.0
 30
0.0
 70
   128
 71
  -898
 72
  1133
 73
 -1132
  0
VERTEX
  8
RK-LAVAT
 10
0.0
 20
0.0
 30
0.0
 70
   128
 71
 -1031
 72
 -1133
 73
  -898
  0
VERTEX
  8
RK-LAVAT
 10
0.0
 20
0.0
 30
0.0
 70
   128
 71
 -1031
 72
  1134
 73
 -1133
  0
VERTEX
  8
RK-LAVAT
 10
0.0
 20
0.0
 30
0.0
 70
   128
 71
 -1031
 72
  1135
 73
 -1134
  0
VERTEX
  8
RK-LAVAT
 10
0.0
 20
0.0
 30
0.0
 70
   128
 71
 -1031
 72
  1136
 73
 -1135
  0
VERTEX
  8
RK-LAVAT
 10
0.0
 20
0.0
 30
0.0
 70
   128
 71
 -1029
 72
 -1136
 73
 -1031
  0
VERTEX
  8
RK-LAVAT
 10
0.0
 20
0.0
 30
0.0
 70
   128
 71
 -1029
 72
  1137
 73
 -1136
  0
VERTEX
  8
RK-LAVAT
 10
0.0
 20
0.0
 30
0.0
 70
   128
 71
 -1029
 72
  1138
 73
 -1137
  0
VERTEX
  8
RK-LAVAT
 10
0.0
 20
0.0
 30
0.0
 70
   128
 71
 -1029
 72
  1139
 73
 -1138
  0
VERTEX
  8
RK-LAVAT
 10
0.0
 20
0.0
 30
0.0
 70
   128
 71
 -1029
 72
  1140
 73
 -1139
  0
VERTEX
  8
RK-LAVAT
 10
0.0
 20
0.0
 30
0.0
 70
   128
 71
 -1027
 72
 -1140
 73
 -1029
  0
VERTEX
  8
RK-LAVAT
 10
0.0
 20
0.0
 30
0.0
 70
   128
 71
 -1027
 72
  1141
 73
 -1140
  0
VERTEX
  8
RK-LAVAT
 10
0.0
 20
0.0
 30
0.0
 70
   128
 71
 -1026
 72
 -1141
 73
 -1027
  0
VERTEX
  8
RK-LAVAT
 10
0.0
 20
0.0
 30
0.0
 70
   128
 71
 -1101
 72
 -1026
 73
 -1103
  0
VERTEX
  8
RK-LAVAT
 10
0.0
 20
0.0
 30
0.0
 70
   128
 71
 -1098
 72
 -1101
 73
 -1099
  0
VERTEX
  8
RK-LAVAT
 10
0.0
 20
0.0
 30
0.0
 70
   128
 71
  -952
 72
 -1098
 73
  -823
  0
VERTEX
  8
RK-LAVAT
 10
0.0
 20
0.0
 30
0.0
 70
   128
 71
 -1142
 72
  -952
 73
  1118
  0
VERTEX
  8
RK-LAVAT
 10
0.0
 20
0.0
 30
0.0
 70
   128
 71
 -1026
 72
  1143
 73
 -1141
  0
VERTEX
  8
RK-LAVAT
 10
0.0
 20
0.0
 30
0.0
 70
   128
 71
 -1026
 72
  1144
 73
 -1143
  0
VERTEX
  8
RK-LAVAT
 10
0.0
 20
0.0
 30
0.0
 70
   128
 71
 -1026
 72
  1145
 73
 -1144
  0
VERTEX
  8
RK-LAVAT
 10
0.0
 20
0.0
 30
0.0
 70
   128
 71
 -1026
 72
  1146
 73
 -1145
  0
VERTEX
  8
RK-LAVAT
 10
0.0
 20
0.0
 30
0.0
 70
   128
 71
 -1026
 72
    91
 73
 -1146
  0
VERTEX
  8
RK-LAVAT
 10
0.0
 20
0.0
 30
0.0
 70
   128
 71
 -1101
 72
   -91
 73
 -1026
  0
VERTEX
  8
RK-LAVAT
 10
0.0
 20
0.0
 30
0.0
 70
   128
 71
 -1101
 72
  1147
 73
   -91
  0
VERTEX
  8
RK-LAVAT
 10
0.0
 20
0.0
 30
0.0
 70
   128
 71
 -1098
 72
 -1147
 73
 -1101
  0
VERTEX
  8
RK-LAVAT
 10
0.0
 20
0.0
 30
0.0
 70
   128
 71
 -1148
 72
  -952
 73
  1142
  0
VERTEX
  8
RK-LAVAT
 10
0.0
 20
0.0
 30
0.0
 70
   128
 71
 -1149
 72
  -952
 73
  1148
  0
VERTEX
  8
RK-LAVAT
 10
0.0
 20
0.0
 30
0.0
 70
   128
 71
 -1098
 72
  1150
 73
 -1147
  0
VERTEX
  8
RK-LAVAT
 10
0.0
 20
0.0
 30
0.0
 70
   128
 71
 -1098
 72
  1151
 73
 -1150
  0
VERTEX
  8
RK-LAVAT
 10
0.0
 20
0.0
 30
0.0
 70
   128
 71
 -1098
 72
  1152
 73
 -1151
  0
VERTEX
  8
RK-LAVAT
 10
0.0
 20
0.0
 30
0.0
 70
   128
 71
 -1149
 72
 -1098
 73
  -952
  0
VERTEX
  8
RK-LAVAT
 10
0.0
 20
0.0
 30
0.0
 70
   128
 71
 -1153
 72
 -1098
 73
  1149
  0
VERTEX
  8
RK-LAVAT
 10
0.0
 20
0.0
 30
0.0
 70
   128
 71
 -1098
 72
  1153
 73
 -1152
  0
VERTEX
  8
RK-LAVAT
 10
0.0
 20
0.0
 30
0.0
 70
   128
 71
   876
 72
  -877
 73
   875
  0
VERTEX
  8
RK-LAVAT
 10
0.0
 20
0.0
 30
0.0
 70
   128
 71
   873
 72
  -875
 73
  1042
  0
VERTEX
  8
RK-LAVAT
 10
0.0
 20
0.0
 30
0.0
 70
   128
 71
  1041
 72
 -1042
 73
  1040
  0
VERTEX
  8
RK-LAVAT
 10
0.0
 20
0.0
 30
0.0
 70
   128
 71
  1039
 72
 -1040
 73
  1038
  0
VERTEX
  8
RK-LAVAT
 10
0.0
 20
0.0
 30
0.0
 70
   128
 71
  1037
 72
 -1038
 73
  1036
  0
VERTEX
  8
RK-LAVAT
 10
0.0
 20
0.0
 30
0.0
 70
   128
 71
  1034
 72
 -1036
 73
  1035
  0
VERTEX
  8
RK-LAVAT
 10
0.0
 20
0.0
 30
0.0
 70
   128
 71
  1110
 72
 -1035
 73
  1109
  0
VERTEX
  8
RK-LAVAT
 10
0.0
 20
0.0
 30
0.0
 70
   128
 71
  1108
 72
 -1109
 73
  1107
  0
VERTEX
  8
RK-LAVAT
 10
0.0
 20
0.0
 30
0.0
 70
   128
 71
  1106
 72
 -1107
 73
  1105
  0
VERTEX
  8
RK-LAVAT
 10
0.0
 20
0.0
 30
0.0
 70
   128
 71
  1104
 72
 -1105
 73
   962
  0
VERTEX
  8
RK-LAVAT
 10
0.0
 20
0.0
 30
0.0
 70
   128
 71
   961
 72
  -962
 73
   960
  0
VERTEX
  8
RK-LAVAT
 10
0.0
 20
0.0
 30
0.0
 70
   128
 71
   959
 72
  -960
 73
   958
  0
VERTEX
  8
RK-LAVAT
 10
0.0
 20
0.0
 30
0.0
 70
   128
 71
 -1036
 72
 -1038
 73
 -1035
  0
VERTEX
  8
RK-LAVAT
 10
0.0
 20
0.0
 30
0.0
 70
   128
 71
 -1109
 72
 -1035
 73
 -1107
  0
VERTEX
  8
RK-LAVAT
 10
0.0
 20
0.0
 30
0.0
 70
   128
 71
 -1105
 72
 -1107
 73
  -962
  0
VERTEX
  8
RK-LAVAT
 10
0.0
 20
0.0
 30
0.0
 70
   128
 71
 -1107
 72
 -1035
 73
  -962
  0
SEQEND
  8
RK-LAVAT
  0
INSERT
  8
0
  2
STRAINS
 10
9.629677759109924
 20
-6.045750228946429
 30
0.0262500000000001
 41
0.7
 42
0.7
 43
0.7
  0
INSERT
  8
0
  2
02904PLN
 10
0.0091586425641221
 20
-16.17075022894643
 30
6.02625
  0
ENDSEC
  0
EOF
