  0
SECTION
  2
HEADER
  9
$ACADVER
  1
AC1009
  9
$INSBASE
 10
0.0
 20
0.0
 30
0.0
  9
$EXTMIN
 10
-10.264276
 20
-8.937289
 30
0.0
  9
$EXTMAX
 10
10.094276
 20
8.867314
 30
0.0
  9
$LIMMIN
 10
0.0
 20
0.0
  9
$LIMMAX
 10
12.0
 20
9.0
  9
$ORTHOMODE
 70
     1
  9
$REGENMODE
 70
     1
  9
$FILLMODE
 70
     0
  9
$QTEXTMODE
 70
     0
  9
$MIRRTEXT
 70
     1
  9
$DRAGMODE
 70
     2
  9
$LTSCALE
 40
1.0
  9
$OSMODE
 70
     0
  9
$ATTMODE
 70
     1
  9
$TEXTSIZE
 40
0.001
  9
$TRACEWID
 40
0.05
  9
$TEXTSTYLE
  7
STANDARD
  9
$CLAYER
  8
0
  9
$CELTYPE
  6
BYLAYER
  9
$CECOLOR
 62
   256
  9
$DIMSCALE
 40
1.0
  9
$DIMASZ
 40
0.18
  9
$DIMEXO
 40
0.0625
  9
$DIMDLI
 40
0.38
  9
$DIMRND
 40
0.0
  9
$DIMDLE
 40
0.0
  9
$DIMEXE
 40
0.18
  9
$DIMTP
 40
0.0
  9
$DIMTM
 40
0.0
  9
$DIMTXT
 40
0.18
  9
$DIMCEN
 40
0.09
  9
$DIMTSZ
 40
0.0
  9
$DIMTOL
 70
     0
  9
$DIMLIM
 70
     0
  9
$DIMTIH
 70
     1
  9
$DIMTOH
 70
     1
  9
$DIMSE1
 70
     0
  9
$DIMSE2
 70
     0
  9
$DIMTAD
 70
     0
  9
$DIMZIN
 70
     0
  9
$DIMBLK
  1

  9
$DIMASO
 70
     1
  9
$DIMSHO
 70
     1
  9
$DIMPOST
  1

  9
$DIMAPOST
  1

  9
$DIMALT
 70
     0
  9
$DIMALTD
 70
     2
  9
$DIMALTF
 40
25.4
  9
$DIMLFAC
 40
1.0
  9
$DIMTOFL
 70
     0
  9
$DIMTVP
 40
0.0
  9
$DIMTIX
 70
     0
  9
$DIMSOXD
 70
     0
  9
$DIMSAH
 70
     0
  9
$DIMBLK1
  1

  9
$DIMBLK2
  1

  9
$DIMSTYLE
  2
*UNNAMED
  9
$DIMCLRD
 70
     0
  9
$DIMCLRE
 70
     0
  9
$DIMCLRT
 70
     0
  9
$DIMTFAC
 40
1.0
  9
$DIMGAP
 40
0.09
  9
$LUNITS
 70
     2
  9
$LUPREC
 70
     4
  9
$SKETCHINC
 40
0.1
  9
$FILLETRAD
 40
0.0
  9
$AUNITS
 70
     0
  9
$AUPREC
 70
     0
  9
$MENU
  1
acad
  9
$ELEVATION
 40
0.0
  9
$PELEVATION
 40
0.0
  9
$THICKNESS
 40
0.0
  9
$LIMCHECK
 70
     0
  9
$BLIPMODE
 70
     0
  9
$CHAMFERA
 40
0.0
  9
$CHAMFERB
 40
0.0
  9
$SKPOLY
 70
     0
  9
$TDCREATE
 40
2450912.590607291
  9
$TDUPDATE
 40
2450912.590768171
  9
$TDINDWG
 40
0.0000350694
  9
$TDUSRTIMER
 40
0.0000350694
  9
$USRTIMER
 70
     1
  9
$ANGBASE
 50
0.0
  9
$ANGDIR
 70
     0
  9
$PDMODE
 70
     0
  9
$PDSIZE
 40
0.0
  9
$PLINEWID
 40
0.0
  9
$COORDS
 70
     1
  9
$SPLFRAME
 70
     0
  9
$SPLINETYPE
 70
     6
  9
$SPLINESEGS
 70
     8
  9
$ATTDIA
 70
     0
  9
$ATTREQ
 70
     1
  9
$HANDLING
 70
     0
  9
$HANDSEED
  5
0
  9
$SURFTAB1
 70
     6
  9
$SURFTAB2
 70
     6
  9
$SURFTYPE
 70
     6
  9
$SURFU
 70
     6
  9
$SURFV
 70
     6
  9
$UCSNAME
  2

  9
$UCSORG
 10
0.0
 20
0.0
 30
0.0
  9
$UCSXDIR
 10
1.0
 20
0.0
 30
0.0
  9
$UCSYDIR
 10
0.0
 20
1.0
 30
0.0
  9
$PUCSNAME
  2

  9
$PUCSORG
 10
0.0
 20
0.0
 30
0.0
  9
$PUCSXDIR
 10
1.0
 20
0.0
 30
0.0
  9
$PUCSYDIR
 10
0.0
 20
1.0
 30
0.0
  9
$USERI1
 70
     0
  9
$USERI2
 70
     0
  9
$USERI3
 70
     0
  9
$USERI4
 70
     0
  9
$USERI5
 70
     0
  9
$USERR1
 40
0.0
  9
$USERR2
 40
0.0
  9
$USERR3
 40
0.0
  9
$USERR4
 40
0.0
  9
$USERR5
 40
0.0
  9
$WORLDVIEW
 70
     1
  9
$SHADEDGE
 70
     3
  9
$SHADEDIF
 70
    70
  9
$TILEMODE
 70
     1
  9
$MAXACTVP
 70
    16
  9
$PINSBASE
 10
0.0
 20
0.0
 30
0.0
  9
$PLIMCHECK
 70
     0
  9
$PEXTMIN
 10
1.000000E+20
 20
1.000000E+20
 30
1.000000E+20
  9
$PEXTMAX
 10
-1.000000E+20
 20
-1.000000E+20
 30
-1.000000E+20
  9
$PLIMMIN
 10
0.0
 20
0.0
  9
$PLIMMAX
 10
12.0
 20
9.0
  9
$UNITMODE
 70
     0
  9
$VISRETAIN
 70
     0
  9
$PLINEGEN
 70
     0
  9
$PSLTSCALE
 70
     1
  9
$TREEDEPTH
 70
  3020
  9
$DWGCODEPAGE
  3
iso8859-1
  0
ENDSEC
  0
SECTION
  2
TABLES
  0
TABLE
  2
VPORT
 70
     2
  0
VPORT
  2
*ACTIVE
 70
     0
 10
0.0
 20
0.0
 11
1.0
 21
1.0
 12
3.174022
 22
0.000387
 13
0.0
 23
0.0
 14
1.0
 24
1.0
 15
0.0
 25
0.0
 16
0.0
 26
0.0
 36
1.0
 17
0.0
 27
0.0
 37
0.0
 40
18.074974
 41
1.573846
 42
50.0
 43
0.0
 44
0.0
 50
0.0
 51
0.0
 71
     0
 72
 10000
 73
     1
 74
     1
 75
     0
 76
     0
 77
     0
 78
     1
  0
ENDTAB
  0
TABLE
  2
LTYPE
 70
     1
  0
LTYPE
  2
CONTINUOUS
 70
    64
  3
Solid line
 72
    65
 73
     0
 40
0.0
  0
ENDTAB
  0
TABLE
  2
LAYER
 70
     1
  0
LAYER
  2
0
 70
    64
 62
     7
  6
CONTINUOUS
  0
ENDTAB
  0
TABLE
  2
STYLE
 70
     1
  0
STYLE
  2
STANDARD
 70
    64
 40
0.0
 41
1.0
 50
0.0
 71
     0
 42
0.001
  3
txt
  4

  0
ENDTAB
  0
TABLE
  2
VIEW
 70
     0
  0
ENDTAB
  0
TABLE
  2
UCS
 70
     0
  0
ENDTAB
  0
TABLE
  2
APPID
 70
     1
  0
APPID
  2
ACAD
 70
    64
  0
ENDTAB
  0
TABLE
  2
DIMSTYLE
 70
     0
  0
ENDTAB
  0
ENDSEC
  0
SECTION
  2
BLOCKS
  0
ENDSEC
  0
SECTION
  2
ENTITIES
  0
ARC
  8
0
 10
-0.129765
 20
2.754046
 30
0.0
 40
10.887489
 50
224.048799
 51
270.235579
  0
ARC
  8
0
 10
-0.040235
 20
2.754046
 30
0.0
 40
10.887489
 50
269.764421
 51
315.951201
  0
CIRCLE
  8
0
 10
-0.079989
 20
1.984615
 30
0.0
 40
0.84375
  0
ARC
  8
0
 10
-0.38251
 20
-2.352715
 30
0.0
 40
10.486841
 50
89.303323
 51
134.062478
  0
ARC
  8
0
 10
-0.390526
 20
4.575471
 30
0.0
 40
11.119148
 50
247.756199
 51
271.574541
  0
ARC
  8
0
 10
-0.543195
 20
-5.702524
 30
0.0
 40
9.926322
 50
87.354308
 51
127.515478
  0
ARC
  8
0
 10
-2.99312
 20
0.344759
 30
0.0
 40
6.732956
 50
134.062478
 51
174.492512
  0
ARC
  8
0
 10
-3.886481
 20
-1.347905
 30
0.0
 40
4.436307
 50
127.515478
 51
168.566183
  0
ARC
  8
0
 10
-4.525888
 20
-1.218585
 30
0.0
 40
3.783954
 50
168.566183
 51
216.125398
  0
ARC
  8
0
 10
-1.706198
 20
0.220673
 30
0.0
 40
8.025847
 50
174.492512
 51
218.867398
  0
ARC
  8
0
 10
-2.298804
 20
0.406945
 30
0.0
 40
6.541172
 50
216.125398
 51
249.4056
  0
LINE
  8
0
 10
-4.525036
 20
5.21186
 30
0.0
 11
-4.525036
 21
5.21186
 31
0.0
  0
ARC
  8
0
 10
2.82312
 20
0.344759
 30
0.0
 40
6.732956
 50
5.507488
 51
45.937522
  0
ARC
  8
0
 10
0.373195
 20
-5.702524
 30
0.0
 40
9.926322
 50
52.484522
 51
92.645692
  0
ARC
  8
0
 10
3.716481
 20
-1.347905
 30
0.0
 40
4.436307
 50
11.433817
 51
52.484522
  0
ARC
  8
0
 10
2.128804
 20
0.406945
 30
0.0
 40
6.541172
 50
290.5944
 51
323.874602
  0
ARC
  8
0
 10
0.220526
 20
4.575471
 30
0.0
 40
11.119148
 50
268.425459
 51
292.243801
  0
ARC
  8
0
 10
1.536198
 20
0.220673
 30
0.0
 40
8.025847
 50
321.132602
 51
5.507488
  0
ARC
  8
0
 10
4.355888
 20
-1.218585
 30
0.0
 40
3.783954
 50
323.874602
 51
11.433817
  0
ARC
  8
0
 10
0.21251
 20
-2.352715
 30
0.0
 40
10.486841
 50
45.937522
 51
90.696677
  0
LINE
  8
0
 10
-0.083035
 20
6.050256
 30
0.0
 11
-0.083035
 21
6.050256
 31
0.0
  0
LINE
  8
0
 10
4.296828
 20
5.21186
 30
0.0
 11
4.296828
 21
5.21186
 31
0.0
  0
LINE
  8
0
 10
-0.255
 20
8.133351
 30
0.0
 11
0.085
 21
8.133351
 31
0.0
  0
ATTDEF
  8
0
 10
0.0
 20
0.0
 30
0.0
 40
0.001
  1
K-2905-8
  3

  2
MODELNUMBER
 70
     8
  0
ATTDEF
  8
0
 10
0.0
 20
-0.001667
 30
0.0
 40
0.001
  1
FARMINGTON
  3

  2
TRADENAME
 70
     8
  0
ATTDEF
  8
0
 10
0.0
 20
-0.003333
 30
0.0
 40
0.001
  1
LAVATORY
  3

  2
PRODUCT
 70
     8
  0
ATTDEF
  8
0
 10
0.0
 20
-0.005
 30
0.0
 40
0.001
  1
CAST IRON
  3

  2
MATERIAL
 70
     8
  0
ENDSEC
  0
EOF
