  0
SECTION
  2
HEADER
  9
$ACADVER
  1
AC1009
  9
$INSBASE
 10
0.0
 20
0.0
 30
0.0
  9
$EXTMIN
 10
-8.236371
 20
-8.253452
 30
0.0
  9
$EXTMAX
 10
8.236371
 20
0.647484
 30
0.0
  9
$LIMMIN
 10
0.0
 20
0.0
  9
$LIMMAX
 10
12.0
 20
9.0
  9
$ORTHOMODE
 70
     1
  9
$REGENMODE
 70
     1
  9
$FILLMODE
 70
     0
  9
$QTEXTMODE
 70
     0
  9
$MIRRTEXT
 70
     1
  9
$DRAGMODE
 70
     2
  9
$LTSCALE
 40
1.0
  9
$OSMODE
 70
     0
  9
$ATTMODE
 70
     1
  9
$TEXTSIZE
 40
0.001
  9
$TRACEWID
 40
0.05
  9
$TEXTSTYLE
  7
STANDARD
  9
$CLAYER
  8
0
  9
$CELTYPE
  6
BYLAYER
  9
$CECOLOR
 62
   256
  9
$DIMSCALE
 40
1.0
  9
$DIMASZ
 40
0.18
  9
$DIMEXO
 40
0.0625
  9
$DIMDLI
 40
0.38
  9
$DIMRND
 40
0.0
  9
$DIMDLE
 40
0.0
  9
$DIMEXE
 40
0.18
  9
$DIMTP
 40
0.0
  9
$DIMTM
 40
0.0
  9
$DIMTXT
 40
0.18
  9
$DIMCEN
 40
0.09
  9
$DIMTSZ
 40
0.0
  9
$DIMTOL
 70
     0
  9
$DIMLIM
 70
     0
  9
$DIMTIH
 70
     1
  9
$DIMTOH
 70
     1
  9
$DIMSE1
 70
     0
  9
$DIMSE2
 70
     0
  9
$DIMTAD
 70
     0
  9
$DIMZIN
 70
     0
  9
$DIMBLK
  1

  9
$DIMASO
 70
     1
  9
$DIMSHO
 70
     1
  9
$DIMPOST
  1

  9
$DIMAPOST
  1

  9
$DIMALT
 70
     0
  9
$DIMALTD
 70
     2
  9
$DIMALTF
 40
25.4
  9
$DIMLFAC
 40
1.0
  9
$DIMTOFL
 70
     0
  9
$DIMTVP
 40
0.0
  9
$DIMTIX
 70
     0
  9
$DIMSOXD
 70
     0
  9
$DIMSAH
 70
     0
  9
$DIMBLK1
  1

  9
$DIMBLK2
  1

  9
$DIMSTYLE
  2
*UNNAMED
  9
$DIMCLRD
 70
     0
  9
$DIMCLRE
 70
     0
  9
$DIMCLRT
 70
     0
  9
$DIMTFAC
 40
1.0
  9
$DIMGAP
 40
0.09
  9
$LUNITS
 70
     2
  9
$LUPREC
 70
     4
  9
$SKETCHINC
 40
0.1
  9
$FILLETRAD
 40
0.0
  9
$AUNITS
 70
     0
  9
$AUPREC
 70
     0
  9
$MENU
  1
acad
  9
$ELEVATION
 40
0.0
  9
$PELEVATION
 40
0.0
  9
$THICKNESS
 40
0.0
  9
$LIMCHECK
 70
     0
  9
$BLIPMODE
 70
     0
  9
$CHAMFERA
 40
0.0
  9
$CHAMFERB
 40
0.0
  9
$SKPOLY
 70
     0
  9
$TDCREATE
 40
2450912.589614930
  9
$TDUPDATE
 40
2450912.590832291
  9
$TDINDWG
 40
0.0000324074
  9
$TDUSRTIMER
 40
0.0000324074
  9
$USRTIMER
 70
     1
  9
$ANGBASE
 50
0.0
  9
$ANGDIR
 70
     0
  9
$PDMODE
 70
     0
  9
$PDSIZE
 40
0.0
  9
$PLINEWID
 40
0.0
  9
$COORDS
 70
     1
  9
$SPLFRAME
 70
     0
  9
$SPLINETYPE
 70
     6
  9
$SPLINESEGS
 70
     8
  9
$ATTDIA
 70
     0
  9
$ATTREQ
 70
     1
  9
$HANDLING
 70
     0
  9
$HANDSEED
  5
0
  9
$SURFTAB1
 70
     6
  9
$SURFTAB2
 70
     6
  9
$SURFTYPE
 70
     6
  9
$SURFU
 70
     6
  9
$SURFV
 70
     6
  9
$UCSNAME
  2

  9
$UCSORG
 10
0.0
 20
0.0
 30
0.0
  9
$UCSXDIR
 10
1.0
 20
0.0
 30
0.0
  9
$UCSYDIR
 10
0.0
 20
1.0
 30
0.0
  9
$PUCSNAME
  2

  9
$PUCSORG
 10
0.0
 20
0.0
 30
0.0
  9
$PUCSXDIR
 10
1.0
 20
0.0
 30
0.0
  9
$PUCSYDIR
 10
0.0
 20
1.0
 30
0.0
  9
$USERI1
 70
     0
  9
$USERI2
 70
     0
  9
$USERI3
 70
     0
  9
$USERI4
 70
     0
  9
$USERI5
 70
     0
  9
$USERR1
 40
0.0
  9
$USERR2
 40
0.0
  9
$USERR3
 40
0.0
  9
$USERR4
 40
0.0
  9
$USERR5
 40
0.0
  9
$WORLDVIEW
 70
     1
  9
$SHADEDGE
 70
     3
  9
$SHADEDIF
 70
    70
  9
$TILEMODE
 70
     1
  9
$MAXACTVP
 70
    16
  9
$PINSBASE
 10
0.0
 20
0.0
 30
0.0
  9
$PLIMCHECK
 70
     0
  9
$PEXTMIN
 10
1.000000E+20
 20
1.000000E+20
 30
1.000000E+20
  9
$PEXTMAX
 10
-1.000000E+20
 20
-1.000000E+20
 30
-1.000000E+20
  9
$PLIMMIN
 10
0.0
 20
0.0
  9
$PLIMMAX
 10
12.0
 20
9.0
  9
$UNITMODE
 70
     0
  9
$VISRETAIN
 70
     0
  9
$PLINEGEN
 70
     0
  9
$PSLTSCALE
 70
     1
  9
$TREEDEPTH
 70
  3020
  9
$DWGCODEPAGE
  3
iso8859-1
  0
ENDSEC
  0
SECTION
  2
TABLES
  0
TABLE
  2
VPORT
 70
     2
  0
VPORT
  2
*ACTIVE
 70
     0
 10
0.0
 20
0.0
 11
1.0
 21
1.0
 12
0.71797
 22
-2.668207
 13
0.0
 23
0.0
 14
1.0
 24
1.0
 15
0.0
 25
0.0
 16
0.0
 26
0.0
 36
1.0
 17
0.0
 27
0.0
 37
0.0
 40
12.384626
 41
1.573846
 42
50.0
 43
0.0
 44
0.0
 50
0.0
 51
0.0
 71
     0
 72
 10000
 73
     1
 74
     1
 75
     0
 76
     0
 77
     0
 78
     1
  0
ENDTAB
  0
TABLE
  2
LTYPE
 70
     2
  0
LTYPE
  2
CONTINUOUS
 70
    64
  3
Solid line
 72
    65
 73
     0
 40
0.0
  0
LTYPE
  2
HIDDEN
 70
    64
  3
__ __ __ __ __ __ __ __ __ __ __ __ __ __ __ __
 72
    65
 73
     2
 40
0.375
 49
0.25
 49
-0.125
  0
ENDTAB
  0
TABLE
  2
LAYER
 70
     1
  0
LAYER
  2
0
 70
    64
 62
     7
  6
CONTINUOUS
  0
ENDTAB
  0
TABLE
  2
STYLE
 70
     1
  0
STYLE
  2
STANDARD
 70
    64
 40
0.0
 41
1.0
 50
0.0
 71
     0
 42
0.001
  3
txt
  4

  0
ENDTAB
  0
TABLE
  2
VIEW
 70
     0
  0
ENDTAB
  0
TABLE
  2
UCS
 70
     0
  0
ENDTAB
  0
TABLE
  2
APPID
 70
     1
  0
APPID
  2
ACAD
 70
    64
  0
ENDTAB
  0
TABLE
  2
DIMSTYLE
 70
     0
  0
ENDTAB
  0
ENDSEC
  0
SECTION
  2
BLOCKS
  0
ENDSEC
  0
SECTION
  2
ENTITIES
  0
ARC
  8
0
  6
HIDDEN
 10
2.484626
 20
-5.457903
 30
0.0
 40
1.39101
 50
271.011137
 51
296.074852
  0
ARC
  8
0
  6
HIDDEN
 10
3.43021
 20
-7.268263
 30
0.0
 40
0.651383
 50
105.061252
 51
175.51744
  0
LINE
  8
0
 10
7.598076
 20
0.533245
 30
0.0
 11
-7.578022
 21
0.533245
 31
0.0
  0
LINE
  8
0
 10
8.125
 20
0.0
 30
0.0
 11
-8.125
 21
0.0
 31
0.0
  0
LINE
  8
0
  6
HIDDEN
 10
-6.724608
 20
0.0
 30
0.0
 11
-6.411995
 21
-3.550448
 31
0.0
  0
LINE
  8
0
  6
HIDDEN
 10
-7.342905
 20
-3.322871
 30
0.0
 11
-7.518661
 21
0.0
 31
0.0
  0
ARC
  8
0
  6
HIDDEN
 10
-1.396771
 20
-0.01428
 30
0.0
 40
7.278896
 50
223.009342
 51
255.753653
  0
ARC
  8
0
  6
HIDDEN
 10
2.503093
 20
15.345574
 30
0.0
 40
23.126105
 50
255.753653
 51
262.834604
  0
LINE
  8
0
  6
HIDDEN
 10
2.78082
 20
-7.217354
 30
0.0
 11
2.699778
 21
-8.241288
 31
0.0
  0
ARC
  8
0
  6
HIDDEN
 10
-0.629046
 20
-8.899238
 30
0.0
 40
1.322684
 50
32.46685
 51
79.214107
  0
LINE
  8
0
  6
HIDDEN
 10
2.699778
 20
-8.241288
 30
0.0
 11
0.581774
 21
-8.241288
 31
0.0
  0
ARC
  8
0
  6
HIDDEN
 10
0.581774
 20
-8.128845
 30
0.0
 40
0.112443
 50
212.46685
 51
270.0
  0
ARC
  8
0
  6
HIDDEN
 10
2.15919
 20
12.980929
 30
0.0
 40
19.832714
 50
255.158604
 51
271.011137
  0
ARC
  8
0
  6
HIDDEN
 10
-1.284284
 20
0.167873
 30
0.0
 40
6.565259
 50
223.366862
 51
255.565326
  0
ARC
  8
0
  6
HIDDEN
 10
-4.788523
 20
-3.306979
 30
0.0
 40
2.554431
 50
180.356453
 51
220.89624
  0
ARC
  8
0
  6
HIDDEN
 10
-5.098407
 20
-3.434788
 30
0.0
 40
1.31867
 50
185.031868
 51
223.366862
  0
ARC
  8
0
 10
-7.588049
 20
-0.003625
 30
0.0
 40
0.536963
 50
88.930015
 51
179.613239
  0
LINE
  8
0
  6
HIDDEN
 10
4.750862
 20
0.0
 30
0.0
 11
4.356162
 21
-5.325463
 31
0.0
  0
ARC
  8
0
  6
HIDDEN
 10
2.87469
 20
-5.203864
 30
0.0
 40
1.486454
 50
285.061252
 51
355.307706
  0
ARC
  8
0
 10
7.588049
 20
-0.003625
 30
0.0
 40
0.536963
 50
0.386761
 51
91.069985
  0
ATTDEF
  8
0
 10
0.0
 20
0.0
 30
0.0
 40
0.001
  1
K-2905-8
  3

  2
MODELNUMBER
 70
     8
  0
ATTDEF
  8
0
 10
0.0
 20
-0.001667
 30
0.0
 40
0.001
  1
FARMINGTON
  3

  2
TRADENAME
 70
     8
  0
ATTDEF
  8
0
 10
0.0
 20
-0.003333
 30
0.0
 40
0.001
  1
LAVATORY
  3

  2
PRODUCT
 70
     8
  0
ATTDEF
  8
0
 10
0.0
 20
-0.005
 30
0.0
 40
0.001
  1
CAST IRON
  3

  2
MATERIAL
 70
     8
  0
ENDSEC
  0
EOF
