  0
SECTION
  2
HEADER
  9
$ACADVER
  1
AC1009
  9
$INSBASE
 10
0.0
 20
0.0
 30
0.0
  9
$EXTMIN
 10
-6.9835521593917056
 20
-0.1960927630238984
 30
-0.0036670490976485
  9
$EXTMAX
 10
6.9761667144359762
 20
9.3547105147492857
 30
0.0002088828421732
  9
$LIMMIN
 10
0.0
 20
0.0
  9
$LIMMAX
 10
420.0
 20
297.0
  9
$ORTHOMODE
 70
     1
  9
$REGENMODE
 70
     1
  9
$FILLMODE
 70
     1
  9
$QTEXTMODE
 70
     0
  9
$MIRRTEXT
 70
     1
  9
$DRAGMODE
 70
     2
  9
$LTSCALE
 40
1.0
  9
$OSMODE
 70
    37
  9
$ATTMODE
 70
     1
  9
$TEXTSIZE
 40
0.001
  9
$TRACEWID
 40
1.0
  9
$TEXTSTYLE
  7
STANDARD
  9
$CLAYER
  8
0
  9
$CELTYPE
  6
BYLAYER
  9
$CECOLOR
 62
   256
  9
$DIMSCALE
 40
1.0
  9
$DIMASZ
 40
2.5
  9
$DIMEXO
 40
0.625
  9
$DIMDLI
 40
3.75
  9
$DIMRND
 40
0.0
  9
$DIMDLE
 40
0.0
  9
$DIMEXE
 40
1.25
  9
$DIMTP
 40
0.0
  9
$DIMTM
 40
0.0
  9
$DIMTXT
 40
2.5
  9
$DIMCEN
 40
2.5
  9
$DIMTSZ
 40
0.0
  9
$DIMTOL
 70
     0
  9
$DIMLIM
 70
     0
  9
$DIMTIH
 70
     0
  9
$DIMTOH
 70
     0
  9
$DIMSE1
 70
     0
  9
$DIMSE2
 70
     0
  9
$DIMTAD
 70
     1
  9
$DIMZIN
 70
     8
  9
$DIMBLK
  1

  9
$DIMASO
 70
     1
  9
$DIMSHO
 70
     1
  9
$DIMPOST
  1

  9
$DIMAPOST
  1

  9
$DIMALT
 70
     0
  9
$DIMALTD
 70
     3
  9
$DIMALTF
 40
0.03937007874016
  9
$DIMLFAC
 40
1.0
  9
$DIMTOFL
 70
     1
  9
$DIMTVP
 40
0.0
  9
$DIMTIX
 70
     0
  9
$DIMSOXD
 70
     0
  9
$DIMSAH
 70
     0
  9
$DIMBLK1
  1

  9
$DIMBLK2
  1

  9
$DIMSTYLE
  2
ISO-25
  9
$DIMCLRD
 70
     0
  9
$DIMCLRE
 70
     0
  9
$DIMCLRT
 70
     0
  9
$DIMTFAC
 40
1.0
  9
$DIMGAP
 40
0.625
  9
$LUNITS
 70
     2
  9
$LUPREC
 70
     4
  9
$SKETCHINC
 40
1.0
  9
$FILLETRAD
 40
0.0
  9
$AUNITS
 70
     0
  9
$AUPREC
 70
     0
  9
$MENU
  1
.
  9
$ELEVATION
 40
0.0
  9
$PELEVATION
 40
0.0
  9
$THICKNESS
 40
0.0
  9
$LIMCHECK
 70
     0
  9
$BLIPMODE
 70
     0
  9
$CHAMFERA
 40
10.0
  9
$CHAMFERB
 40
10.0
  9
$SKPOLY
 70
     0
  9
$TDCREATE
 40
2453378.22126956
  9
$TDUPDATE
 40
2453411.4865261461
  9
$TDINDWG
 40
0.3216280208
  9
$TDUSRTIMER
 40
0.3216145255
  9
$USRTIMER
 70
     1
  9
$ANGBASE
 50
0.0
  9
$ANGDIR
 70
     0
  9
$PDMODE
 70
     0
  9
$PDSIZE
 40
0.0
  9
$PLINEWID
 40
0.0
  9
$COORDS
 70
     1
  9
$SPLFRAME
 70
     0
  9
$SPLINETYPE
 70
     6
  9
$SPLINESEGS
 70
     8
  9
$ATTDIA
 70
     0
  9
$ATTREQ
 70
     1
  9
$HANDLING
 70
     1
  9
$HANDSEED
  5
3E8E4
  9
$SURFTAB1
 70
     6
  9
$SURFTAB2
 70
     6
  9
$SURFTYPE
 70
     6
  9
$SURFU
 70
     6
  9
$SURFV
 70
     6
  9
$UCSNAME
  2

  9
$UCSORG
 10
0.0
 20
0.0
 30
0.0
  9
$UCSXDIR
 10
1.0
 20
0.0
 30
0.0
  9
$UCSYDIR
 10
0.0
 20
1.0
 30
0.0
  9
$PUCSNAME
  2

  9
$PUCSORG
 10
0.0
 20
0.0
 30
0.0
  9
$PUCSXDIR
 10
1.0
 20
0.0
 30
0.0
  9
$PUCSYDIR
 10
0.0
 20
1.0
 30
0.0
  9
$USERI1
 70
     0
  9
$USERI2
 70
     0
  9
$USERI3
 70
     0
  9
$USERI4
 70
     0
  9
$USERI5
 70
     0
  9
$USERR1
 40
0.0
  9
$USERR2
 40
0.0
  9
$USERR3
 40
0.0
  9
$USERR4
 40
0.0
  9
$USERR5
 40
0.0
  9
$WORLDVIEW
 70
     1
  9
$SHADEDGE
 70
     3
  9
$SHADEDIF
 70
    70
  9
$TILEMODE
 70
     1
  9
$MAXACTVP
 70
    64
  9
$PLIMCHECK
 70
     0
  9
$PEXTMIN
 10
1.0000000000000000E+020
 20
1.0000000000000000E+020
 30
1.0000000000000000E+020
  9
$PEXTMAX
 10
-1.0000000000000000E+020
 20
-1.0000000000000000E+020
 30
-1.0000000000000000E+020
  9
$PLIMMIN
 10
0.0
 20
0.0
  9
$PLIMMAX
 10
420.0
 20
297.0
  9
$UNITMODE
 70
     0
  9
$VISRETAIN
 70
     1
  9
$PLINEGEN
 70
     0
  9
$PSLTSCALE
 70
     1
  0
ENDSEC
  0
SECTION
  2
TABLES
  0
TABLE
  2
VPORT
 70
     2
  0
VPORT
  2
*ACTIVE
 70
     0
 10
0.0
 20
0.0
 11
1.0
 21
1.0
 12
0.8198938211305613
 22
5.1550963000285597
 13
0.0
 23
0.0
 14
10.0
 24
10.0
 15
10.0
 25
10.0
 16
0.0
 26
0.0
 36
1.0
 17
0.0
 27
0.0
 37
0.0
 40
11.23106588186385
 41
1.9608247422680409
 42
50.0
 43
0.0
 44
0.0
 50
0.0
 51
0.0
 71
     0
 72
  1000
 73
     1
 74
     3
 75
     0
 76
     0
 77
     0
 78
     0
  0
ENDTAB
  0
TABLE
  2
LTYPE
 70
     1
  0
LTYPE
  2
CONTINUOUS
 70
     0
  3
Solid line
 72
    65
 73
     0
 40
0.0
  0
ENDTAB
  0
TABLE
  2
LAYER
 70
     3
  0
LAYER
  2
0
 70
     0
 62
     7
  6
CONTINUOUS
  0
LAYER
  2
ASHADE
 70
     0
 62
     7
  6
CONTINUOUS
  0
LAYER
  2
DEFPOINTS
 70
     0
 62
     7
  6
CONTINUOUS
  0
ENDTAB
  0
TABLE
  2
STYLE
 70
     2
  0
STYLE
  2
STANDARD
 70
     0
 40
0.0
 41
1.0
 50
0.0
 71
     0
 42
0.001
  3
txt
  4

  0
STYLE
  2
ASHADE
 70
     0
 40
0.2
 41
1.0
 50
0.0
 71
     0
 42
2.5
  3
simplex.shx
  4

  0
ENDTAB
  0
TABLE
  2
VIEW
 70
     0
  0
ENDTAB
  0
TABLE
  2
UCS
 70
     0
  0
ENDTAB
  0
TABLE
  2
APPID
 70
     6
  0
APPID
  2
ACAD
 70
     0
  0
APPID
  2
AVE_RENDER
 70
     0
  0
APPID
  2
AVE_ENTITY_MATERIAL
 70
     0
  0
APPID
  2
AVE_FINISH
 70
     0
  0
APPID
  2
AVE_MATERIAL
 70
     0
  0
APPID
  2
AVE_GLOBAL
 70
     0
  0
ENDTAB
  0
TABLE
  2
DIMSTYLE
 70
     2
  0
DIMSTYLE
  2
ISO-25
 70
     0
  3

  4

  5

  6

  7

 40
1.0
 41
2.5
 42
0.625
 43
3.75
 44
1.25
 45
0.0
 46
0.0
 47
0.0
 48
0.0
140
2.5
141
2.5
142
0.0
143
0.03937007874016
144
1.0
145
0.0
146
1.0
147
0.625
 71
     0
 72
     0
 73
     0
 74
     0
 75
     0
 76
     0
 77
     1
 78
     8
170
     0
171
     3
172
     1
173
     0
174
     0
175
     0
176
     0
177
     0
178
     0
  0
DIMSTYLE
  2
STANDARD
 70
     0
  3

  4

  5

  6

  7

 40
1.0
 41
0.18
 42
0.0625
 43
0.38
 44
0.18
 45
0.0
 46
0.0
 47
0.0
 48
0.0
140
0.18
141
0.09
142
0.0
143
25.399999999999999
144
1.0
145
0.0
146
1.0
147
0.09
 71
     0
 72
     0
 73
     1
 74
     1
 75
     0
 76
     0
 77
     0
 78
     0
170
     0
171
     2
172
     0
173
     0
174
     0
175
     0
176
     0
177
     0
178
     0
  0
ENDTAB
  0
ENDSEC
  0
SECTION
  2
BLOCKS
  0
BLOCK
  8
0
  2
$MODEL_SPACE
 70
     0
 10
0.0
 20
0.0
 30
0.0
  3
$MODEL_SPACE
  1

  0
ENDBLK
  5
3E7DC
  8
0
  0
BLOCK
 67
     1
  8
0
  2
$PAPER_SPACE
 70
     0
 10
0.0
 20
0.0
 30
0.0
  3
$PAPER_SPACE
  1

  0
ENDBLK
  5
3E7D8
 67
     1
  8
0
  0
BLOCK
  8
ASHADE
  2
AVE_RENDER
 70
     0
 10
0.0
 20
0.0
 30
0.0
  3
AVE_RENDER
  1
AVE_RENDER
  0
ENDBLK
  5
31
  8
0
  0
BLOCK
  8
ASHADE
  2
AVE_GLOBAL
 70
     0
 10
0.0
 20
0.0
 30
0.0
  3
AVE_GLOBAL
  1
AVE_GLOBAL
  0
ENDBLK
  5
3F
  8
0
  0
BLOCK
  8
ASHADE
  2
RM_SDB
 70
     2
 10
0.0
 20
0.0
 30
0.0
  3
RM_SDB
  1
RM_SDB
  0
ATTDEF
  5
32E2D
  8
ASHADE
  6
CONTINUOUS
 62
     1
 10
0.0000000000000001
 20
-0.15
 30
0.0
 40
0.2
  1

 41
100.0
  7
ASHADE
 72
     1
 11
0.0000000000000001
 21
-0.15
 31
0.0
  3
Name
  2
NAME
 70
     0
  0
ENDBLK
  5
620
  8
0
  0
ENDSEC
  0
SECTION
  2
ENTITIES
  0
CIRCLE
  5
3BC83
  8
ASHADE
 10
-0.0003501492480282
 20
8.2329596900045896
 30
-0.003611738107681
 40
0.414735850292511
  0
ATTDEF
  5
3E755
  8
0
 10
0.0
 20
0.0
 30
0.0
 40
0.001
  1
K-394-4
  3

  2
MODELNUMBER
 70
     8
  0
ATTDEF
  5
3E756
  8
0
 10
0.0
 20
-0.0016666666666667
 30
0.0
 40
0.001
  1
DEVONSHIRE
  3

  2
TRADENAME
 70
     8
  0
ATTDEF
  5
3E757
  8
0
 10
0.0
 20
-0.0033333333333333
 30
0.0
 40
0.001
  1
FAUCETS
  3

  2
PRODUCT
 70
     8
  0
ATTDEF
  5
3E758
  8
0
 10
0.0
 20
-0.005
 30
0.0
 40
0.001
  1
BRASS
  3

  2
MATERIAL
 70
     8
  0
POLYLINE
  5
3E833
  8
ASHADE
 66
     1
 10
0.0
 20
0.0
 30
0.0002087641083053
 70
     1
  0
VERTEX
  5
3E885
  8
ASHADE
 10
-6.7093121334223067
 20
7.9607110915482027
 30
0.0002087641083053
 42
0.0757553303104658
  0
VERTEX
  5
3E886
  8
ASHADE
 10
-6.7305867251066474
 20
8.2382846738398197
 30
0.0002087641083053
 42
0.4195255750812547
  0
VERTEX
  5
3E887
  8
ASHADE
 10
-6.7964802321104347
 20
8.2635634459257155
 30
0.0002087641083053
 42
-0.1305031672485385
  0
VERTEX
  5
3E888
  8
ASHADE
 10
-6.8594474854378067
 20
8.2156824734806975
 30
0.0002087641083053
 42
0.221762174505847
  0
VERTEX
  5
3E889
  8
ASHADE
 10
-6.9316107314733788
 20
7.9607110915482044
 30
0.0002087641083053
 42
0.221762174505847
  0
VERTEX
  5
3E88A
  8
ASHADE
 10
-6.8594474854378067
 20
7.7057397096157096
 30
0.0002087641083053
 42
-0.1305031672485375
  0
VERTEX
  5
3E88B
  8
ASHADE
 10
-6.7964802321104347
 20
7.6578587371707068
 30
0.0002087641083053
 42
0.4195255750812498
  0
VERTEX
  5
3E88C
  8
ASHADE
 10
-6.7305867251066482
 20
7.6831375092566061
 30
0.0002087641083053
 42
0.0757553303104658
  0
SEQEND
  5
3E88D
  8
ASHADE
  0
POLYLINE
  5
3E837
  8
ASHADE
 66
     1
 10
0.0
 20
0.0
 30
0.0001959226990002
  0
VERTEX
  5
3E88E
  8
ASHADE
 10
-6.7305867251066474
 20
8.2382846738398197
 30
0.0001959226990002
 42
-0.1148328084729698
  0
VERTEX
  5
3E88F
  8
ASHADE
 10
-6.0270430649427844
 20
8.3003413741737688
 30
0.0001959226990002
 42
0.0264907474546848
  0
VERTEX
  5
3E890
  8
ASHADE
 10
-5.0737838982848471
 20
8.1930274151712776
 30
0.0001959226990002
 42
0.0930891339987501
  0
VERTEX
  5
3E891
  8
ASHADE
 10
-4.6368533929495239
 20
8.2317355679273714
 30
0.0001959226990002
 42
0.1056327733578829
  0
VERTEX
  5
3E892
  8
ASHADE
 10
-4.5426439816860569
 20
8.3050796406269072
 30
0.0001959226990002
 42
-0.3818820828524092
  0
VERTEX
  5
3E893
  8
ASHADE
 10
-4.4608102533726051
 20
8.2834768720567293
 30
0.0001959226990002
 42
0.0783399558978935
  0
VERTEX
  5
3E894
  8
ASHADE
 10
-4.3176725665239672
 20
8.248073778510097
 30
0.0001959226990002
  0
VERTEX
  5
3E895
  8
ASHADE
 10
-3.937215471854616
 20
8.2480737785101006
 30
0.0001959226990002
 42
-1.0030029115272681
  0
VERTEX
  5
3E896
  8
ASHADE
 10
-3.9389387377764891
 20
7.6733484045863207
 30
0.0001959226990002
  0
SEQEND
  5
3E897
  8
ASHADE
  0
POLYLINE
  5
3E842
  8
ASHADE
 66
     1
 10
0.0
 20
0.0
 30
0.0001959226990002
  0
VERTEX
  5
3E898
  8
ASHADE
 10
-6.7305867251066491
 20
7.6831375092566061
 30
0.0001959226990002
 42
0.11483280847297
  0
VERTEX
  5
3E899
  8
ASHADE
 10
-6.0270430649427809
 20
7.6210808089226436
 30
0.0001959226990002
 42
-0.0264907474546848
  0
VERTEX
  5
3E89A
  8
ASHADE
 10
-5.0737838982848471
 20
7.7283947679251472
 30
0.0001959226990002
 42
-0.09308913399875
  0
VERTEX
  5
3E89B
  8
ASHADE
 10
-4.6368533929495239
 20
7.6896866151690491
 30
0.0001959226990002
 42
-0.1056327733578833
  0
VERTEX
  5
3E89C
  8
ASHADE
 10
-4.5426439816860569
 20
7.6163425424694973
 30
0.0001959226990002
 42
0.3818820828524086
  0
VERTEX
  5
3E89D
  8
ASHADE
 10
-4.4608102533726051
 20
7.6379453110396831
 30
0.0001959226990002
 42
-0.0783399558978937
  0
VERTEX
  5
3E89E
  8
ASHADE
 10
-4.3176725665239672
 20
7.6733484045863181
 30
0.0001959226990002
  0
VERTEX
  5
3E89F
  8
ASHADE
 10
-3.9372154718546279
 20
7.6733484045863181
 30
0.0001959226990002
  0
SEQEND
  5
3E8A0
  8
ASHADE
  0
POLYLINE
  5
3E849
  8
ASHADE
 66
     1
 10
0.0
 20
0.0
 30
0.0
  0
VERTEX
  5
3E8A1
  8
ASHADE
 10
0.999863798515193
 20
7.0289563137555948
 30
0.0
 42
0.0871707738759607
  0
VERTEX
  5
3E8A2
  8
ASHADE
 10
0.7245747784155867
 20
6.2513315947137658
 30
0.0
 42
0.0548907502499406
  0
VERTEX
  5
3E8A3
  8
ASHADE
 10
0.6145056989512021
 20
2.0882755312147139
 30
0.0
 42
0.0162943523885994
  0
VERTEX
  5
3E8A4
  8
ASHADE
 10
0.8571846885369929
 20
0.8332236834281076
 30
0.0
 42
-0.4172424482036699
  0
VERTEX
  5
3E8A5
  8
ASHADE
 10
0.000000000000021
 20
0.0
 30
0.0
 42
-0.4172424482036699
  0
VERTEX
  5
3E8A6
  8
ASHADE
 10
-0.8571840554533451
 20
0.8332243347168004
 30
0.0
 42
0.0162943523885993
  0
VERTEX
  5
3E8A7
  8
ASHADE
 10
-0.6145041122792208
 20
2.088275998115535
 30
0.0
 42
0.0548907502499406
  0
VERTEX
  5
3E8A8
  8
ASHADE
 10
-0.7245700286535453
 20
6.2513321452438859
 30
0.0
 42
0.0871707738759607
  0
VERTEX
  5
3E8A9
  8
ASHADE
 10
-0.9998584579138132
 20
7.0289570734500959
 30
0.0
  0
SEQEND
  5
3E8AA
  8
ASHADE
  0
POLYLINE
  5
3E851
  8
ASHADE
 66
     1
 10
0.0
 20
0.0
 30
-0.003611738107681
  0
VERTEX
  5
3E8AB
  8
ASHADE
 10
0.7853575317586384
 20
6.5183560679336772
 30
-0.003611738107681
 42
-0.0447604396454921
  0
VERTEX
  5
3E8AC
  8
ASHADE
 10
1.2186175021768391
 20
6.7044475085735353
 30
-0.003611738107681
 42
0.1371534621900658
  0
VERTEX
  5
3E8AD
  8
ASHADE
 10
1.3796608343661581
 20
6.8820624241828838
 30
-0.003611738107681
 42
0.0498612283900958
  0
VERTEX
  5
3E8AE
  8
ASHADE
 10
1.496061198228666
 20
7.7244940154552539
 30
-0.003611738107681
 42
0.132037680304377
  0
VERTEX
  5
3E8AF
  8
ASHADE
 10
1.057875477904157
 20
8.7823682763576567
 30
-0.003611738107681
 42
0.1834668159034174
  0
VERTEX
  5
3E8B0
  8
ASHADE
 10
0.000001228438453
 20
9.2384019567200824
 30
-0.003611738107681
 42
0.1834668159034173
  0
VERTEX
  5
3E8B1
  8
ASHADE
 10
-1.057873021027262
 20
8.7823682763576567
 30
-0.003611738107681
 42
0.132037680304377
  0
VERTEX
  5
3E8B2
  8
ASHADE
 10
-1.4960587413517761
 20
7.7244940154552539
 30
-0.003611738107681
 42
0.0498612283900959
  0
VERTEX
  5
3E8B3
  8
ASHADE
 10
-1.3796583774892699
 20
6.8820624241828838
 30
-0.003611738107681
 42
0.1371534621900654
  0
VERTEX
  5
3E8B4
  8
ASHADE
 10
-1.218615045299948
 20
6.7044475085735353
 30
-0.003611738107681
 42
-0.0447607807156598
  0
VERTEX
  5
3E8B5
  8
ASHADE
 10
-0.7853519133733009
 20
6.518354360650374
 30
-0.003611738107681
  0
SEQEND
  5
3E8B6
  8
ASHADE
  0
POLYLINE
  5
3E85B
  8
ASHADE
 66
     1
 10
0.0
 20
0.0
 30
0.0001959226990002
  0
VERTEX
  5
3E8B7
  8
ASHADE
 10
3.9389411946533701
 20
8.2480742489675016
 30
0.0001959226990002
 42
1.0030029115272681
  0
VERTEX
  5
3E8B8
  8
ASHADE
 10
3.937217928731513
 20
7.6733488750437262
 30
0.0001959226990002
  0
VERTEX
  5
3E8B9
  8
ASHADE
 10
4.3176750234008594
 20
7.6733488750437262
 30
0.0001959226990002
 42
-0.0783399558978938
  0
VERTEX
  5
3E8BA
  8
ASHADE
 10
4.4608127102495008
 20
7.6379457814970966
 30
0.0001959226990002
 42
0.3818820828524071
  0
VERTEX
  5
3E8BB
  8
ASHADE
 10
4.542646438562933
 20
7.6163430129269081
 30
0.0001959226990002
 42
-0.1056327733578832
  0
VERTEX
  5
3E8BC
  8
ASHADE
 10
4.6368558498264019
 20
7.6896870856264563
 30
0.0001959226990002
 42
-0.0930891339987501
  0
VERTEX
  5
3E8BD
  8
ASHADE
 10
5.0737863551617419
 20
7.7283952383825572
 30
0.0001959226990002
 42
-0.0264907474546848
  0
VERTEX
  5
3E8BE
  8
ASHADE
 10
6.0270455218196579
 20
7.6210812793800571
 30
0.0001959226990002
 42
0.1148328084729698
  0
VERTEX
  5
3E8BF
  8
ASHADE
 10
6.7305891819835431
 20
7.6831379797140187
 30
0.0001959226990002
 42
-0.0757553303104658
  0
VERTEX
  5
3E8C0
  8
ASHADE
 10
6.7093145902991989
 20
7.960711562005617
 30
0.0001959226990002
 42
-0.0757553303104659
  0
VERTEX
  5
3E8C1
  8
ASHADE
 10
6.7305891819835431
 20
8.2382851442972171
 30
0.0001959226990002
 42
0.1148328084729699
  0
VERTEX
  5
3E8C2
  8
ASHADE
 10
6.027045521819657
 20
8.3003418446311734
 30
0.0001959226990002
 42
-0.0264907474546848
  0
VERTEX
  5
3E8C3
  8
ASHADE
 10
5.0737863551617419
 20
8.1930278856286751
 30
0.0001959226990002
 42
-0.0930891339987501
  0
VERTEX
  5
3E8C4
  8
ASHADE
 10
4.6368558498264019
 20
8.2317360383847671
 30
0.0001959226990002
 42
-0.1056327733578832
  0
VERTEX
  5
3E8C5
  8
ASHADE
 10
4.542646438562933
 20
8.3050801110843171
 30
0.0001959226990002
 42
0.3818820828524072
  0
VERTEX
  5
3E8C6
  8
ASHADE
 10
4.4608127102495008
 20
8.2834773425141286
 30
0.0001959226990002
 42
-0.0783399558978937
  0
VERTEX
  5
3E8C7
  8
ASHADE
 10
4.3176750234008594
 20
8.2480742489675052
 30
0.0001959226990002
  0
VERTEX
  5
3E8C8
  8
ASHADE
 10
3.937217928731513
 20
8.2480742489675052
 30
0.0001959226990002
  0
SEQEND
  5
3E8C9
  8
ASHADE
  0
POLYLINE
  5
3E86A
  8
ASHADE
 66
     1
 10
0.0
 20
0.0
 30
0.0002087641083053
  0
VERTEX
  5
3E8CA
  8
ASHADE
 10
6.7305891819835431
 20
7.6831379797140187
 30
0.0002087641083053
 42
0.4195255750812502
  0
VERTEX
  5
3E8CB
  8
ASHADE
 10
6.7964826889873171
 20
7.657859207628106
 30
0.0002087641083053
 42
-0.1305031672485374
  0
VERTEX
  5
3E8CC
  8
ASHADE
 10
6.8594499423146917
 20
7.7057401800731178
 30
0.0002087641083053
 42
0.2217621745058464
  0
VERTEX
  5
3E8CD
  8
ASHADE
 10
6.931613188350271
 20
7.960711562005617
 30
0.0002087641083053
 42
0.2217621745058467
  0
VERTEX
  5
3E8CE
  8
ASHADE
 10
6.8594499423146917
 20
8.2156829439381056
 30
0.0002087641083053
 42
-0.1305031672485375
  0
VERTEX
  5
3E8CF
  8
ASHADE
 10
6.7964826889873171
 20
8.2635639163831183
 30
0.0002087641083053
 42
0.4195255750812507
  0
VERTEX
  5
3E8D0
  8
ASHADE
 10
6.7305891819835431
 20
8.2382851442972171
 30
0.0002087641083053
  0
SEQEND
  5
3E8D1
  8
ASHADE
  0
POLYLINE
  5
3E871
  8
ASHADE
 66
     1
 10
0.0
 20
0.0
 30
-0.0036668182502923
  0
VERTEX
  5
3E8D2
  8
ASHADE
 10
4.5794322997969914
 20
8.2686012846566488
 30
-0.0036668182502923
 42
4.399040776312388
  0
VERTEX
  5
3E8D3
  8
ASHADE
 10
4.5794324860656426
 20
7.6528219932212931
 30
-0.0036668182502923
  0
SEQEND
  5
3E8D4
  8
ASHADE
  0
POLYLINE
  5
3E872
  8
ASHADE
 66
     1
 10
0.0
 20
0.0
 30
-0.0036668182502923
  0
VERTEX
  5
3E8D5
  8
ASHADE
 10
4.3299163150575133
 20
8.2492913654463607
 30
-0.0036668182502923
 42
3.0495145155786281
  0
VERTEX
  5
3E8D6
  8
ASHADE
 10
4.3299164743282201
 20
7.6721317406364458
 30
-0.0036668182502923
  0
SEQEND
  5
3E8D7
  8
ASHADE
  0
POLYLINE
  5
3E873
  8
ASHADE
 66
     1
 10
0.0
 20
0.0
 30
-0.0036668182502923
  0
VERTEX
  5
3E8D8
  8
ASHADE
 10
5.1742143540163132
 20
8.1995335692824902
 30
-0.0036668182502923
 42
10.45479935806876
  0
VERTEX
  5
3E8D9
  8
ASHADE
 10
5.17421439871468
 20
7.721889551583792
 30
-0.0036668182502923
  0
SEQEND
  5
3E8DA
  8
ASHADE
  0
POLYLINE
  5
3E876
  8
ASHADE
 66
     1
 10
0.0
 20
0.0
 30
-0.0036668182502923
  0
VERTEX
  5
3E8DB
  8
ASHADE
 10
-4.3299138581806291
 20
7.6721312881074626
 30
-0.0036668182502923
 42
3.0495145155786281
  0
VERTEX
  5
3E8DC
  8
ASHADE
 10
-4.3299140174513342
 20
8.2492909129173775
 30
-0.0036668182502923
  0
SEQEND
  5
3E8DD
  8
ASHADE
  0
POLYLINE
  5
3E877
  8
ASHADE
 66
     1
 10
0.0
 20
0.0
 30
-0.0036668182502923
  0
VERTEX
  5
3E8DE
  8
ASHADE
 10
-4.5794298429201072
 20
7.652821368897178
 30
-0.0036668182502923
 42
4.3990407763124022
  0
VERTEX
  5
3E8DF
  8
ASHADE
 10
-4.5794300291887584
 20
8.268600660332531
 30
-0.0036668182502923
  0
SEQEND
  5
3E8E0
  8
ASHADE
  0
POLYLINE
  5
3E878
  8
ASHADE
 66
     1
 10
0.0
 20
0.0
 30
-0.0036668182502923
  0
VERTEX
  5
3E8E1
  8
ASHADE
 10
-5.1742118971394282
 20
7.721889084271333
 30
-0.0036668182502923
 42
10.45479935806862
  0
VERTEX
  5
3E8E2
  8
ASHADE
 10
-5.1742119418377941
 20
8.1995331019700384
 30
-0.0036668182502923
  0
SEQEND
  5
3E8E3
  8
ASHADE
  0
ENDSEC
  0
EOF
