  0
SECTION
  2
HEADER
  9
$ACADVER
  1
AC1009
  9
$INSBASE
 10
0.0
 20
0.0
 30
0.0
  9
$EXTMIN
 10
-1.5722686800260179
 20
-0.0071609412046194
 30
-0.0091937647456169
  9
$EXTMAX
 10
11.529618680899221
 20
10.11820619664428
 30
0.0018699746578935
  9
$LIMMIN
 10
0.0
 20
0.0
  9
$LIMMAX
 10
420.0
 20
297.0
  9
$ORTHOMODE
 70
     1
  9
$REGENMODE
 70
     1
  9
$FILLMODE
 70
     1
  9
$QTEXTMODE
 70
     0
  9
$MIRRTEXT
 70
     1
  9
$DRAGMODE
 70
     2
  9
$LTSCALE
 40
1.0
  9
$OSMODE
 70
    37
  9
$ATTMODE
 70
     1
  9
$TEXTSIZE
 40
0.001
  9
$TRACEWID
 40
1.0
  9
$TEXTSTYLE
  7
STANDARD
  9
$CLAYER
  8
0
  9
$CELTYPE
  6
BYLAYER
  9
$CECOLOR
 62
   256
  9
$DIMSCALE
 40
1.0
  9
$DIMASZ
 40
2.5
  9
$DIMEXO
 40
0.625
  9
$DIMDLI
 40
3.75
  9
$DIMRND
 40
0.0
  9
$DIMDLE
 40
0.0
  9
$DIMEXE
 40
1.25
  9
$DIMTP
 40
0.0
  9
$DIMTM
 40
0.0
  9
$DIMTXT
 40
2.5
  9
$DIMCEN
 40
2.5
  9
$DIMTSZ
 40
0.0
  9
$DIMTOL
 70
     0
  9
$DIMLIM
 70
     0
  9
$DIMTIH
 70
     0
  9
$DIMTOH
 70
     0
  9
$DIMSE1
 70
     0
  9
$DIMSE2
 70
     0
  9
$DIMTAD
 70
     1
  9
$DIMZIN
 70
     8
  9
$DIMBLK
  1

  9
$DIMASO
 70
     1
  9
$DIMSHO
 70
     1
  9
$DIMPOST
  1

  9
$DIMAPOST
  1

  9
$DIMALT
 70
     0
  9
$DIMALTD
 70
     3
  9
$DIMALTF
 40
0.03937007874016
  9
$DIMLFAC
 40
1.0
  9
$DIMTOFL
 70
     1
  9
$DIMTVP
 40
0.0
  9
$DIMTIX
 70
     0
  9
$DIMSOXD
 70
     0
  9
$DIMSAH
 70
     0
  9
$DIMBLK1
  1

  9
$DIMBLK2
  1

  9
$DIMSTYLE
  2
ISO-25
  9
$DIMCLRD
 70
     0
  9
$DIMCLRE
 70
     0
  9
$DIMCLRT
 70
     0
  9
$DIMTFAC
 40
1.0
  9
$DIMGAP
 40
0.625
  9
$LUNITS
 70
     2
  9
$LUPREC
 70
     4
  9
$SKETCHINC
 40
1.0
  9
$FILLETRAD
 40
0.0
  9
$AUNITS
 70
     0
  9
$AUPREC
 70
     0
  9
$MENU
  1
.
  9
$ELEVATION
 40
0.0
  9
$PELEVATION
 40
0.0
  9
$THICKNESS
 40
0.0
  9
$LIMCHECK
 70
     0
  9
$BLIPMODE
 70
     0
  9
$CHAMFERA
 40
10.0
  9
$CHAMFERB
 40
10.0
  9
$SKPOLY
 70
     0
  9
$TDCREATE
 40
2453378.22126956
  9
$TDUPDATE
 40
2453411.4949406828
  9
$TDINDWG
 40
0.3624942477
  9
$TDUSRTIMER
 40
0.3624809375
  9
$USRTIMER
 70
     1
  9
$ANGBASE
 50
0.0
  9
$ANGDIR
 70
     0
  9
$PDMODE
 70
     0
  9
$PDSIZE
 40
0.0
  9
$PLINEWID
 40
0.0
  9
$COORDS
 70
     1
  9
$SPLFRAME
 70
     0
  9
$SPLINETYPE
 70
     6
  9
$SPLINESEGS
 70
     8
  9
$ATTDIA
 70
     0
  9
$ATTREQ
 70
     1
  9
$HANDLING
 70
     1
  9
$HANDSEED
  5
43C3A
  9
$SURFTAB1
 70
     6
  9
$SURFTAB2
 70
     6
  9
$SURFTYPE
 70
     6
  9
$SURFU
 70
     6
  9
$SURFV
 70
     6
  9
$UCSNAME
  2

  9
$UCSORG
 10
0.0
 20
0.0
 30
0.0
  9
$UCSXDIR
 10
1.0
 20
0.0
 30
0.0
  9
$UCSYDIR
 10
0.0
 20
1.0
 30
0.0
  9
$PUCSNAME
  2

  9
$PUCSORG
 10
0.0
 20
0.0
 30
0.0
  9
$PUCSXDIR
 10
1.0
 20
0.0
 30
0.0
  9
$PUCSYDIR
 10
0.0
 20
1.0
 30
0.0
  9
$USERI1
 70
     0
  9
$USERI2
 70
     0
  9
$USERI3
 70
     0
  9
$USERI4
 70
     0
  9
$USERI5
 70
     0
  9
$USERR1
 40
0.0
  9
$USERR2
 40
0.0
  9
$USERR3
 40
0.0
  9
$USERR4
 40
0.0
  9
$USERR5
 40
0.0
  9
$WORLDVIEW
 70
     1
  9
$SHADEDGE
 70
     3
  9
$SHADEDIF
 70
    70
  9
$TILEMODE
 70
     1
  9
$MAXACTVP
 70
    64
  9
$PLIMCHECK
 70
     0
  9
$PEXTMIN
 10
1.0000000000000000E+020
 20
1.0000000000000000E+020
 30
1.0000000000000000E+020
  9
$PEXTMAX
 10
-1.0000000000000000E+020
 20
-1.0000000000000000E+020
 30
-1.0000000000000000E+020
  9
$PLIMMIN
 10
0.0
 20
0.0
  9
$PLIMMAX
 10
420.0
 20
297.0
  9
$UNITMODE
 70
     0
  9
$VISRETAIN
 70
     1
  9
$PLINEGEN
 70
     0
  9
$PSLTSCALE
 70
     1
  0
ENDSEC
  0
SECTION
  2
TABLES
  0
TABLE
  2
VPORT
 70
     2
  0
VPORT
  2
*ACTIVE
 70
     0
 10
0.0
 20
0.0
 11
1.0
 21
1.0
 12
5.2574285606057174
 22
2.2672507147837062
 13
0.0
 23
0.0
 14
10.0
 24
10.0
 15
10.0
 25
10.0
 16
0.0
 26
0.0
 36
1.0
 17
0.0
 27
0.0
 37
0.0
 40
9.9788898007523272
 41
1.9608247422680409
 42
50.0
 43
0.0
 44
0.0
 50
0.0
 51
0.0
 71
     0
 72
  1000
 73
     1
 74
     3
 75
     0
 76
     0
 77
     0
 78
     0
  0
ENDTAB
  0
TABLE
  2
LTYPE
 70
     1
  0
LTYPE
  2
CONTINUOUS
 70
     0
  3
Solid line
 72
    65
 73
     0
 40
0.0
  0
ENDTAB
  0
TABLE
  2
LAYER
 70
     3
  0
LAYER
  2
0
 70
     0
 62
     7
  6
CONTINUOUS
  0
LAYER
  2
ASHADE
 70
     0
 62
     7
  6
CONTINUOUS
  0
LAYER
  2
DEFPOINTS
 70
     0
 62
     7
  6
CONTINUOUS
  0
ENDTAB
  0
TABLE
  2
STYLE
 70
     2
  0
STYLE
  2
STANDARD
 70
     0
 40
0.0
 41
1.0
 50
0.0
 71
     0
 42
0.001
  3
txt
  4

  0
STYLE
  2
ASHADE
 70
     0
 40
0.2
 41
1.0
 50
0.0
 71
     0
 42
2.5
  3
simplex.shx
  4

  0
ENDTAB
  0
TABLE
  2
VIEW
 70
     0
  0
ENDTAB
  0
TABLE
  2
UCS
 70
     0
  0
ENDTAB
  0
TABLE
  2
APPID
 70
     6
  0
APPID
  2
ACAD
 70
     0
  0
APPID
  2
AVE_RENDER
 70
     0
  0
APPID
  2
AVE_ENTITY_MATERIAL
 70
     0
  0
APPID
  2
AVE_FINISH
 70
     0
  0
APPID
  2
AVE_MATERIAL
 70
     0
  0
APPID
  2
AVE_GLOBAL
 70
     0
  0
ENDTAB
  0
TABLE
  2
DIMSTYLE
 70
     2
  0
DIMSTYLE
  2
ISO-25
 70
     0
  3

  4

  5

  6

  7

 40
1.0
 41
2.5
 42
0.625
 43
3.75
 44
1.25
 45
0.0
 46
0.0
 47
0.0
 48
0.0
140
2.5
141
2.5
142
0.0
143
0.03937007874016
144
1.0
145
0.0
146
1.0
147
0.625
 71
     0
 72
     0
 73
     0
 74
     0
 75
     0
 76
     0
 77
     1
 78
     8
170
     0
171
     3
172
     1
173
     0
174
     0
175
     0
176
     0
177
     0
178
     0
  0
DIMSTYLE
  2
STANDARD
 70
     0
  3

  4

  5

  6

  7

 40
1.0
 41
0.18
 42
0.0625
 43
0.38
 44
0.18
 45
0.0
 46
0.0
 47
0.0
 48
0.0
140
0.18
141
0.09
142
0.0
143
25.399999999999999
144
1.0
145
0.0
146
1.0
147
0.09
 71
     0
 72
     0
 73
     1
 74
     1
 75
     0
 76
     0
 77
     0
 78
     0
170
     0
171
     2
172
     0
173
     0
174
     0
175
     0
176
     0
177
     0
178
     0
  0
ENDTAB
  0
ENDSEC
  0
SECTION
  2
BLOCKS
  0
BLOCK
  8
0
  2
$MODEL_SPACE
 70
     0
 10
0.0
 20
0.0
 30
0.0
  3
$MODEL_SPACE
  1

  0
ENDBLK
  5
435F6
  8
0
  0
BLOCK
 67
     1
  8
0
  2
$PAPER_SPACE
 70
     0
 10
0.0
 20
0.0
 30
0.0
  3
$PAPER_SPACE
  1

  0
ENDBLK
  5
435F2
 67
     1
  8
0
  0
BLOCK
  8
ASHADE
  2
AVE_RENDER
 70
     0
 10
0.0
 20
0.0
 30
0.0
  3
AVE_RENDER
  1
AVE_RENDER
  0
ENDBLK
  5
31
  8
0
  0
BLOCK
  8
ASHADE
  2
AVE_GLOBAL
 70
     0
 10
0.0
 20
0.0
 30
0.0
  3
AVE_GLOBAL
  1
AVE_GLOBAL
  0
ENDBLK
  5
3F
  8
0
  0
BLOCK
  8
ASHADE
  2
RM_SDB
 70
     2
 10
0.0
 20
0.0
 30
0.0
  3
RM_SDB
  1
RM_SDB
  0
ATTDEF
  5
3E65C
  8
ASHADE
  6
CONTINUOUS
 62
     1
 10
0.0000000000000001
 20
-0.15
 30
0.0
 40
0.2
  1

 41
100.0
  7
ASHADE
 72
     1
 11
0.0000000000000001
 21
-0.15
 31
0.0
  3
Name
  2
NAME
 70
     0
  0
ENDBLK
  5
620
  8
0
  0
ENDSEC
  0
SECTION
  2
ENTITIES
  0
ATTDEF
  5
43547
  8
0
 10
0.0
 20
0.0
 30
0.0
 40
0.001
  1
K-454-4V
  3

  2
MODELNUMBER
 70
     8
  0
ATTDEF
  5
43548
  8
0
 10
0.0
 20
-0.0016666666666667
 30
0.0
 40
0.001
  1
MEMOIRS STATELY
  3

  2
TRADENAME
 70
     8
  0
ATTDEF
  5
43549
  8
0
 10
0.0
 20
-0.0033333333333333
 30
0.0
 40
0.001
  1
FAUCETS
  3

  2
PRODUCT
 70
     8
  0
ATTDEF
  5
4354A
  8
0
 10
0.0
 20
-0.005
 30
0.0
 40
0.001
  1
BRASS
  3

  2
MATERIAL
 70
     8
  0
POLYLINE
  5
437F5
  8
ASHADE
 66
     1
 10
0.0
 20
0.0
 30
0.0
  0
VERTEX
  5
43A0C
  8
ASHADE
 10
0.944880037546156
 20
0.0000000000000018
 30
0.0
  0
VERTEX
  5
43A0D
  8
ASHADE
 10
0.0137475256919908
 20
0.0000000000000018
 30
0.0
  0
VERTEX
  5
43A0E
  8
ASHADE
 10
-0.0000000000000018
 20
0.0000000000000018
 30
0.0
 42
-0.4541754827713158
  0
VERTEX
  5
43A0F
  8
ASHADE
 10
-0.0000000000000018
 20
0.0787399981775696
 30
0.0
  0
VERTEX
  5
43A10
  8
ASHADE
 10
0.0882747716903696
 20
0.0787399981775696
 30
0.0
  0
VERTEX
  5
43A11
  8
ASHADE
 10
0.0936368323564514
 20
0.0862468977765598
 30
0.0
  0
VERTEX
  5
43A12
  8
ASHADE
 10
0.0936368323564505
 20
0.157479996417595
 30
0.0
 42
0.0907880595832149
  0
VERTEX
  5
43A13
  8
ASHADE
 10
0.5267580453157416
 20
1.4370049788178301
 30
0.0
 42
0.0309568980485059
  0
VERTEX
  5
43A14
  8
ASHADE
 10
0.615472107052808
 20
2.2327486854763161
 30
0.0
 42
0.0245857084957597
  0
VERTEX
  5
43A15
  8
ASHADE
 10
0.6154702268351189
 20
2.2992009262414062
 30
0.0
 42
-0.1201069029345201
  0
VERTEX
  5
43A16
  8
ASHADE
 10
0.6491505413055397
 20
2.3622005631299161
 30
0.0
  0
VERTEX
  5
43A17
  8
ASHADE
 10
0.9455627738458272
 20
2.3624008708522322
 30
0.0
  0
VERTEX
  5
43A18
  8
ASHADE
 10
1.241975006386113
 20
2.3622005631299161
 30
0.0
 42
-0.1201069029345199
  0
VERTEX
  5
43A19
  8
ASHADE
 10
1.2756553208565311
 20
2.2992009262414062
 30
0.0
 42
0.0245857084957597
  0
VERTEX
  5
43A1A
  8
ASHADE
 10
1.2756534406388531
 20
2.2327486854763161
 30
0.0
 42
0.0309568980485057
  0
VERTEX
  5
43A1B
  8
ASHADE
 10
1.364367502375911
 20
1.4370049788178321
 30
0.0
 42
0.0907880595832149
  0
VERTEX
  5
43A1C
  8
ASHADE
 10
1.7974887153351951
 20
0.1574799964175959
 30
0.0
  0
VERTEX
  5
43A1D
  8
ASHADE
 10
1.7974887153351951
 20
0.0862468977765598
 30
0.0
  0
VERTEX
  5
43A1E
  8
ASHADE
 10
1.8028507760012791
 20
0.0787399981775696
 30
0.0
  0
VERTEX
  5
43A1F
  8
ASHADE
 10
1.8911255476916491
 20
0.0787399981775696
 30
0.0
 42
-0.4541754827713169
  0
VERTEX
  5
43A20
  8
ASHADE
 10
1.891125547691648
 20
0.0000000000000018
 30
0.0
  0
VERTEX
  5
43A21
  8
ASHADE
 10
1.8773780219996641
 20
0.0000000000000018
 30
0.0
  0
VERTEX
  5
43A22
  8
ASHADE
 10
0.9462455101454969
 20
0.0000000000000018
 30
0.0
  0
SEQEND
  5
43A23
  8
ASHADE
  0
POLYLINE
  5
4380B
  8
ASHADE
 66
     1
 10
0.0
 20
0.0
 30
0.0016651134341958
  0
VERTEX
  5
43A24
  8
ASHADE
 10
1.1783845210671391
 20
2.960285044488439
 30
0.0016651134341958
  0
VERTEX
  5
43A25
  8
ASHADE
 10
1.178393672943119
 20
3.1630176357002431
 30
0.0016651134341958
 42
0.2848825664362588
  0
VERTEX
  5
43A26
  8
ASHADE
 10
1.1509024566742221
 20
3.1905767502160169
 30
0.0016651134341958
  0
VERTEX
  5
43A27
  8
ASHADE
 10
0.7137660749237667
 20
3.1905767502160201
 30
0.0016651134341958
 42
-0.0242968386937145
  0
VERTEX
  5
43A28
  8
ASHADE
 10
-0.5960208506584072
 20
3.2130448403925982
 30
0.0016651134341958
 42
0.001490042310452
  0
VERTEX
  5
43A29
  8
ASHADE
 10
-1.457419497690966
 20
3.2671741610892
 30
0.0016651134341958
 42
0.0493043503978218
  0
VERTEX
  5
43A2A
  8
ASHADE
 10
-1.56147430539131
 20
3.20979146581604
 30
0.0016651134341958
 42
0.0868512704396916
  0
VERTEX
  5
43A2B
  8
ASHADE
 10
-1.5712475702762601
 20
3.1862774804802081
 30
0.0016651134341958
  0
VERTEX
  5
43A2C
  8
ASHADE
 10
-1.571247804939746
 20
2.9740646017463339
 30
0.0016651134341958
  0
VERTEX
  5
43A2D
  8
ASHADE
 10
-1.5712475702762601
 20
2.7618517230124571
 30
0.0016651134341958
 42
0.0868512704396914
  0
VERTEX
  5
43A2E
  8
ASHADE
 10
-1.56147430539131
 20
2.738337737676638
 30
0.0016651134341958
 42
0.0493043503978218
  0
VERTEX
  5
43A2F
  8
ASHADE
 10
-1.457419497691022
 20
2.6809550424034678
 30
0.0016651134341958
 42
0.001490042310452
  0
VERTEX
  5
43A30
  8
ASHADE
 10
-0.5960208506584113
 20
2.7350843631000661
 30
0.0016651134341958
 42
-0.0242968386937144
  0
VERTEX
  5
43A31
  8
ASHADE
 10
0.71376607492377
 20
2.7575524532766482
 30
0.0016651134341958
  0
VERTEX
  5
43A32
  8
ASHADE
 10
1.1509024566742221
 20
2.7575524532766482
 30
0.0016651134341958
 42
0.2848825664362557
  0
VERTEX
  5
43A33
  8
ASHADE
 10
1.178393672943119
 20
2.7851115677924319
 30
0.0016651134341958
  0
VERTEX
  5
43A34
  8
ASHADE
 10
1.1783845210671391
 20
2.987844159004224
 30
0.0016651134341958
  0
SEQEND
  5
43A35
  8
ASHADE
  0
POLYLINE
  5
4381B
  8
ASHADE
 66
     1
 10
0.0
 20
0.0
 30
-0.0034868647456169
  0
VERTEX
  5
43A36
  8
ASHADE
 10
4.9718012082576717
 20
-0.0000000422303597
 30
-0.0034868647456169
  0
VERTEX
  5
43A37
  8
ASHADE
 10
4.0072361894845923
 20
-0.0000000422303628
 30
-0.0034868647456169
 42
0.0472022172734428
  0
VERTEX
  5
43A38
  8
ASHADE
 10
4.3106498589217619
 20
1.1811000468702391
 30
-0.0034868647456169
 42
0.0342660078314864
  0
VERTEX
  5
43A39
  8
ASHADE
 10
4.537016715172677
 20
2.7874521014065832
 30
-0.0034868647456169
  0
VERTEX
  5
43A3A
  8
ASHADE
 10
4.5636200599744878
 20
3.2126909678549911
 30
-0.0034868647456169
 42
-0.2687271593128375
  0
VERTEX
  5
43A3B
  8
ASHADE
 10
4.6221538441188654
 20
3.2677104035587421
 30
-0.0034868647456169
  0
VERTEX
  5
43A3C
  8
ASHADE
 10
4.9718012375906078
 20
3.2677104035587421
 30
-0.0034868647456169
  0
VERTEX
  5
43A3D
  8
ASHADE
 10
5.321448631062351
 20
3.267710403558743
 30
-0.0034868647456169
 42
-0.2687271593128357
  0
VERTEX
  5
43A3E
  8
ASHADE
 10
5.3799824152067268
 20
3.2126909678549911
 30
-0.0034868647456169
  0
VERTEX
  5
43A3F
  8
ASHADE
 10
5.4065857600085421
 20
2.7874521014065898
 30
-0.0034868647456169
 42
0.0342660078314864
  0
VERTEX
  5
43A40
  8
ASHADE
 10
5.6329526162594519
 20
1.1811000468702511
 30
-0.0034868647456169
 42
0.0472022172734429
  0
VERTEX
  5
43A41
  8
ASHADE
 10
5.9363662856966242
 20
-0.0000000422303597
 30
-0.0034868647456169
  0
VERTEX
  5
43A42
  8
ASHADE
 10
4.9718012669235438
 20
-0.0000000422303597
 30
-0.0034868647456169
  0
SEQEND
  5
43A43
  8
ASHADE
  0
POLYLINE
  5
43821
  8
ASHADE
 66
     1
 10
0.0
 20
0.0
 30
-0.0081684599667785
  0
VERTEX
  5
43A44
  8
ASHADE
 10
4.9718013842552891
 20
3.2677104035587421
 30
-0.0081684599667785
  0
VERTEX
  5
43A45
  8
ASHADE
 10
4.7762848859168558
 20
3.2677441951007991
 30
-0.0081684599667785
  0
VERTEX
  5
43A46
  8
ASHADE
 10
4.7583999349623891
 20
3.281722394999997
 30
-0.0081684599667785
  0
VERTEX
  5
43A47
  8
ASHADE
 10
4.595116329133508
 20
4.2311483336062574
 30
-0.0081684599667785
  0
VERTEX
  5
43A48
  8
ASHADE
 10
4.6005519274696711
 20
4.2531053267092833
 30
-0.0081684599667785
  0
VERTEX
  5
43A49
  8
ASHADE
 10
4.7325611384659991
 20
4.375145358142384
 30
-0.0081684599667785
  0
VERTEX
  5
43A4A
  8
ASHADE
 10
4.760691352101011
 20
4.383126251113783
 30
-0.0081684599667785
  0
VERTEX
  5
43A4B
  8
ASHADE
 10
4.9819490034002802
 20
4.38312391668273
 30
-0.0081684599667785
  0
VERTEX
  5
43A4C
  8
ASHADE
 10
5.2032066546995459
 20
4.383126251113783
 30
-0.0081684599667785
  0
VERTEX
  5
43A4D
  8
ASHADE
 10
5.2313368683345587
 20
4.375145358142384
 30
-0.0081684599667785
  0
VERTEX
  5
43A4E
  8
ASHADE
 10
5.3633460793308894
 20
4.2531053267092833
 30
-0.0081684599667785
  0
VERTEX
  5
43A4F
  8
ASHADE
 10
5.3687816776670481
 20
4.2311483336062574
 30
-0.0081684599667785
  0
VERTEX
  5
43A50
  8
ASHADE
 10
5.2054980718381678
 20
3.281722394999997
 30
-0.0081684599667785
  0
VERTEX
  5
43A51
  8
ASHADE
 10
5.1876131208837011
 20
3.2677441951007991
 30
-0.0081684599667785
  0
VERTEX
  5
43A52
  8
ASHADE
 10
4.9920966225452688
 20
3.2677104035587421
 30
-0.0081684599667785
  0
SEQEND
  5
43A53
  8
ASHADE
  0
POLYLINE
  5
4382F
  8
ASHADE
 66
     1
 10
0.0
 20
0.0
 30
-0.0091871947456169
 70
     1
  0
VERTEX
  5
43A54
  8
ASHADE
 10
4.5422785558735361
 20
2.052627696644278
 30
-0.0091871947456169
  0
VERTEX
  5
43A55
  8
ASHADE
 10
4.5438285558735361
 20
2.0421576966442792
 30
-0.0091871947456169
  0
VERTEX
  5
43A56
  8
ASHADE
 10
4.5464085558735361
 20
2.0317376966442779
 30
-0.0091871947456169
  0
VERTEX
  5
43A57
  8
ASHADE
 10
4.5500185558735362
 20
2.021397696644279
 30
-0.0091871947456169
  0
VERTEX
  5
43A58
  8
ASHADE
 10
4.554648555873535
 20
2.011157696644279
 30
-0.0091871947456169
  0
VERTEX
  5
43A59
  8
ASHADE
 10
4.560278555873535
 20
2.0010376966442802
 30
-0.0091871947456169
  0
VERTEX
  5
43A5A
  8
ASHADE
 10
4.5669085558735363
 20
1.99106769664428
 30
-0.0091871947456169
  0
VERTEX
  5
43A5B
  8
ASHADE
 10
4.5745085558735363
 20
1.981277696644278
 30
-0.0091871947456169
  0
VERTEX
  5
43A5C
  8
ASHADE
 10
4.5830685558735347
 20
1.9716776966442791
 30
-0.0091871947456169
  0
VERTEX
  5
43A5D
  8
ASHADE
 10
4.592558555873536
 20
1.9623076966442781
 30
-0.0091871947456169
  0
VERTEX
  5
43A5E
  8
ASHADE
 10
4.6029685558735363
 20
1.95317769664428
 30
-0.0091871947456169
  0
VERTEX
  5
43A5F
  8
ASHADE
 10
4.6142685558735339
 20
1.94430769664428
 30
-0.0091871947456169
  0
VERTEX
  5
43A60
  8
ASHADE
 10
4.6264285558735363
 20
1.93572769664428
 30
-0.0091871947456169
  0
VERTEX
  5
43A61
  8
ASHADE
 10
4.6394185558735339
 20
1.9274476966442791
 30
-0.0091871947456169
  0
VERTEX
  5
43A62
  8
ASHADE
 10
4.6532185558735364
 20
1.9194976966442781
 30
-0.0091871947456169
  0
VERTEX
  5
43A63
  8
ASHADE
 10
4.6677785558735341
 20
1.9118976966442791
 30
-0.0091871947456169
  0
VERTEX
  5
43A64
  8
ASHADE
 10
4.683074555873536
 20
1.9046576966442801
 30
-0.0091871947456169
  0
VERTEX
  5
43A65
  8
ASHADE
 10
4.6990655558735339
 20
1.8978076966442801
 30
-0.0091871947456169
  0
VERTEX
  5
43A66
  8
ASHADE
 10
4.7157145558735341
 20
1.8913476966442779
 30
-0.0091871947456169
  0
VERTEX
  5
43A67
  8
ASHADE
 10
4.7329815558735362
 20
1.885307696644279
 30
-0.0091871947456169
  0
VERTEX
  5
43A68
  8
ASHADE
 10
4.7508235558735361
 20
1.879687696644279
 30
-0.0091871947456169
  0
VERTEX
  5
43A69
  8
ASHADE
 10
4.769198555873535
 20
1.87451769664428
 30
-0.0091871947456169
  0
VERTEX
  5
43A6A
  8
ASHADE
 10
4.7880625558735339
 20
1.86979769664428
 30
-0.0091871947456169
  0
VERTEX
  5
43A6B
  8
ASHADE
 10
4.8073695558735361
 20
1.865537696644278
 30
-0.0091871947456169
  0
VERTEX
  5
43A6C
  8
ASHADE
 10
4.827073555873536
 20
1.86176769664428
 30
-0.0091871947456169
  0
VERTEX
  5
43A6D
  8
ASHADE
 10
4.847126555873535
 20
1.858467696644281
 30
-0.0091871947456169
  0
VERTEX
  5
43A6E
  8
ASHADE
 10
4.8674795558735351
 20
1.85566769664428
 30
-0.0091871947456169
  0
VERTEX
  5
43A6F
  8
ASHADE
 10
4.8880855558735341
 20
1.85336769664428
 30
-0.0091871947456169
  0
VERTEX
  5
43A70
  8
ASHADE
 10
4.9088935558735347
 20
1.8515776966442781
 30
-0.0091871947456169
  0
VERTEX
  5
43A71
  8
ASHADE
 10
4.9298535558735361
 20
1.850297696644281
 30
-0.0091871947456169
  0
VERTEX
  5
43A72
  8
ASHADE
 10
4.9509145558735339
 20
1.849517696644279
 30
-0.0091871947456169
  0
VERTEX
  5
43A73
  8
ASHADE
 10
4.9720275558735363
 20
1.849267696644278
 30
-0.0091871947456169
  0
VERTEX
  5
43A74
  8
ASHADE
 10
4.9931395558735341
 20
1.849517696644279
 30
-0.0091871947456169
  0
VERTEX
  5
43A75
  8
ASHADE
 10
5.0142015558735347
 20
1.850297696644281
 30
-0.0091871947456169
  0
VERTEX
  5
43A76
  8
ASHADE
 10
5.0351615558735361
 20
1.8515776966442781
 30
-0.0091871947456169
  0
VERTEX
  5
43A77
  8
ASHADE
 10
5.055969555873534
 20
1.85336769664428
 30
-0.0091871947456169
  0
VERTEX
  5
43A78
  8
ASHADE
 10
5.0765745558735347
 20
1.85566769664428
 30
-0.0091871947456169
  0
VERTEX
  5
43A79
  8
ASHADE
 10
5.096928555873534
 20
1.858467696644281
 30
-0.0091871947456169
  0
VERTEX
  5
43A7A
  8
ASHADE
 10
5.1169815558735339
 20
1.86176769664428
 30
-0.0091871947456169
  0
VERTEX
  5
43A7B
  8
ASHADE
 10
5.1366855558735347
 20
1.865537696644278
 30
-0.0091871947456169
  0
VERTEX
  5
43A7C
  8
ASHADE
 10
5.1559925558735351
 20
1.86979769664428
 30
-0.0091871947456169
  0
VERTEX
  5
43A7D
  8
ASHADE
 10
5.1748555558735347
 20
1.87451769664428
 30
-0.0091871947456169
  0
VERTEX
  5
43A7E
  8
ASHADE
 10
5.1932315558735347
 20
1.879687696644279
 30
-0.0091871947456169
  0
VERTEX
  5
43A7F
  8
ASHADE
 10
5.2110735558735364
 20
1.885307696644279
 30
-0.0091871947456169
  0
VERTEX
  5
43A80
  8
ASHADE
 10
5.2283395558735339
 20
1.8913476966442779
 30
-0.0091871947456169
  0
VERTEX
  5
43A81
  8
ASHADE
 10
5.2449885558735341
 20
1.8978076966442801
 30
-0.0091871947456169
  0
VERTEX
  5
43A82
  8
ASHADE
 10
5.2609805558735347
 20
1.9046576966442801
 30
-0.0091871947456169
  0
VERTEX
  5
43A83
  8
ASHADE
 10
5.2762755558735339
 20
1.9118976966442791
 30
-0.0091871947456169
  0
VERTEX
  5
43A84
  8
ASHADE
 10
5.2908375558735363
 20
1.9194976966442781
 30
-0.0091871947456169
  0
VERTEX
  5
43A85
  8
ASHADE
 10
5.3046315558735362
 20
1.9274476966442791
 30
-0.0091871947456169
  0
VERTEX
  5
43A86
  8
ASHADE
 10
5.3176245558735351
 20
1.93572769664428
 30
-0.0091871947456169
  0
VERTEX
  5
43A87
  8
ASHADE
 10
5.3297855558735341
 20
1.94430769664428
 30
-0.0091871947456169
  0
VERTEX
  5
43A88
  8
ASHADE
 10
5.341083555873535
 20
1.95317769664428
 30
-0.0091871947456169
  0
VERTEX
  5
43A89
  8
ASHADE
 10
5.3514935558735361
 20
1.9623076966442781
 30
-0.0091871947456169
  0
VERTEX
  5
43A8A
  8
ASHADE
 10
5.3609885558735364
 20
1.9716776966442791
 30
-0.0091871947456169
  0
VERTEX
  5
43A8B
  8
ASHADE
 10
5.3695465558735362
 20
1.981277696644278
 30
-0.0091871947456169
  0
VERTEX
  5
43A8C
  8
ASHADE
 10
5.3771475558735347
 20
1.99106769664428
 30
-0.0091871947456169
  0
VERTEX
  5
43A8D
  8
ASHADE
 10
5.3837715558735351
 20
2.0010376966442802
 30
-0.0091871947456169
  0
VERTEX
  5
43A8E
  8
ASHADE
 10
5.3894045558735346
 20
2.011157696644279
 30
-0.0091871947456169
  0
VERTEX
  5
43A8F
  8
ASHADE
 10
5.3940315558735339
 20
2.021397696644279
 30
-0.0091871947456169
  0
VERTEX
  5
43A90
  8
ASHADE
 10
5.397641555873534
 20
2.0317376966442779
 30
-0.0091871947456169
  0
VERTEX
  5
43A91
  8
ASHADE
 10
5.400227555873534
 20
2.0421576966442792
 30
-0.0091871947456169
  0
VERTEX
  5
43A92
  8
ASHADE
 10
5.4017805558735361
 20
2.052627696644278
 30
-0.0091871947456169
  0
VERTEX
  5
43A93
  8
ASHADE
 10
5.4022985558735339
 20
2.0631176966442801
 30
-0.0091871947456169
  0
VERTEX
  5
43A94
  8
ASHADE
 10
5.4017805558735361
 20
2.0736076966442791
 30
-0.0091871947456169
  0
VERTEX
  5
43A95
  8
ASHADE
 10
5.400227555873534
 20
2.0840776966442771
 30
-0.0091871947456169
  0
VERTEX
  5
43A96
  8
ASHADE
 10
5.397641555873534
 20
2.0944976966442801
 30
-0.0091871947456169
  0
VERTEX
  5
43A97
  8
ASHADE
 10
5.3940315558735339
 20
2.1048376966442781
 30
-0.0091871947456169
  0
VERTEX
  5
43A98
  8
ASHADE
 10
5.3894045558735346
 20
2.115077696644279
 30
-0.0091871947456169
  0
VERTEX
  5
43A99
  8
ASHADE
 10
5.3837715558735351
 20
2.12519769664428
 30
-0.0091871947456169
  0
VERTEX
  5
43A9A
  8
ASHADE
 10
5.3771475558735347
 20
2.1351576966442791
 30
-0.0091871947456169
  0
VERTEX
  5
43A9B
  8
ASHADE
 10
5.3695465558735362
 20
2.144957696644278
 30
-0.0091871947456169
  0
VERTEX
  5
43A9C
  8
ASHADE
 10
5.3609885558735364
 20
2.15454769664428
 30
-0.0091871947456169
  0
VERTEX
  5
43A9D
  8
ASHADE
 10
5.3514935558735361
 20
2.163927696644278
 30
-0.0091871947456169
  0
VERTEX
  5
43A9E
  8
ASHADE
 10
5.341083555873535
 20
2.1730576966442801
 30
-0.0091871947456169
  0
VERTEX
  5
43A9F
  8
ASHADE
 10
5.3297855558735341
 20
2.1819276966442791
 30
-0.0091871947456169
  0
VERTEX
  5
43AA0
  8
ASHADE
 10
5.3176245558735351
 20
2.190507696644278
 30
-0.0091871947456169
  0
VERTEX
  5
43AA1
  8
ASHADE
 10
5.3046315558735362
 20
2.198787696644279
 30
-0.0091871947456169
  0
VERTEX
  5
43AA2
  8
ASHADE
 10
5.2908375558735363
 20
2.206727696644279
 30
-0.0091871947456169
  0
VERTEX
  5
43AA3
  8
ASHADE
 10
5.2762755558735339
 20
2.2143376966442792
 30
-0.0091871947456169
  0
VERTEX
  5
43AA4
  8
ASHADE
 10
5.2609805558735347
 20
2.221567696644279
 30
-0.0091871947456169
  0
VERTEX
  5
43AA5
  8
ASHADE
 10
5.2449885558735341
 20
2.2284276966442791
 30
-0.0091871947456169
  0
VERTEX
  5
43AA6
  8
ASHADE
 10
5.2283395558735339
 20
2.2348876966442792
 30
-0.0091871947456169
  0
VERTEX
  5
43AA7
  8
ASHADE
 10
5.2110735558735364
 20
2.2409276966442779
 30
-0.0091871947456169
  0
VERTEX
  5
43AA8
  8
ASHADE
 10
5.1932315558735347
 20
2.2465476966442801
 30
-0.0091871947456169
  0
VERTEX
  5
43AA9
  8
ASHADE
 10
5.1748555558735347
 20
2.2517176966442789
 30
-0.0091871947456169
  0
VERTEX
  5
43AAA
  8
ASHADE
 10
5.1559925558735351
 20
2.2564376966442801
 30
-0.0091871947456169
  0
VERTEX
  5
43AAB
  8
ASHADE
 10
5.1366855558735347
 20
2.260687696644279
 30
-0.0091871947456169
  0
VERTEX
  5
43AAC
  8
ASHADE
 10
5.1169815558735339
 20
2.264467696644278
 30
-0.0091871947456169
  0
VERTEX
  5
43AAD
  8
ASHADE
 10
5.096928555873534
 20
2.2677576966442792
 30
-0.0091871947456169
  0
VERTEX
  5
43AAE
  8
ASHADE
 10
5.0765745558735347
 20
2.270557696644278
 30
-0.0091871947456169
  0
VERTEX
  5
43AAF
  8
ASHADE
 10
5.055969555873534
 20
2.2728576966442779
 30
-0.0091871947456169
  0
VERTEX
  5
43AB0
  8
ASHADE
 10
5.0351615558735361
 20
2.2746576966442791
 30
-0.0091871947456169
  0
VERTEX
  5
43AB1
  8
ASHADE
 10
5.0142015558735347
 20
2.275937696644279
 30
-0.0091871947456169
  0
VERTEX
  5
43AB2
  8
ASHADE
 10
4.9931395558735341
 20
2.2767076966442801
 30
-0.0091871947456169
  0
VERTEX
  5
43AB3
  8
ASHADE
 10
4.9720275558735363
 20
2.2769676966442791
 30
-0.0091871947456169
  0
VERTEX
  5
43AB4
  8
ASHADE
 10
4.9509145558735339
 20
2.2767076966442801
 30
-0.0091871947456169
  0
VERTEX
  5
43AB5
  8
ASHADE
 10
4.9298535558735361
 20
2.275937696644279
 30
-0.0091871947456169
  0
VERTEX
  5
43AB6
  8
ASHADE
 10
4.9088935558735347
 20
2.2746576966442791
 30
-0.0091871947456169
  0
VERTEX
  5
43AB7
  8
ASHADE
 10
4.8880855558735341
 20
2.2728576966442779
 30
-0.0091871947456169
  0
VERTEX
  5
43AB8
  8
ASHADE
 10
4.8674795558735351
 20
2.270557696644278
 30
-0.0091871947456169
  0
VERTEX
  5
43AB9
  8
ASHADE
 10
4.847126555873535
 20
2.2677576966442792
 30
-0.0091871947456169
  0
VERTEX
  5
43ABA
  8
ASHADE
 10
4.827073555873536
 20
2.264467696644278
 30
-0.0091871947456169
  0
VERTEX
  5
43ABB
  8
ASHADE
 10
4.8073695558735361
 20
2.260687696644279
 30
-0.0091871947456169
  0
VERTEX
  5
43ABC
  8
ASHADE
 10
4.7880625558735339
 20
2.2564376966442801
 30
-0.0091871947456169
  0
VERTEX
  5
43ABD
  8
ASHADE
 10
4.769198555873535
 20
2.2517176966442789
 30
-0.0091871947456169
  0
VERTEX
  5
43ABE
  8
ASHADE
 10
4.7508235558735361
 20
2.2465476966442801
 30
-0.0091871947456169
  0
VERTEX
  5
43ABF
  8
ASHADE
 10
4.7329815558735362
 20
2.2409276966442779
 30
-0.0091871947456169
  0
VERTEX
  5
43AC0
  8
ASHADE
 10
4.7157145558735341
 20
2.2348876966442792
 30
-0.0091871947456169
  0
VERTEX
  5
43AC1
  8
ASHADE
 10
4.6990655558735339
 20
2.2284276966442791
 30
-0.0091871947456169
  0
VERTEX
  5
43AC2
  8
ASHADE
 10
4.683074555873536
 20
2.221567696644279
 30
-0.0091871947456169
  0
VERTEX
  5
43AC3
  8
ASHADE
 10
4.6677785558735341
 20
2.2143376966442792
 30
-0.0091871947456169
  0
VERTEX
  5
43AC4
  8
ASHADE
 10
4.6532185558735364
 20
2.206727696644279
 30
-0.0091871947456169
  0
VERTEX
  5
43AC5
  8
ASHADE
 10
4.6394185558735339
 20
2.198787696644279
 30
-0.0091871947456169
  0
VERTEX
  5
43AC6
  8
ASHADE
 10
4.6264285558735363
 20
2.190507696644278
 30
-0.0091871947456169
  0
VERTEX
  5
43AC7
  8
ASHADE
 10
4.6142685558735339
 20
2.1819276966442791
 30
-0.0091871947456169
  0
VERTEX
  5
43AC8
  8
ASHADE
 10
4.6029685558735363
 20
2.1730576966442801
 30
-0.0091871947456169
  0
VERTEX
  5
43AC9
  8
ASHADE
 10
4.592558555873536
 20
2.163927696644278
 30
-0.0091871947456169
  0
VERTEX
  5
43ACA
  8
ASHADE
 10
4.5830685558735347
 20
2.15454769664428
 30
-0.0091871947456169
  0
VERTEX
  5
43ACB
  8
ASHADE
 10
4.5745085558735363
 20
2.144957696644278
 30
-0.0091871947456169
  0
VERTEX
  5
43ACC
  8
ASHADE
 10
4.5669085558735363
 20
2.1351576966442791
 30
-0.0091871947456169
  0
VERTEX
  5
43ACD
  8
ASHADE
 10
4.560278555873535
 20
2.12519769664428
 30
-0.0091871947456169
  0
VERTEX
  5
43ACE
  8
ASHADE
 10
4.554648555873535
 20
2.115077696644279
 30
-0.0091871947456169
  0
VERTEX
  5
43ACF
  8
ASHADE
 10
4.5500185558735362
 20
2.1048376966442781
 30
-0.0091871947456169
  0
VERTEX
  5
43AD0
  8
ASHADE
 10
4.5464085558735361
 20
2.0944976966442801
 30
-0.0091871947456169
  0
VERTEX
  5
43AD1
  8
ASHADE
 10
4.5438285558735361
 20
2.0840776966442771
 30
-0.0091871947456169
  0
VERTEX
  5
43AD2
  8
ASHADE
 10
4.5422785558735361
 20
2.0736076966442791
 30
-0.0091871947456169
  0
VERTEX
  5
43AD3
  8
ASHADE
 10
4.5417585558735363
 20
2.0631176966442801
 30
-0.0091871947456169
  0
SEQEND
  5
43AD4
  8
ASHADE
  0
POLYLINE
  5
438AF
  8
ASHADE
 66
     1
 10
0.0
 20
0.0
 30
-0.0091937647456169
 70
     1
  0
VERTEX
  5
43AD5
  8
ASHADE
 10
4.6502185558735363
 20
2.043337696644278
 30
-0.0091937647456169
  0
VERTEX
  5
43AD6
  8
ASHADE
 10
4.6513785558735341
 20
2.0356876966442781
 30
-0.0091937647456169
  0
VERTEX
  5
43AD7
  8
ASHADE
 10
4.6533185558735362
 20
2.0280776966442779
 30
-0.0091937647456169
  0
VERTEX
  5
43AD8
  8
ASHADE
 10
4.6560185558735361
 20
2.0205276966442791
 30
-0.0091937647456169
  0
VERTEX
  5
43AD9
  8
ASHADE
 10
4.6594885558735362
 20
2.013047696644279
 30
-0.0091937647456169
  0
VERTEX
  5
43ADA
  8
ASHADE
 10
4.6637085558735363
 20
2.0056576966442781
 30
-0.0091937647456169
  0
VERTEX
  5
43ADB
  8
ASHADE
 10
4.668668555873535
 20
1.9983776966442779
 30
-0.0091937647456169
  0
VERTEX
  5
43ADC
  8
ASHADE
 10
4.674356555873536
 20
1.9912176966442801
 30
-0.0091937647456169
  0
VERTEX
  5
43ADD
  8
ASHADE
 10
4.6807655558735339
 20
1.9842076966442781
 30
-0.0091937647456169
  0
VERTEX
  5
43ADE
  8
ASHADE
 10
4.6878755558735339
 20
1.9773576966442781
 30
-0.0091937647456169
  0
VERTEX
  5
43ADF
  8
ASHADE
 10
4.6956705558735363
 20
1.970687696644279
 30
-0.0091937647456169
  0
VERTEX
  5
43AE0
  8
ASHADE
 10
4.704130555873534
 20
1.9642176966442779
 30
-0.0091937647456169
  0
VERTEX
  5
43AE1
  8
ASHADE
 10
4.7132365558735341
 20
1.957947696644279
 30
-0.0091937647456169
  0
VERTEX
  5
43AE2
  8
ASHADE
 10
4.7229665558735361
 20
1.9518976966442789
 30
-0.0091937647456169
  0
VERTEX
  5
43AE3
  8
ASHADE
 10
4.7332955558735339
 20
1.94609769664428
 30
-0.0091937647456169
  0
VERTEX
  5
43AE4
  8
ASHADE
 10
4.7442005558735341
 20
1.9405376966442791
 30
-0.0091937647456169
  0
VERTEX
  5
43AE5
  8
ASHADE
 10
4.7556535558735362
 20
1.93525769664428
 30
-0.0091937647456169
  0
VERTEX
  5
43AE6
  8
ASHADE
 10
4.7676285558735341
 20
1.930247696644281
 30
-0.0091937647456169
  0
VERTEX
  5
43AE7
  8
ASHADE
 10
4.7800955558735341
 20
1.925527696644278
 30
-0.0091937647456169
  0
VERTEX
  5
43AE8
  8
ASHADE
 10
4.7930245558735347
 20
1.9211176966442789
 30
-0.0091937647456169
  0
VERTEX
  5
43AE9
  8
ASHADE
 10
4.8063855558735362
 20
1.9170076966442791
 30
-0.0091937647456169
  0
VERTEX
  5
43AEA
  8
ASHADE
 10
4.820145555873534
 20
1.913237696644279
 30
-0.0091937647456169
  0
VERTEX
  5
43AEB
  8
ASHADE
 10
4.8342705558735339
 20
1.9097876966442791
 30
-0.0091937647456169
  0
VERTEX
  5
43AEC
  8
ASHADE
 10
4.848728555873536
 20
1.90667769664428
 30
-0.0091937647456169
  0
VERTEX
  5
43AED
  8
ASHADE
 10
4.8634825558735351
 20
1.903917696644279
 30
-0.0091937647456169
  0
VERTEX
  5
43AEE
  8
ASHADE
 10
4.8784985558735361
 20
1.9015176966442791
 30
-0.0091937647456169
  0
VERTEX
  5
43AEF
  8
ASHADE
 10
4.8937405558735341
 20
1.8994676966442781
 30
-0.0091937647456169
  0
VERTEX
  5
43AF0
  8
ASHADE
 10
4.9091705558735361
 20
1.897787696644279
 30
-0.0091937647456169
  0
VERTEX
  5
43AF1
  8
ASHADE
 10
4.9247515558735362
 20
1.896477696644278
 30
-0.0091937647456169
  0
VERTEX
  5
43AF2
  8
ASHADE
 10
4.9404465558735362
 20
1.895537696644279
 30
-0.0091937647456169
  0
VERTEX
  5
43AF3
  8
ASHADE
 10
4.9562175558735362
 20
1.8949776966442791
 30
-0.0091937647456169
  0
VERTEX
  5
43AF4
  8
ASHADE
 10
4.9720275558735363
 20
1.894787696644278
 30
-0.0091937647456169
  0
VERTEX
  5
43AF5
  8
ASHADE
 10
4.9878365558735362
 20
1.8949776966442791
 30
-0.0091937647456169
  0
VERTEX
  5
43AF6
  8
ASHADE
 10
5.0036085558735346
 20
1.895537696644279
 30
-0.0091937647456169
  0
VERTEX
  5
43AF7
  8
ASHADE
 10
5.0193035558735364
 20
1.896477696644278
 30
-0.0091937647456169
  0
VERTEX
  5
43AF8
  8
ASHADE
 10
5.0348845558735347
 20
1.897787696644279
 30
-0.0091937647456169
  0
VERTEX
  5
43AF9
  8
ASHADE
 10
5.0503145558735341
 20
1.8994676966442781
 30
-0.0091937647456169
  0
VERTEX
  5
43AFA
  8
ASHADE
 10
5.0655555558735346
 20
1.9015176966442791
 30
-0.0091937647456169
  0
VERTEX
  5
43AFB
  8
ASHADE
 10
5.080572555873534
 20
1.903917696644279
 30
-0.0091937647456169
  0
VERTEX
  5
43AFC
  8
ASHADE
 10
5.0953265558735339
 20
1.90667769664428
 30
-0.0091937647456169
  0
VERTEX
  5
43AFD
  8
ASHADE
 10
5.1097845558735351
 20
1.9097876966442791
 30
-0.0091937647456169
  0
VERTEX
  5
43AFE
  8
ASHADE
 10
5.123909555873535
 20
1.913237696644279
 30
-0.0091937647456169
  0
VERTEX
  5
43AFF
  8
ASHADE
 10
5.1376695558735364
 20
1.9170076966442791
 30
-0.0091937647456169
  0
VERTEX
  5
43B00
  8
ASHADE
 10
5.1510295558735351
 20
1.9211176966442789
 30
-0.0091937647456169
  0
VERTEX
  5
43B01
  8
ASHADE
 10
5.1639595558735341
 20
1.925527696644278
 30
-0.0091937647456169
  0
VERTEX
  5
43B02
  8
ASHADE
 10
5.1764265558735341
 20
1.930247696644281
 30
-0.0091937647456169
  0
VERTEX
  5
43B03
  8
ASHADE
 10
5.1884015558735364
 20
1.93525769664428
 30
-0.0091937647456169
  0
VERTEX
  5
43B04
  8
ASHADE
 10
5.1998545558735341
 20
1.9405376966442791
 30
-0.0091937647456169
  0
VERTEX
  5
43B05
  8
ASHADE
 10
5.210759555873536
 20
1.94609769664428
 30
-0.0091937647456169
  0
VERTEX
  5
43B06
  8
ASHADE
 10
5.2210885558735347
 20
1.9518976966442789
 30
-0.0091937647456169
  0
VERTEX
  5
43B07
  8
ASHADE
 10
5.2308175558735339
 20
1.957947696644279
 30
-0.0091937647456169
  0
VERTEX
  5
43B08
  8
ASHADE
 10
5.239923555873534
 20
1.9642176966442779
 30
-0.0091937647456169
  0
VERTEX
  5
43B09
  8
ASHADE
 10
5.2483845558735363
 20
1.970687696644279
 30
-0.0091937647456169
  0
VERTEX
  5
43B0A
  8
ASHADE
 10
5.256179555873536
 20
1.9773576966442781
 30
-0.0091937647456169
  0
VERTEX
  5
43B0B
  8
ASHADE
 10
5.2632895558735351
 20
1.9842076966442781
 30
-0.0091937647456169
  0
VERTEX
  5
43B0C
  8
ASHADE
 10
5.2696975558735346
 20
1.9912176966442801
 30
-0.0091937647456169
  0
VERTEX
  5
43B0D
  8
ASHADE
 10
5.2753895558735362
 20
1.9983776966442779
 30
-0.0091937647456169
  0
VERTEX
  5
43B0E
  8
ASHADE
 10
5.2803495558735341
 20
2.0056576966442781
 30
-0.0091937647456169
  0
VERTEX
  5
43B0F
  8
ASHADE
 10
5.2845675558735339
 20
2.013047696644279
 30
-0.0091937647456169
  0
VERTEX
  5
43B10
  8
ASHADE
 10
5.288032555873535
 20
2.0205276966442791
 30
-0.0091937647456169
  0
VERTEX
  5
43B11
  8
ASHADE
 10
5.2907365558735346
 20
2.0280776966442779
 30
-0.0091937647456169
  0
VERTEX
  5
43B12
  8
ASHADE
 10
5.2926725558735361
 20
2.0356876966442781
 30
-0.0091937647456169
  0
VERTEX
  5
43B13
  8
ASHADE
 10
5.2938355558735362
 20
2.043337696644278
 30
-0.0091937647456169
  0
VERTEX
  5
43B14
  8
ASHADE
 10
5.2942235558735362
 20
2.0509976966442802
 30
-0.0091937647456169
  0
VERTEX
  5
43B15
  8
ASHADE
 10
5.2938355558735362
 20
2.0586676966442781
 30
-0.0091937647456169
  0
VERTEX
  5
43B16
  8
ASHADE
 10
5.2926725558735361
 20
2.0663076966442802
 30
-0.0091937647456169
  0
VERTEX
  5
43B17
  8
ASHADE
 10
5.2907365558735346
 20
2.0739176966442781
 30
-0.0091937647456169
  0
VERTEX
  5
43B18
  8
ASHADE
 10
5.288032555873535
 20
2.0814776966442792
 30
-0.0091937647456169
  0
VERTEX
  5
43B19
  8
ASHADE
 10
5.2845675558735339
 20
2.0889576966442771
 30
-0.0091937647456169
  0
VERTEX
  5
43B1A
  8
ASHADE
 10
5.2803495558735341
 20
2.096347696644278
 30
-0.0091937647456169
  0
VERTEX
  5
43B1B
  8
ASHADE
 10
5.2753895558735362
 20
2.1036276966442791
 30
-0.0091937647456169
  0
VERTEX
  5
43B1C
  8
ASHADE
 10
5.2696975558735346
 20
2.1107776966442771
 30
-0.0091937647456169
  0
VERTEX
  5
43B1D
  8
ASHADE
 10
5.2632895558735351
 20
2.117787696644279
 30
-0.0091937647456169
  0
VERTEX
  5
43B1E
  8
ASHADE
 10
5.256179555873536
 20
2.124637696644279
 30
-0.0091937647456169
  0
VERTEX
  5
43B1F
  8
ASHADE
 10
5.2483845558735363
 20
2.1313076966442792
 30
-0.0091937647456169
  0
VERTEX
  5
43B20
  8
ASHADE
 10
5.239923555873534
 20
2.137787696644279
 30
-0.0091937647456169
  0
VERTEX
  5
43B21
  8
ASHADE
 10
5.2308175558735339
 20
2.1440576966442779
 30
-0.0091937647456169
  0
VERTEX
  5
43B22
  8
ASHADE
 10
5.2210885558735347
 20
2.1500976966442802
 30
-0.0091937647456169
  0
VERTEX
  5
43B23
  8
ASHADE
 10
5.210759555873536
 20
2.1559076966442801
 30
-0.0091937647456169
  0
VERTEX
  5
43B24
  8
ASHADE
 10
5.1998545558735341
 20
2.1614576966442791
 30
-0.0091937647456169
  0
VERTEX
  5
43B25
  8
ASHADE
 10
5.1884015558735364
 20
2.16674769664428
 30
-0.0091937647456169
  0
VERTEX
  5
43B26
  8
ASHADE
 10
5.1764265558735341
 20
2.1717576966442791
 30
-0.0091937647456169
  0
VERTEX
  5
43B27
  8
ASHADE
 10
5.1639595558735341
 20
2.1764676966442802
 30
-0.0091937647456169
  0
VERTEX
  5
43B28
  8
ASHADE
 10
5.1510295558735351
 20
2.180887696644279
 30
-0.0091937647456169
  0
VERTEX
  5
43B29
  8
ASHADE
 10
5.1376695558735364
 20
2.1849876966442792
 30
-0.0091937647456169
  0
VERTEX
  5
43B2A
  8
ASHADE
 10
5.123909555873535
 20
2.1887676966442791
 30
-0.0091937647456169
  0
VERTEX
  5
43B2B
  8
ASHADE
 10
5.1097845558735351
 20
2.192217696644279
 30
-0.0091937647456169
  0
VERTEX
  5
43B2C
  8
ASHADE
 10
5.0953265558735339
 20
2.1953176966442789
 30
-0.0091937647456169
  0
VERTEX
  5
43B2D
  8
ASHADE
 10
5.080572555873534
 20
2.1980776966442792
 30
-0.0091937647456169
  0
VERTEX
  5
43B2E
  8
ASHADE
 10
5.0655555558735346
 20
2.200487696644279
 30
-0.0091937647456169
  0
VERTEX
  5
43B2F
  8
ASHADE
 10
5.0503145558735341
 20
2.2025276966442791
 30
-0.0091937647456169
  0
VERTEX
  5
43B30
  8
ASHADE
 10
5.0348845558735347
 20
2.204207696644279
 30
-0.0091937647456169
  0
VERTEX
  5
43B31
  8
ASHADE
 10
5.0193035558735364
 20
2.2055176966442791
 30
-0.0091937647456169
  0
VERTEX
  5
43B32
  8
ASHADE
 10
5.0036085558735346
 20
2.206457696644279
 30
-0.0091937647456169
  0
VERTEX
  5
43B33
  8
ASHADE
 10
4.9878365558735362
 20
2.2070276966442779
 30
-0.0091937647456169
  0
VERTEX
  5
43B34
  8
ASHADE
 10
4.9720275558735363
 20
2.2072176966442791
 30
-0.0091937647456169
  0
VERTEX
  5
43B35
  8
ASHADE
 10
4.9562175558735362
 20
2.2070276966442779
 30
-0.0091937647456169
  0
VERTEX
  5
43B36
  8
ASHADE
 10
4.9404465558735362
 20
2.206457696644279
 30
-0.0091937647456169
  0
VERTEX
  5
43B37
  8
ASHADE
 10
4.9247515558735362
 20
2.2055176966442791
 30
-0.0091937647456169
  0
VERTEX
  5
43B38
  8
ASHADE
 10
4.9091705558735361
 20
2.204207696644279
 30
-0.0091937647456169
  0
VERTEX
  5
43B39
  8
ASHADE
 10
4.8937405558735341
 20
2.2025276966442791
 30
-0.0091937647456169
  0
VERTEX
  5
43B3A
  8
ASHADE
 10
4.8784985558735361
 20
2.200487696644279
 30
-0.0091937647456169
  0
VERTEX
  5
43B3B
  8
ASHADE
 10
4.8634825558735351
 20
2.1980776966442792
 30
-0.0091937647456169
  0
VERTEX
  5
43B3C
  8
ASHADE
 10
4.848728555873536
 20
2.1953176966442789
 30
-0.0091937647456169
  0
VERTEX
  5
43B3D
  8
ASHADE
 10
4.8342705558735339
 20
2.192217696644279
 30
-0.0091937647456169
  0
VERTEX
  5
43B3E
  8
ASHADE
 10
4.820145555873534
 20
2.1887676966442791
 30
-0.0091937647456169
  0
VERTEX
  5
43B3F
  8
ASHADE
 10
4.8063855558735362
 20
2.1849876966442792
 30
-0.0091937647456169
  0
VERTEX
  5
43B40
  8
ASHADE
 10
4.7930245558735347
 20
2.180887696644279
 30
-0.0091937647456169
  0
VERTEX
  5
43B41
  8
ASHADE
 10
4.7800955558735341
 20
2.1764676966442802
 30
-0.0091937647456169
  0
VERTEX
  5
43B42
  8
ASHADE
 10
4.7676285558735341
 20
2.1717576966442791
 30
-0.0091937647456169
  0
VERTEX
  5
43B43
  8
ASHADE
 10
4.7556535558735362
 20
2.16674769664428
 30
-0.0091937647456169
  0
VERTEX
  5
43B44
  8
ASHADE
 10
4.7442005558735341
 20
2.1614576966442791
 30
-0.0091937647456169
  0
VERTEX
  5
43B45
  8
ASHADE
 10
4.7332955558735339
 20
2.1559076966442801
 30
-0.0091937647456169
  0
VERTEX
  5
43B46
  8
ASHADE
 10
4.7229665558735361
 20
2.1500976966442802
 30
-0.0091937647456169
  0
VERTEX
  5
43B47
  8
ASHADE
 10
4.7132365558735341
 20
2.1440576966442779
 30
-0.0091937647456169
  0
VERTEX
  5
43B48
  8
ASHADE
 10
4.704130555873534
 20
2.137787696644279
 30
-0.0091937647456169
  0
VERTEX
  5
43B49
  8
ASHADE
 10
4.6956705558735363
 20
2.1313076966442792
 30
-0.0091937647456169
  0
VERTEX
  5
43B4A
  8
ASHADE
 10
4.6878755558735339
 20
2.124637696644279
 30
-0.0091937647456169
  0
VERTEX
  5
43B4B
  8
ASHADE
 10
4.6807655558735339
 20
2.117787696644279
 30
-0.0091937647456169
  0
VERTEX
  5
43B4C
  8
ASHADE
 10
4.674356555873536
 20
2.1107776966442771
 30
-0.0091937647456169
  0
VERTEX
  5
43B4D
  8
ASHADE
 10
4.668668555873535
 20
2.1036276966442791
 30
-0.0091937647456169
  0
VERTEX
  5
43B4E
  8
ASHADE
 10
4.6637085558735363
 20
2.096347696644278
 30
-0.0091937647456169
  0
VERTEX
  5
43B4F
  8
ASHADE
 10
4.6594885558735362
 20
2.0889576966442771
 30
-0.0091937647456169
  0
VERTEX
  5
43B50
  8
ASHADE
 10
4.6560185558735361
 20
2.0814776966442792
 30
-0.0091937647456169
  0
VERTEX
  5
43B51
  8
ASHADE
 10
4.6533185558735362
 20
2.0739176966442781
 30
-0.0091937647456169
  0
VERTEX
  5
43B52
  8
ASHADE
 10
4.6513785558735341
 20
2.0663076966442802
 30
-0.0091937647456169
  0
VERTEX
  5
43B53
  8
ASHADE
 10
4.6502185558735363
 20
2.0586676966442781
 30
-0.0091937647456169
  0
VERTEX
  5
43B54
  8
ASHADE
 10
4.6498285558735351
 20
2.0509976966442802
 30
-0.0091937647456169
  0
SEQEND
  5
43B55
  8
ASHADE
  0
POLYLINE
  5
4392F
  8
ASHADE
 66
     1
 10
0.0
 20
0.0
 30
-0.0090946147456169
  0
VERTEX
  5
43B56
  8
ASHADE
 10
5.4022985558735339
 20
2.2300776966442779
 30
-0.0090946147456169
  0
VERTEX
  5
43B57
  8
ASHADE
 10
5.4021695558735363
 20
2.236127696644278
 30
-0.0090946147456169
  0
VERTEX
  5
43B58
  8
ASHADE
 10
5.4017805558735361
 20
2.242177696644279
 30
-0.0090946147456169
  0
VERTEX
  5
43B59
  8
ASHADE
 10
5.4011335558735363
 20
2.2482176966442791
 30
-0.0090946147456169
  0
VERTEX
  5
43B5A
  8
ASHADE
 10
5.400227555873534
 20
2.254237696644279
 30
-0.0090946147456169
  0
VERTEX
  5
43B5B
  8
ASHADE
 10
5.3990635558735347
 20
2.260257696644278
 30
-0.0090946147456169
  0
VERTEX
  5
43B5C
  8
ASHADE
 10
5.397641555873534
 20
2.2662476966442791
 30
-0.0090946147456169
  0
VERTEX
  5
43B5D
  8
ASHADE
 10
5.3959645558735341
 20
2.2722276966442791
 30
-0.0090946147456169
  0
VERTEX
  5
43B5E
  8
ASHADE
 10
5.3940315558735339
 20
2.278167696644279
 30
-0.0090946147456169
  0
VERTEX
  5
43B5F
  8
ASHADE
 10
5.3918445558735364
 20
2.2840876966442791
 30
-0.0090946147456169
  0
VERTEX
  5
43B60
  8
ASHADE
 10
5.3894045558735346
 20
2.2899776966442791
 30
-0.0090946147456169
  0
VERTEX
  5
43B61
  8
ASHADE
 10
5.386712555873534
 20
2.2958276966442792
 30
-0.0090946147456169
  0
VERTEX
  5
43B62
  8
ASHADE
 10
5.3837715558735351
 20
2.3016376966442791
 30
-0.0090946147456169
  0
VERTEX
  5
43B63
  8
ASHADE
 10
5.3805825558735361
 20
2.3074076966442791
 30
-0.0090946147456169
  0
VERTEX
  5
43B64
  8
ASHADE
 10
5.3771475558735347
 20
2.313127696644278
 30
-0.0090946147456169
  0
VERTEX
  5
43B65
  8
ASHADE
 10
5.3734675558735363
 20
2.3187976966442791
 30
-0.0090946147456169
  0
VERTEX
  5
43B66
  8
ASHADE
 10
5.3695465558735362
 20
2.3244176966442791
 30
-0.0090946147456169
  0
VERTEX
  5
43B67
  8
ASHADE
 10
5.3653855558735346
 20
2.3299776966442791
 30
-0.0090946147456169
  0
VERTEX
  5
43B68
  8
ASHADE
 10
5.3609885558735364
 20
2.3354776966442792
 30
-0.0090946147456169
  0
VERTEX
  5
43B69
  8
ASHADE
 10
5.3563565558735347
 20
2.3409176966442802
 30
-0.0090946147456169
  0
VERTEX
  5
43B6A
  8
ASHADE
 10
5.3514935558735361
 20
2.3462876966442789
 30
-0.0090946147456169
  0
VERTEX
  5
43B6B
  8
ASHADE
 10
5.3464015558735341
 20
2.351587696644279
 30
-0.0090946147456169
  0
VERTEX
  5
43B6C
  8
ASHADE
 10
5.341083555873535
 20
2.3568176966442791
 30
-0.0090946147456169
  0
VERTEX
  5
43B6D
  8
ASHADE
 10
5.335543555873536
 20
2.3619676966442791
 30
-0.0090946147456169
  0
VERTEX
  5
43B6E
  8
ASHADE
 10
5.3297855558735341
 20
2.367037696644279
 30
-0.0090946147456169
  0
VERTEX
  5
43B6F
  8
ASHADE
 10
5.3238105558735347
 20
2.3720276966442779
 30
-0.0090946147456169
  0
VERTEX
  5
43B70
  8
ASHADE
 10
5.3176245558735351
 20
2.3769276966442781
 30
-0.0090946147456169
  0
VERTEX
  5
43B71
  8
ASHADE
 10
5.311230555873534
 20
2.381747696644279
 30
-0.0090946147456169
  0
VERTEX
  5
43B72
  8
ASHADE
 10
5.3046315558735362
 20
2.3864676966442802
 30
-0.0090946147456169
  0
VERTEX
  5
43B73
  8
ASHADE
 10
5.2978325558735362
 20
2.391097696644279
 30
-0.0090946147456169
  0
VERTEX
  5
43B74
  8
ASHADE
 10
5.2908375558735363
 20
2.395627696644278
 30
-0.0090946147456169
  0
VERTEX
  5
43B75
  8
ASHADE
 10
5.2836505558735363
 20
2.400057696644279
 30
-0.0090946147456169
  0
VERTEX
  5
43B76
  8
ASHADE
 10
5.2762755558735339
 20
2.404387696644279
 30
-0.0090946147456169
  0
VERTEX
  5
43B77
  8
ASHADE
 10
5.2687175558735362
 20
2.4086176966442792
 30
-0.0090946147456169
  0
VERTEX
  5
43B78
  8
ASHADE
 10
5.2609805558735347
 20
2.4127376966442791
 30
-0.0090946147456169
  0
VERTEX
  5
43B79
  8
ASHADE
 10
5.2530695558735347
 20
2.4167376966442791
 30
-0.0090946147456169
  0
VERTEX
  5
43B7A
  8
ASHADE
 10
5.2449885558735341
 20
2.4206376966442802
 30
-0.0090946147456169
  0
VERTEX
  5
43B7B
  8
ASHADE
 10
5.2367445558735346
 20
2.4244176966442801
 30
-0.0090946147456169
  0
VERTEX
  5
43B7C
  8
ASHADE
 10
5.2283395558735339
 20
2.4280776966442792
 30
-0.0090946147456169
  0
VERTEX
  5
43B7D
  8
ASHADE
 10
5.2197815558735341
 20
2.431627696644278
 30
-0.0090946147456169
  0
VERTEX
  5
43B7E
  8
ASHADE
 10
5.2110735558735364
 20
2.4350476966442791
 30
-0.0090946147456169
  0
VERTEX
  5
43B7F
  8
ASHADE
 10
5.2022215558735363
 20
2.438347696644279
 30
-0.0090946147456169
  0
VERTEX
  5
43B80
  8
ASHADE
 10
5.1932315558735347
 20
2.4415176966442802
 30
-0.0090946147456169
  0
VERTEX
  5
43B81
  8
ASHADE
 10
5.1841075558735339
 20
2.4445676966442802
 30
-0.0090946147456169
  0
VERTEX
  5
43B82
  8
ASHADE
 10
5.1748555558735347
 20
2.447487696644278
 30
-0.0090946147456169
  0
VERTEX
  5
43B83
  8
ASHADE
 10
5.1654825558735347
 20
2.4502676966442789
 30
-0.0090946147456169
  0
VERTEX
  5
43B84
  8
ASHADE
 10
5.1559925558735351
 20
2.452927696644279
 30
-0.0090946147456169
  0
VERTEX
  5
43B85
  8
ASHADE
 10
5.146391555873536
 20
2.4554476966442791
 30
-0.0090946147456169
  0
VERTEX
  5
43B86
  8
ASHADE
 10
5.1366855558735347
 20
2.4578276966442791
 30
-0.0090946147456169
  0
VERTEX
  5
43B87
  8
ASHADE
 10
5.1268795558735363
 20
2.4600776966442792
 30
-0.0090946147456169
  0
VERTEX
  5
43B88
  8
ASHADE
 10
5.1169815558735339
 20
2.4621876966442802
 30
-0.0090946147456169
  0
VERTEX
  5
43B89
  8
ASHADE
 10
5.106995555873536
 20
2.4641476966442801
 30
-0.0090946147456169
  0
VERTEX
  5
43B8A
  8
ASHADE
 10
5.096928555873534
 20
2.4659776966442779
 30
-0.0090946147456169
  0
VERTEX
  5
43B8B
  8
ASHADE
 10
5.0867865558735339
 20
2.4676676966442801
 30
-0.0090946147456169
  0
VERTEX
  5
43B8C
  8
ASHADE
 10
5.0765745558735347
 20
2.4692076966442791
 30
-0.0090946147456169
  0
VERTEX
  5
43B8D
  8
ASHADE
 10
5.0663005558735339
 20
2.470607696644278
 30
-0.0090946147456169
  0
VERTEX
  5
43B8E
  8
ASHADE
 10
5.055969555873534
 20
2.4718576966442791
 30
-0.0090946147456169
  0
VERTEX
  5
43B8F
  8
ASHADE
 10
5.045587555873535
 20
2.4729676966442802
 30
-0.0090946147456169
  0
VERTEX
  5
43B90
  8
ASHADE
 10
5.0351615558735361
 20
2.473927696644278
 30
-0.0090946147456169
  0
VERTEX
  5
43B91
  8
ASHADE
 10
5.0246975558735363
 20
2.4747376966442789
 30
-0.0090946147456169
  0
VERTEX
  5
43B92
  8
ASHADE
 10
5.0142015558735347
 20
2.475407696644278
 30
-0.0090946147456169
  0
VERTEX
  5
43B93
  8
ASHADE
 10
5.003680555873534
 20
2.4759276966442791
 30
-0.0090946147456169
  0
VERTEX
  5
43B94
  8
ASHADE
 10
4.9931395558735341
 20
2.4762976966442789
 30
-0.0090946147456169
  0
VERTEX
  5
43B95
  8
ASHADE
 10
4.982586555873536
 20
2.476517696644279
 30
-0.0090946147456169
  0
VERTEX
  5
43B96
  8
ASHADE
 10
4.9720275558735363
 20
2.4765976966442791
 30
-0.0090946147456169
  0
VERTEX
  5
43B97
  8
ASHADE
 10
4.9614675558735346
 20
2.476517696644279
 30
-0.0090946147456169
  0
VERTEX
  5
43B98
  8
ASHADE
 10
4.9509145558735339
 20
2.4762976966442789
 30
-0.0090946147456169
  0
VERTEX
  5
43B99
  8
ASHADE
 10
4.940374555873535
 20
2.4759276966442791
 30
-0.0090946147456169
  0
VERTEX
  5
43B9A
  8
ASHADE
 10
4.9298535558735361
 20
2.475407696644278
 30
-0.0090946147456169
  0
VERTEX
  5
43B9B
  8
ASHADE
 10
4.9193575558735363
 20
2.4747376966442789
 30
-0.0090946147456169
  0
VERTEX
  5
43B9C
  8
ASHADE
 10
4.9088935558735347
 20
2.473927696644278
 30
-0.0090946147456169
  0
VERTEX
  5
43B9D
  8
ASHADE
 10
4.898467555873534
 20
2.4729676966442802
 30
-0.0090946147456169
  0
VERTEX
  5
43B9E
  8
ASHADE
 10
4.8880855558735341
 20
2.4718576966442791
 30
-0.0090946147456169
  0
VERTEX
  5
43B9F
  8
ASHADE
 10
4.877754555873536
 20
2.470607696644278
 30
-0.0090946147456169
  0
VERTEX
  5
43BA0
  8
ASHADE
 10
4.8674795558735351
 20
2.4692076966442791
 30
-0.0090946147456169
  0
VERTEX
  5
43BA1
  8
ASHADE
 10
4.857268555873536
 20
2.4676676966442801
 30
-0.0090946147456169
  0
VERTEX
  5
43BA2
  8
ASHADE
 10
4.847126555873535
 20
2.4659776966442779
 30
-0.0090946147456169
  0
VERTEX
  5
43BA3
  8
ASHADE
 10
4.8370595558735348
 20
2.4641476966442801
 30
-0.0090946147456169
  0
VERTEX
  5
43BA4
  8
ASHADE
 10
4.827073555873536
 20
2.4621876966442802
 30
-0.0090946147456169
  0
VERTEX
  5
43BA5
  8
ASHADE
 10
4.8171745558735362
 20
2.4600776966442792
 30
-0.0090946147456169
  0
VERTEX
  5
43BA6
  8
ASHADE
 10
4.8073695558735361
 20
2.4578276966442791
 30
-0.0090946147456169
  0
VERTEX
  5
43BA7
  8
ASHADE
 10
4.7976635558735339
 20
2.4554476966442791
 30
-0.0090946147456169
  0
VERTEX
  5
43BA8
  8
ASHADE
 10
4.7880625558735339
 20
2.452927696644279
 30
-0.0090946147456169
  0
VERTEX
  5
43BA9
  8
ASHADE
 10
4.7785725558735361
 20
2.4502676966442789
 30
-0.0090946147456169
  0
VERTEX
  5
43BAA
  8
ASHADE
 10
4.769198555873535
 20
2.447487696644278
 30
-0.0090946147456169
  0
VERTEX
  5
43BAB
  8
ASHADE
 10
4.759947555873536
 20
2.4445676966442802
 30
-0.0090946147456169
  0
VERTEX
  5
43BAC
  8
ASHADE
 10
4.7508235558735361
 20
2.4415176966442802
 30
-0.0090946147456169
  0
VERTEX
  5
43BAD
  8
ASHADE
 10
4.7418335558735363
 20
2.438347696644279
 30
-0.0090946147456169
  0
VERTEX
  5
43BAE
  8
ASHADE
 10
4.7329815558735362
 20
2.4350476966442791
 30
-0.0090946147456169
  0
VERTEX
  5
43BAF
  8
ASHADE
 10
4.724273555873534
 20
2.431627696644278
 30
-0.0090946147456169
  0
VERTEX
  5
43BB0
  8
ASHADE
 10
4.7157145558735341
 20
2.4280776966442792
 30
-0.0090946147456169
  0
VERTEX
  5
43BB1
  8
ASHADE
 10
4.7073105558735362
 20
2.4244176966442801
 30
-0.0090946147456169
  0
VERTEX
  5
43BB2
  8
ASHADE
 10
4.6990655558735339
 20
2.4206376966442802
 30
-0.0090946147456169
  0
VERTEX
  5
43BB3
  8
ASHADE
 10
4.6909855558735361
 20
2.4167376966442791
 30
-0.0090946147456169
  0
VERTEX
  5
43BB4
  8
ASHADE
 10
4.683074555873536
 20
2.4127376966442791
 30
-0.0090946147456169
  0
VERTEX
  5
43BB5
  8
ASHADE
 10
4.6753375558735346
 20
2.4086176966442792
 30
-0.0090946147456169
  0
VERTEX
  5
43BB6
  8
ASHADE
 10
4.6677785558735341
 20
2.404387696644279
 30
-0.0090946147456169
  0
VERTEX
  5
43BB7
  8
ASHADE
 10
4.6604085558735351
 20
2.400057696644279
 30
-0.0090946147456169
  0
VERTEX
  5
43BB8
  8
ASHADE
 10
4.6532185558735364
 20
2.395627696644278
 30
-0.0090946147456169
  0
VERTEX
  5
43BB9
  8
ASHADE
 10
4.6462185558735341
 20
2.391097696644279
 30
-0.0090946147456169
  0
VERTEX
  5
43BBA
  8
ASHADE
 10
4.6394185558735339
 20
2.3864676966442802
 30
-0.0090946147456169
  0
VERTEX
  5
43BBB
  8
ASHADE
 10
4.6328285558735347
 20
2.381747696644279
 30
-0.0090946147456169
  0
VERTEX
  5
43BBC
  8
ASHADE
 10
4.6264285558735363
 20
2.3769276966442781
 30
-0.0090946147456169
  0
VERTEX
  5
43BBD
  8
ASHADE
 10
4.620248555873534
 20
2.3720276966442779
 30
-0.0090946147456169
  0
VERTEX
  5
43BBE
  8
ASHADE
 10
4.6142685558735339
 20
2.367037696644279
 30
-0.0090946147456169
  0
VERTEX
  5
43BBF
  8
ASHADE
 10
4.6085085558735361
 20
2.3619676966442791
 30
-0.0090946147456169
  0
VERTEX
  5
43BC0
  8
ASHADE
 10
4.6029685558735363
 20
2.3568176966442791
 30
-0.0090946147456169
  0
VERTEX
  5
43BC1
  8
ASHADE
 10
4.5976585558735339
 20
2.351587696644279
 30
-0.0090946147456169
  0
VERTEX
  5
43BC2
  8
ASHADE
 10
4.592558555873536
 20
2.3462876966442789
 30
-0.0090946147456169
  0
VERTEX
  5
43BC3
  8
ASHADE
 10
4.5876985558735361
 20
2.3409176966442802
 30
-0.0090946147456169
  0
VERTEX
  5
43BC4
  8
ASHADE
 10
4.5830685558735347
 20
2.3354776966442792
 30
-0.0090946147456169
  0
VERTEX
  5
43BC5
  8
ASHADE
 10
4.5786685558735361
 20
2.3299776966442791
 30
-0.0090946147456169
  0
VERTEX
  5
43BC6
  8
ASHADE
 10
4.5745085558735363
 20
2.3244176966442791
 30
-0.0090946147456169
  0
VERTEX
  5
43BC7
  8
ASHADE
 10
4.5705885558735364
 20
2.3187976966442791
 30
-0.0090946147456169
  0
VERTEX
  5
43BC8
  8
ASHADE
 10
4.5669085558735363
 20
2.313127696644278
 30
-0.0090946147456169
  0
VERTEX
  5
43BC9
  8
ASHADE
 10
4.5634685558735351
 20
2.3074076966442791
 30
-0.0090946147456169
  0
VERTEX
  5
43BCA
  8
ASHADE
 10
4.560278555873535
 20
2.3016376966442791
 30
-0.0090946147456169
  0
VERTEX
  5
43BCB
  8
ASHADE
 10
4.5573385558735362
 20
2.2958276966442792
 30
-0.0090946147456169
  0
VERTEX
  5
43BCC
  8
ASHADE
 10
4.554648555873535
 20
2.2899776966442791
 30
-0.0090946147456169
  0
VERTEX
  5
43BCD
  8
ASHADE
 10
4.552208555873535
 20
2.2840876966442791
 30
-0.0090946147456169
  0
VERTEX
  5
43BCE
  8
ASHADE
 10
4.5500185558735362
 20
2.278167696644279
 30
-0.0090946147456169
  0
VERTEX
  5
43BCF
  8
ASHADE
 10
4.5480885558735347
 20
2.2722276966442791
 30
-0.0090946147456169
  0
VERTEX
  5
43BD0
  8
ASHADE
 10
4.5464085558735361
 20
2.2662476966442791
 30
-0.0090946147456169
  0
VERTEX
  5
43BD1
  8
ASHADE
 10
4.5449885558735339
 20
2.260257696644278
 30
-0.0090946147456169
  0
VERTEX
  5
43BD2
  8
ASHADE
 10
4.5438285558735361
 20
2.254237696644279
 30
-0.0090946147456169
  0
VERTEX
  5
43BD3
  8
ASHADE
 10
4.5429185558735341
 20
2.2482176966442791
 30
-0.0090946147456169
  0
VERTEX
  5
43BD4
  8
ASHADE
 10
4.5422785558735361
 20
2.242177696644279
 30
-0.0090946147456169
  0
VERTEX
  5
43BD5
  8
ASHADE
 10
4.541888555873534
 20
2.236127696644278
 30
-0.0090946147456169
  0
VERTEX
  5
43BD6
  8
ASHADE
 10
4.5417585558735363
 20
2.2300776966442779
 30
-0.0090946147456169
  0
SEQEND
  5
43BD7
  8
ASHADE
  0
POLYLINE
  5
439B5
  8
ASHADE
 66
     1
 10
0.0
 20
0.0
 30
-0.0053086160570383
  0
VERTEX
  5
43BD8
  8
ASHADE
 10
8.7789654798060646
 20
2.98784407454353
 30
-0.0053086160570383
  0
VERTEX
  5
43BD9
  8
ASHADE
 10
8.7789563279300928
 20
2.7851114833317281
 30
-0.0053086160570383
 42
0.2848825664362529
  0
VERTEX
  5
43BDA
  8
ASHADE
 10
8.8064475441989831
 20
2.757552368815948
 30
-0.0053086160570383
  0
VERTEX
  5
43BDB
  8
ASHADE
 10
9.2435839259494408
 20
2.757552368815948
 30
-0.0053086160570383
 42
-0.0242968386937145
  0
VERTEX
  5
43BDC
  8
ASHADE
 10
10.55337085153157
 20
2.7350842786393912
 30
-0.0053086160570383
 42
0.001490042310452
  0
VERTEX
  5
43BDD
  8
ASHADE
 10
11.414769498564169
 20
2.6809549579427649
 30
-0.0053086160570383
 42
0.0493043503978218
  0
VERTEX
  5
43BDE
  8
ASHADE
 10
11.518824306264509
 20
2.7383376532159329
 30
-0.0053086160570383
 42
0.0868512704396915
  0
VERTEX
  5
43BDF
  8
ASHADE
 10
11.52859757114946
 20
2.7618516385517582
 30
-0.0053086160570383
  0
VERTEX
  5
43BE0
  8
ASHADE
 10
11.52859780581295
 20
2.974064517285631
 30
-0.0053086160570383
  0
VERTEX
  5
43BE1
  8
ASHADE
 10
11.52859757114946
 20
3.1862773960195039
 30
-0.0053086160570383
 42
0.0868512704396898
  0
VERTEX
  5
43BE2
  8
ASHADE
 10
11.518824306264509
 20
3.2097913813553389
 30
-0.0053086160570383
 42
0.0493043503978218
  0
VERTEX
  5
43BE3
  8
ASHADE
 10
11.41476949856415
 20
3.2671740766285211
 30
-0.0053086160570383
 42
0.0014900423104519
  0
VERTEX
  5
43BE4
  8
ASHADE
 10
10.553370851531611
 20
3.2130447559319069
 30
-0.0053086160570383
 42
-0.0242968386937145
  0
VERTEX
  5
43BE5
  8
ASHADE
 10
9.2435839259494408
 20
3.190576665755319
 30
-0.0053086160570383
  0
VERTEX
  5
43BE6
  8
ASHADE
 10
8.8064475441989831
 20
3.1905766657553198
 30
-0.0053086160570383
 42
0.2848825664362492
  0
VERTEX
  5
43BE7
  8
ASHADE
 10
8.7789563279300928
 20
3.1630175512395362
 30
-0.0053086160570383
  0
VERTEX
  5
43BE8
  8
ASHADE
 10
8.7789654798060646
 20
2.9602849600277432
 30
-0.0053086160570383
  0
SEQEND
  5
43BE9
  8
ASHADE
  0
POLYLINE
  5
439BD
  8
ASHADE
 66
     1
 10
0.0
 20
0.0
 30
-0.0069737294912338
  0
VERTEX
  5
43BEA
  8
ASHADE
 10
9.0111044907277122
 20
-0.0000000844607104
 30
-0.0069737294912338
  0
VERTEX
  5
43BEB
  8
ASHADE
 10
8.0799719788735391
 20
-0.0000000844607104
 30
-0.0069737294912338
  0
VERTEX
  5
43BEC
  8
ASHADE
 10
8.0662244531815546
 20
-0.0000000844607104
 30
-0.0069737294912338
 42
-0.4541754827713167
  0
VERTEX
  5
43BED
  8
ASHADE
 10
8.0662244531815546
 20
0.0787399137168698
 30
-0.0069737294912338
  0
VERTEX
  5
43BEE
  8
ASHADE
 10
8.154499224871925
 20
0.0787399137168805
 30
-0.0069737294912338
  0
VERTEX
  5
43BEF
  8
ASHADE
 10
8.1598612855380086
 20
0.0862468133158601
 30
-0.0069737294912338
  0
VERTEX
  5
43BF0
  8
ASHADE
 10
8.1598612855380068
 20
0.1574799119568928
 30
-0.0069737294912338
 42
0.0907880595832149
  0
VERTEX
  5
43BF1
  8
ASHADE
 10
8.5929824984972996
 20
1.4370048943571241
 30
-0.0069737294912338
 42
0.0309568980485059
  0
VERTEX
  5
43BF2
  8
ASHADE
 10
8.6816965602343572
 20
2.232748601015611
 30
-0.0069737294912338
 42
0.0245857084957597
  0
VERTEX
  5
43BF3
  8
ASHADE
 10
8.6816946800166743
 20
2.299200841780709
 30
-0.0069737294912338
 42
-0.1201069029345197
  0
VERTEX
  5
43BF4
  8
ASHADE
 10
8.7153749944870977
 20
2.362200478669215
 30
-0.0069737294912338
  0
VERTEX
  5
43BF5
  8
ASHADE
 10
9.0117872270273782
 20
2.3624007863915262
 30
-0.0069737294912338
  0
VERTEX
  5
43BF6
  8
ASHADE
 10
9.308199459567664
 20
2.362200478669215
 30
-0.0069737294912338
 42
-0.1201069029345197
  0
VERTEX
  5
43BF7
  8
ASHADE
 10
9.3418797740380874
 20
2.299200841780709
 30
-0.0069737294912338
 42
0.0245857084957596
  0
VERTEX
  5
43BF8
  8
ASHADE
 10
9.3418778938204028
 20
2.232748601015611
 30
-0.0069737294912338
 42
0.0309568980485057
  0
VERTEX
  5
43BF9
  8
ASHADE
 10
9.4305919555574622
 20
1.4370048943571281
 30
-0.0069737294912338
 42
0.0907880595832148
  0
VERTEX
  5
43BFA
  8
ASHADE
 10
9.8637131685167496
 20
0.1574799119568944
 30
-0.0069737294912338
  0
VERTEX
  5
43BFB
  8
ASHADE
 10
9.8637131685167496
 20
0.0862468133158601
 30
-0.0069737294912338
  0
VERTEX
  5
43BFC
  8
ASHADE
 10
9.8690752291828314
 20
0.0787399137168805
 30
-0.0069737294912338
  0
VERTEX
  5
43BFD
  8
ASHADE
 10
9.9573500008732019
 20
0.0787399137168698
 30
-0.0069737294912338
 42
-0.4541754827713163
  0
VERTEX
  5
43BFE
  8
ASHADE
 10
9.9573500008732019
 20
-0.0000000844607104
 30
-0.0069737294912338
  0
VERTEX
  5
43BFF
  8
ASHADE
 10
9.9436024751812191
 20
-0.0000000844607104
 30
-0.0069737294912338
  0
VERTEX
  5
43C00
  8
ASHADE
 10
9.0124699633270478
 20
-0.0000000844607104
 30
-0.0069737294912338
  0
SEQEND
  5
43C01
  8
ASHADE
  0
POLYLINE
  5
439DB
  8
ASHADE
 66
     1
 10
0.0
 20
0.0
 30
0.0018699746578935
  0
VERTEX
  5
43C02
  8
ASHADE
 10
1.2088738784841151
 20
2.3622229320162438
 30
0.0018699746578935
  0
VERTEX
  5
43C03
  8
ASHADE
 10
1.2088738788334401
 20
2.3970900956363792
 30
0.0018699746578935
  0
VERTEX
  5
43C04
  8
ASHADE
 10
1.219226644903427
 20
2.4070323182315949
 30
0.0018699746578935
  0
VERTEX
  5
43C05
  8
ASHADE
 10
1.264484666228296
 20
2.4070323182315949
 30
0.0018699746578935
  0
VERTEX
  5
43C06
  8
ASHADE
 10
1.274617200911045
 20
2.416974540826808
 30
0.0018699746578935
  0
VERTEX
  5
43C07
  8
ASHADE
 10
1.27452755945921
 20
2.615820400712022
 30
0.0018699746578935
 42
0.2754290154861736
  0
VERTEX
  5
43C08
  8
ASHADE
 10
1.235899133622645
 20
2.6507192024262092
 30
0.0018699746578935
 42
-0.2568943854066696
  0
VERTEX
  5
43C09
  8
ASHADE
 10
1.183150067150593
 20
2.6788716635675609
 30
0.0018699746578935
 42
0.0047142556754369
  0
VERTEX
  5
43C0A
  8
ASHADE
 10
1.178375369191172
 20
2.6930077919931552
 30
0.0018699746578935
  0
VERTEX
  5
43C0B
  8
ASHADE
 10
1.178393672943119
 20
2.7851115677924319
 30
0.0018699746578935
  0
SEQEND
  5
43C0C
  8
ASHADE
  0
POLYLINE
  5
439E4
  8
ASHADE
 66
     1
 10
0.0
 20
0.0
 30
0.0018699746578935
  0
VERTEX
  5
43C0D
  8
ASHADE
 10
0.5644802007675197
 20
2.7575524532766491
 30
0.0018699746578935
 42
-0.2320040710969417
  0
VERTEX
  5
43C0E
  8
ASHADE
 10
0.6169495483636878
 20
2.7062252128691822
 30
0.0018699746578935
  0
VERTEX
  5
43C0F
  8
ASHADE
 10
0.6171363404989239
 20
2.416974540826808
 30
0.0018699746578935
  0
VERTEX
  5
43C10
  8
ASHADE
 10
0.627279435038564
 20
2.4070323182315949
 30
0.0018699746578935
  0
VERTEX
  5
43C11
  8
ASHADE
 10
0.6725380430221605
 20
2.4070323182315949
 30
0.0018699746578935
 42
-0.289658569222435
  0
VERTEX
  5
43C12
  8
ASHADE
 10
0.6828904573917427
 20
2.3823762257070702
 30
0.0018699746578935
  0
VERTEX
  5
43C13
  8
ASHADE
 10
0.6828904573917427
 20
2.362223363692781
 30
0.0018699746578935
  0
SEQEND
  5
43C14
  8
ASHADE
  0
POLYLINE
  5
439EA
  8
ASHADE
 66
     1
 10
0.0
 20
0.0
 30
-0.0051037548333404
  0
VERTEX
  5
43C15
  8
ASHADE
 10
8.7484761223890963
 20
2.362222847555544
 30
-0.0051037548333404
  0
VERTEX
  5
43C16
  8
ASHADE
 10
8.7484761220397633
 20
2.3970900111756821
 30
-0.0051037548333404
  0
VERTEX
  5
43C17
  8
ASHADE
 10
8.7381233559697851
 20
2.407032233770896
 30
-0.0051037548333404
  0
VERTEX
  5
43C18
  8
ASHADE
 10
8.6928653346449156
 20
2.407032233770896
 30
-0.0051037548333404
  0
VERTEX
  5
43C19
  8
ASHADE
 10
8.6827327999621602
 20
2.4169744563661082
 30
-0.0051037548333404
  0
VERTEX
  5
43C1A
  8
ASHADE
 10
8.6828224414139967
 20
2.6158203162513241
 30
-0.0051037548333404
 42
-0.2754290154861753
  0
VERTEX
  5
43C1B
  8
ASHADE
 10
8.7214508672505602
 20
2.6507191179655059
 30
-0.0051037548333404
 42
0.2568943854066715
  0
VERTEX
  5
43C1C
  8
ASHADE
 10
8.7741999337226115
 20
2.678871579106854
 30
-0.0051037548333404
 42
-0.004714255675437
  0
VERTEX
  5
43C1D
  8
ASHADE
 10
8.7789746316820345
 20
2.6930077075324581
 30
-0.0051037548333404
  0
VERTEX
  5
43C1E
  8
ASHADE
 10
8.7789563279300928
 20
2.7851114833317281
 30
-0.0051037548333404
  0
SEQEND
  5
43C1F
  8
ASHADE
  0
POLYLINE
  5
439F3
  8
ASHADE
 66
     1
 10
0.0
 20
0.0
 30
-0.0051037548333404
  0
VERTEX
  5
43C20
  8
ASHADE
 10
9.3928698001056876
 20
2.757552368815948
 30
-0.0051037548333404
 42
0.2320040710969418
  0
VERTEX
  5
43C21
  8
ASHADE
 10
9.3404004525095221
 20
2.7062251284084851
 30
-0.0051037548333404
  0
VERTEX
  5
43C22
  8
ASHADE
 10
9.3402136603742854
 20
2.4169744563661082
 30
-0.0051037548333404
  0
VERTEX
  5
43C23
  8
ASHADE
 10
9.3300705658346406
 20
2.407032233770896
 30
-0.0051037548333404
  0
VERTEX
  5
43C24
  8
ASHADE
 10
9.2848119578510477
 20
2.407032233770896
 30
-0.0051037548333404
 42
0.2896585692224355
  0
VERTEX
  5
43C25
  8
ASHADE
 10
9.2744595434814681
 20
2.3823761412463651
 30
-0.0051037548333404
  0
VERTEX
  5
43C26
  8
ASHADE
 10
9.2744595434814681
 20
2.3622232792320799
 30
-0.0051037548333404
  0
SEQEND
  5
43C27
  8
ASHADE
  0
POLYLINE
  5
439F9
  8
ASHADE
 66
     1
 10
0.0
 20
0.0
 30
-0.0051037548333404
  0
VERTEX
  5
43C28
  8
ASHADE
 10
8.7381233559697851
 20
2.407032233770896
 30
-0.0051037548333404
  0
VERTEX
  5
43C29
  8
ASHADE
 10
9.3074412618428433
 20
2.407032233770896
 30
-0.0051037548333404
  0
SEQEND
  5
43C2A
  8
ASHADE
  0
POLYLINE
  5
439FA
  8
ASHADE
 66
     1
 10
0.0
 20
0.0
 30
-0.0069737294912338
  0
VERTEX
  5
43C2B
  8
ASHADE
 10
9.8690752291828314
 20
0.0787399137168805
 30
-0.0069737294912338
  0
VERTEX
  5
43C2C
  8
ASHADE
 10
8.154499224871925
 20
0.0787399137168805
 30
-0.0069737294912338
  0
SEQEND
  5
43C2D
  8
ASHADE
  0
POLYLINE
  5
439FB
  8
ASHADE
 66
     1
 10
0.0
 20
0.0
 30
-5.4438966909444373
210
-0.9997952056629923
220
-0.0202372610126752
230
0.0
  0
VERTEX
  5
43C2E
  8
ASHADE
 10
-2.146956146132744
 20
-0.0090946180820462
 30
-5.4438966909444373
  0
VERTEX
  5
43C2F
  8
ASHADE
 10
-3.103156918558077
 20
-0.0034868647456169
 30
-5.4438966909444373
  0
SEQEND
  5
43C30
  8
ASHADE
  0
POLYLINE
  5
439FC
  8
ASHADE
 66
     1
 10
0.0
 20
0.0
 30
-4.4976693907604144
210
-0.9997952056629923
220
0.0202372610126724
230
0.0
  0
VERTEX
  5
43C31
  8
ASHADE
 10
-2.3481874248292569
 20
-0.0090946180820462
 30
-4.4976693907604144
  0
VERTEX
  5
43C32
  8
ASHADE
 10
-3.3043881972545899
 20
-0.0034868647456169
 30
-4.4976693907604144
  0
SEQEND
  5
43C33
  8
ASHADE
  0
POLYLINE
  5
439FD
  8
ASHADE
 66
     1
 10
0.0
 20
0.0
 30
-4.5417557882815593
 70
     1
210
-1.0
220
0.0
230
0.0
  0
VERTEX
  5
43C34
  8
ASHADE
 10
-2.2300800923080559
 20
-0.0090946180820462
 30
-4.5417557882815593
  0
VERTEX
  5
43C35
  8
ASHADE
 10
-2.0631165523500581
 20
-0.0091871928274629
 30
-4.5417557882815593
  0
SEQEND
  5
43C36
  8
ASHADE
  0
POLYLINE
  5
439FF
  8
ASHADE
 66
     1
 10
0.0
 20
0.0
 30
0.0
  0
VERTEX
  5
43C37
  8
ASHADE
 10
0.0882747716903696
 20
0.0787399981775696
 30
0.0
  0
VERTEX
  5
43C38
  8
ASHADE
 10
1.8028507760012791
 20
0.0787399981775696
 30
0.0
  0
SEQEND
  5
43C39
  8
ASHADE
  0
ENDSEC
  0
EOF
