  0
SECTION
  2
HEADER
  9
$ACADVER
  1
AC1009
  9
$INSBASE
 10
0.0
 20
0.0
 30
0.0
  9
$EXTMIN
 10
-26.70617142857143
 20
-7.9706655
 30
-0.0027717108523519
  9
$EXTMAX
 10
6.545882418321189
 20
6.0849098201821974
 30
0.0001653212497822
  9
$LIMMIN
 10
0.0
 20
0.0
  9
$LIMMAX
 10
420.0
 20
297.0
  9
$ORTHOMODE
 70
     1
  9
$REGENMODE
 70
     1
  9
$FILLMODE
 70
     1
  9
$QTEXTMODE
 70
     0
  9
$MIRRTEXT
 70
     1
  9
$DRAGMODE
 70
     2
  9
$LTSCALE
 40
1.0
  9
$OSMODE
 70
    37
  9
$ATTMODE
 70
     1
  9
$TEXTSIZE
 40
0.001
  9
$TRACEWID
 40
1.0
  9
$TEXTSTYLE
  7
STANDARD
  9
$CLAYER
  8
0
  9
$CELTYPE
  6
BYLAYER
  9
$CECOLOR
 62
   256
  9
$DIMSCALE
 40
1.0
  9
$DIMASZ
 40
2.5
  9
$DIMEXO
 40
0.625
  9
$DIMDLI
 40
3.75
  9
$DIMRND
 40
0.0
  9
$DIMDLE
 40
0.0
  9
$DIMEXE
 40
1.25
  9
$DIMTP
 40
0.0
  9
$DIMTM
 40
0.0
  9
$DIMTXT
 40
2.5
  9
$DIMCEN
 40
2.5
  9
$DIMTSZ
 40
0.0
  9
$DIMTOL
 70
     0
  9
$DIMLIM
 70
     0
  9
$DIMTIH
 70
     0
  9
$DIMTOH
 70
     0
  9
$DIMSE1
 70
     0
  9
$DIMSE2
 70
     0
  9
$DIMTAD
 70
     1
  9
$DIMZIN
 70
     8
  9
$DIMBLK
  1

  9
$DIMASO
 70
     1
  9
$DIMSHO
 70
     1
  9
$DIMPOST
  1

  9
$DIMAPOST
  1

  9
$DIMALT
 70
     0
  9
$DIMALTD
 70
     3
  9
$DIMALTF
 40
0.03937007874016
  9
$DIMLFAC
 40
1.0
  9
$DIMTOFL
 70
     1
  9
$DIMTVP
 40
0.0
  9
$DIMTIX
 70
     0
  9
$DIMSOXD
 70
     0
  9
$DIMSAH
 70
     0
  9
$DIMBLK1
  1

  9
$DIMBLK2
  1

  9
$DIMSTYLE
  2
ISO-25
  9
$DIMCLRD
 70
     0
  9
$DIMCLRE
 70
     0
  9
$DIMCLRT
 70
     0
  9
$DIMTFAC
 40
1.0
  9
$DIMGAP
 40
0.625
  9
$LUNITS
 70
     2
  9
$LUPREC
 70
     4
  9
$SKETCHINC
 40
1.0
  9
$FILLETRAD
 40
0.0
  9
$AUNITS
 70
     0
  9
$AUPREC
 70
     0
  9
$MENU
  1
.
  9
$ELEVATION
 40
0.0
  9
$PELEVATION
 40
0.0
  9
$THICKNESS
 40
0.0
  9
$LIMCHECK
 70
     0
  9
$BLIPMODE
 70
     0
  9
$CHAMFERA
 40
10.0
  9
$CHAMFERB
 40
10.0
  9
$SKPOLY
 70
     0
  9
$TDCREATE
 40
2453378.22126956
  9
$TDUPDATE
 40
2453411.4957005898
  9
$TDINDWG
 40
0.3620862384
  9
$TDUSRTIMER
 40
0.3620729282
  9
$USRTIMER
 70
     1
  9
$ANGBASE
 50
0.0
  9
$ANGDIR
 70
     0
  9
$PDMODE
 70
     0
  9
$PDSIZE
 40
0.0
  9
$PLINEWID
 40
0.0
  9
$COORDS
 70
     1
  9
$SPLFRAME
 70
     0
  9
$SPLINETYPE
 70
     6
  9
$SPLINESEGS
 70
     8
  9
$ATTDIA
 70
     0
  9
$ATTREQ
 70
     1
  9
$HANDLING
 70
     1
  9
$HANDSEED
  5
43CCF
  9
$SURFTAB1
 70
     6
  9
$SURFTAB2
 70
     6
  9
$SURFTYPE
 70
     6
  9
$SURFU
 70
     6
  9
$SURFV
 70
     6
  9
$UCSNAME
  2

  9
$UCSORG
 10
0.0
 20
0.0
 30
0.0
  9
$UCSXDIR
 10
1.0
 20
0.0
 30
0.0
  9
$UCSYDIR
 10
0.0
 20
1.0
 30
0.0
  9
$PUCSNAME
  2

  9
$PUCSORG
 10
0.0
 20
0.0
 30
0.0
  9
$PUCSXDIR
 10
1.0
 20
0.0
 30
0.0
  9
$PUCSYDIR
 10
0.0
 20
1.0
 30
0.0
  9
$USERI1
 70
     0
  9
$USERI2
 70
     0
  9
$USERI3
 70
     0
  9
$USERI4
 70
     0
  9
$USERI5
 70
     0
  9
$USERR1
 40
0.0
  9
$USERR2
 40
0.0
  9
$USERR3
 40
0.0
  9
$USERR4
 40
0.0
  9
$USERR5
 40
0.0
  9
$WORLDVIEW
 70
     1
  9
$SHADEDGE
 70
     3
  9
$SHADEDIF
 70
    70
  9
$TILEMODE
 70
     1
  9
$MAXACTVP
 70
    64
  9
$PLIMCHECK
 70
     0
  9
$PEXTMIN
 10
1.0000000000000000E+020
 20
1.0000000000000000E+020
 30
1.0000000000000000E+020
  9
$PEXTMAX
 10
-1.0000000000000000E+020
 20
-1.0000000000000000E+020
 30
-1.0000000000000000E+020
  9
$PLIMMIN
 10
0.0
 20
0.0
  9
$PLIMMAX
 10
420.0
 20
297.0
  9
$UNITMODE
 70
     0
  9
$VISRETAIN
 70
     1
  9
$PLINEGEN
 70
     0
  9
$PSLTSCALE
 70
     1
  0
ENDSEC
  0
SECTION
  2
TABLES
  0
TABLE
  2
VPORT
 70
     2
  0
VPORT
  2
*ACTIVE
 70
     0
 10
0.0
 20
0.0
 11
1.0
 21
1.0
 12
0.4396520715125201
 22
3.07412110716092
 13
0.0
 23
0.0
 14
10.0
 24
10.0
 15
10.0
 25
10.0
 16
0.0
 26
0.0
 36
1.0
 17
0.0
 27
0.0
 37
0.0
 40
7.2063476602721721
 41
1.9608247422680409
 42
50.0
 43
0.0
 44
0.0
 50
0.0
 51
0.0
 71
     0
 72
  1000
 73
     1
 74
     3
 75
     0
 76
     0
 77
     0
 78
     0
  0
ENDTAB
  0
TABLE
  2
LTYPE
 70
     1
  0
LTYPE
  2
CONTINUOUS
 70
     0
  3
Solid line
 72
    65
 73
     0
 40
0.0
  0
ENDTAB
  0
TABLE
  2
LAYER
 70
     3
  0
LAYER
  2
0
 70
     0
 62
     7
  6
CONTINUOUS
  0
LAYER
  2
ASHADE
 70
     0
 62
     7
  6
CONTINUOUS
  0
LAYER
  2
DEFPOINTS
 70
     0
 62
     7
  6
CONTINUOUS
  0
ENDTAB
  0
TABLE
  2
STYLE
 70
     2
  0
STYLE
  2
STANDARD
 70
     0
 40
0.0
 41
1.0
 50
0.0
 71
     0
 42
0.001
  3
txt
  4

  0
STYLE
  2
ASHADE
 70
     0
 40
0.2
 41
1.0
 50
0.0
 71
     0
 42
2.5
  3
simplex.shx
  4

  0
ENDTAB
  0
TABLE
  2
VIEW
 70
     0
  0
ENDTAB
  0
TABLE
  2
UCS
 70
     0
  0
ENDTAB
  0
TABLE
  2
APPID
 70
     6
  0
APPID
  2
ACAD
 70
     0
  0
APPID
  2
AVE_RENDER
 70
     0
  0
APPID
  2
AVE_ENTITY_MATERIAL
 70
     0
  0
APPID
  2
AVE_FINISH
 70
     0
  0
APPID
  2
AVE_MATERIAL
 70
     0
  0
APPID
  2
AVE_GLOBAL
 70
     0
  0
ENDTAB
  0
TABLE
  2
DIMSTYLE
 70
     2
  0
DIMSTYLE
  2
ISO-25
 70
     0
  3

  4

  5

  6

  7

 40
1.0
 41
2.5
 42
0.625
 43
3.75
 44
1.25
 45
0.0
 46
0.0
 47
0.0
 48
0.0
140
2.5
141
2.5
142
0.0
143
0.03937007874016
144
1.0
145
0.0
146
1.0
147
0.625
 71
     0
 72
     0
 73
     0
 74
     0
 75
     0
 76
     0
 77
     1
 78
     8
170
     0
171
     3
172
     1
173
     0
174
     0
175
     0
176
     0
177
     0
178
     0
  0
DIMSTYLE
  2
STANDARD
 70
     0
  3

  4

  5

  6

  7

 40
1.0
 41
0.18
 42
0.0625
 43
0.38
 44
0.18
 45
0.0
 46
0.0
 47
0.0
 48
0.0
140
0.18
141
0.09
142
0.0
143
25.399999999999999
144
1.0
145
0.0
146
1.0
147
0.09
 71
     0
 72
     0
 73
     1
 74
     1
 75
     0
 76
     0
 77
     0
 78
     0
170
     0
171
     2
172
     0
173
     0
174
     0
175
     0
176
     0
177
     0
178
     0
  0
ENDTAB
  0
ENDSEC
  0
SECTION
  2
BLOCKS
  0
BLOCK
  8
0
  2
$MODEL_SPACE
 70
     0
 10
0.0
 20
0.0
 30
0.0
  3
$MODEL_SPACE
  1

  0
ENDBLK
  5
43678
  8
0
  0
BLOCK
 67
     1
  8
0
  2
$PAPER_SPACE
 70
     0
 10
0.0
 20
0.0
 30
0.0
  3
$PAPER_SPACE
  1

  0
ENDBLK
  5
43674
 67
     1
  8
0
  0
BLOCK
  8
ASHADE
  2
AVE_RENDER
 70
     0
 10
0.0
 20
0.0
 30
0.0
  3
AVE_RENDER
  1
AVE_RENDER
  0
ENDBLK
  5
31
  8
0
  0
BLOCK
  8
ASHADE
  2
AVE_GLOBAL
 70
     0
 10
0.0
 20
0.0
 30
0.0
  3
AVE_GLOBAL
  1
AVE_GLOBAL
  0
ENDBLK
  5
3F
  8
0
  0
BLOCK
  8
ASHADE
  2
RM_SDB
 70
     2
 10
0.0
 20
0.0
 30
0.0
  3
RM_SDB
  1
RM_SDB
  0
ATTDEF
  5
3E65C
  8
ASHADE
  6
CONTINUOUS
 62
     1
 10
0.0000000000000001
 20
-0.15
 30
0.0
 40
0.2
  1

 41
100.0
  7
ASHADE
 72
     1
 11
0.0000000000000001
 21
-0.15
 31
0.0
  3
Name
  2
NAME
 70
     0
  0
ENDBLK
  5
620
  8
0
  0
ENDSEC
  0
SECTION
  2
ENTITIES
  0
ATTDEF
  5
435A4
  8
0
 10
0.0
 20
0.0
 30
0.0
 40
0.001
  1
K-454-4V
  3

  2
MODELNUMBER
 70
     8
  0
ATTDEF
  5
435A5
  8
0
 10
0.0
 20
-0.0016666666666667
 30
0.0
 40
0.001
  1
MEMOIRS STATELY
  3

  2
TRADENAME
 70
     8
  0
ATTDEF
  5
435A6
  8
0
 10
0.0
 20
-0.0033333333333333
 30
0.0
 40
0.001
  1
FAUCETS
  3

  2
PRODUCT
 70
     8
  0
ATTDEF
  5
435A7
  8
0
 10
0.0
 20
-0.005
 30
0.0
 40
0.001
  1
BRASS
  3

  2
MATERIAL
 70
     8
  0
POLYLINE
  5
43882
  8
ASHADE
 66
     1
 10
0.0
 20
0.0
 30
-0.0019966036742244
  0
VERTEX
  5
43A8D
  8
ASHADE
 10
-4.9829792005941203
 20
5.353735901482878
 30
-0.0019966036742244
  0
VERTEX
  5
43A8E
  8
ASHADE
 10
-4.9829792005941203
 20
6.0645671945343969
 30
-0.0019966036742244
  0
VERTEX
  5
43A8F
  8
ASHADE
 10
-4.969231674902117
 20
6.078314602894646
 30
-0.0019966036742244
  0
VERTEX
  5
43A90
  8
ASHADE
 10
-4.0202182747050834
 20
6.078314602894646
 30
-0.0019966036742244
  0
VERTEX
  5
43A91
  8
ASHADE
 10
-3.0712048745080711
 20
6.078314602894646
 30
-0.0019966036742244
  0
VERTEX
  5
43A92
  8
ASHADE
 10
-3.057457348816075
 20
6.0645671945343969
 30
-0.0019966036742244
  0
VERTEX
  5
43A93
  8
ASHADE
 10
-3.057457348816075
 20
4.1665401594768658
 30
-0.0019966036742244
  0
VERTEX
  5
43A94
  8
ASHADE
 10
-3.0712047956541699
 20
4.1527926722627297
 30
-0.0019966036742244
  0
VERTEX
  5
43A95
  8
ASHADE
 10
-4.0202182747050834
 20
4.1527927511166167
 30
-0.0019966036742244
  0
VERTEX
  5
43A96
  8
ASHADE
 10
-4.9692317537560271
 20
4.1527926722627297
 30
-0.0019966036742244
  0
VERTEX
  5
43A97
  8
ASHADE
 10
-4.9829792005941203
 20
4.1665401594768658
 30
-0.0019966036742244
  0
VERTEX
  5
43A98
  8
ASHADE
 10
-4.9829792005941203
 20
4.8828040550162379
 30
-0.0019966036742244
  0
SEQEND
  5
43A99
  8
ASHADE
  0
POLYLINE
  5
4388A
  8
ASHADE
 66
     1
 10
0.0
 20
0.0
 30
0.0001362503410201
  0
VERTEX
  5
43A9A
  8
ASHADE
 10
-4.3496702668755871
 20
5.3509480279683981
 30
0.0001362503410201
  0
VERTEX
  5
43A9B
  8
ASHADE
 10
-4.3496702668765961
 20
5.4333194826077049
 30
0.0001362503410201
  0
VERTEX
  5
43A9C
  8
ASHADE
 10
-4.3380263197347357
 20
5.4450073668788592
 30
0.0001362503410201
  0
VERTEX
  5
43A9D
  8
ASHADE
 10
-4.0564928636237241
 20
5.4450073668788592
 30
0.0001362503410201
  0
SEQEND
  5
43A9E
  8
ASHADE
  0
POLYLINE
  5
4388D
  8
ASHADE
 66
     1
 10
0.0
 20
0.0
 30
-0.0024323874509008
  0
VERTEX
  5
43A9F
  8
ASHADE
 10
-6.5363461171910089
 20
5.1185157755296116
 30
-0.0024323874509008
  0
VERTEX
  5
43AA0
  8
ASHADE
 10
-6.5363463518544886
 20
5.3530273174028187
 30
-0.0024323874509008
 42
-0.0713501078896585
  0
VERTEX
  5
43AA1
  8
ASHADE
 10
-6.444085586182756
 20
5.4272345997373987
 30
-0.0024323874509008
  0
VERTEX
  5
43AA2
  8
ASHADE
 10
-6.422517195813322
 20
5.4330561901758792
 30
-0.0024323874509008
 42
0.0168013169186273
  0
VERTEX
  5
43AA3
  8
ASHADE
 10
-4.8469433695003179
 20
5.35081801934348
 30
-0.0024323874509008
  0
VERTEX
  5
43AA4
  8
ASHADE
 10
-3.8142890974804602
 20
5.351087999684677
 30
-0.0024323874509008
 42
-0.304626065187386
  0
VERTEX
  5
43AA5
  8
ASHADE
 10
-3.760060477726149
 20
5.2626733685563698
 30
-0.0024323874509008
  0
VERTEX
  5
43AA6
  8
ASHADE
 10
-3.7600604777261561
 20
5.1182699782495478
 30
-0.0024323874509008
  0
VERTEX
  5
43AA7
  8
ASHADE
 10
-3.7600604777261482
 20
4.9738665879427471
 30
-0.0024323874509008
 42
-0.3046260651873855
  0
VERTEX
  5
43AA8
  8
ASHADE
 10
-3.8142890974804602
 20
4.8854519568144292
 30
-0.0024323874509008
  0
VERTEX
  5
43AA9
  8
ASHADE
 10
-4.8469433695003161
 20
4.8857219371556262
 30
-0.0024323874509008
 42
0.0168013169186273
  0
VERTEX
  5
43AAA
  8
ASHADE
 10
-6.4225171958133362
 20
4.8034837663232368
 30
-0.0024323874509008
  0
VERTEX
  5
43AAB
  8
ASHADE
 10
-6.444085586182756
 20
4.809305356761727
 30
-0.0024323874509008
 42
-0.0713501078896584
  0
VERTEX
  5
43AAC
  8
ASHADE
 10
-6.5363463518544886
 20
4.8835126390962866
 30
-0.0024323874509008
  0
VERTEX
  5
43AAD
  8
ASHADE
 10
-6.5363461171910089
 20
5.1180241809695071
 30
-0.0024323874509008
  0
SEQEND
  5
43AAE
  8
ASHADE
  0
POLYLINE
  5
4389B
  8
ASHADE
 66
     1
 10
0.0
 20
0.0
 30
-0.0020214804189778
  0
VERTEX
  5
43AAF
  8
ASHADE
 10
-0.4128923549872141
 20
4.1474820817540801
 30
-0.0020214804189778
  0
VERTEX
  5
43AB0
  8
ASHADE
 10
-0.9062588007673396
 20
4.1474820817540801
 30
-0.0020214804189778
 42
-0.2855338941480567
  0
VERTEX
  5
43AB1
  8
ASHADE
 10
-0.9643791971132031
 20
4.2056024780999284
 30
-0.0020214804189778
  0
VERTEX
  5
43AB2
  8
ASHADE
 10
-0.964379197113203
 20
6.0184917229543791
 30
-0.0020214804189778
 42
-0.2855349035330623
  0
VERTEX
  5
43AB3
  8
ASHADE
 10
-0.9062588007673396
 20
6.076612119300238
 30
-0.0020214804189778
  0
VERTEX
  5
43AB4
  8
ASHADE
 10
0.0001858216598798
 20
6.076612119300238
 30
-0.0020214804189778
  0
VERTEX
  5
43AB5
  8
ASHADE
 10
0.9066304440871027
 20
6.076612119300238
 30
-0.0020214804189778
 42
-0.2855349035330609
  0
VERTEX
  5
43AB6
  8
ASHADE
 10
0.9647508404329592
 20
6.0184917229543791
 30
-0.0020214804189778
  0
VERTEX
  5
43AB7
  8
ASHADE
 10
0.9647508404329592
 20
4.2056024780999284
 30
-0.0020214804189778
 42
-0.2855338941480555
  0
VERTEX
  5
43AB8
  8
ASHADE
 10
0.9066304440871027
 20
4.1474820817540801
 30
-0.0020214804189778
  0
VERTEX
  5
43AB9
  8
ASHADE
 10
0.4128114950246271
 20
4.1474820817540801
 30
-0.0020214804189778
  0
SEQEND
  5
43ABA
  8
ASHADE
  0
POLYLINE
  5
438A5
  8
ASHADE
 66
     1
 10
0.0
 20
0.0
 30
-0.0020214804189778
  0
VERTEX
  5
43ABB
  8
ASHADE
 10
-0.9062588007673395
 20
4.1474820817540801
 30
-0.0020214804189778
 42
-0.0640866663308697
  0
VERTEX
  5
43ABC
  8
ASHADE
 10
-0.6055618305131603
 20
4.4241178314219587
 30
-0.0020214804189778
 42
-0.151271653328121
  0
VERTEX
  5
43ABD
  8
ASHADE
 10
-0.5530427929237334
 20
4.441259060455427
 30
-0.0020214804189778
 42
-0.3385944154695969
  0
VERTEX
  5
43ABE
  8
ASHADE
 10
-0.4511346299946238
 20
4.3324054743181248
 30
-0.0020214804189778
 42
-0.0324137992163781
  0
VERTEX
  5
43ABF
  8
ASHADE
 10
-0.3657954398542529
 20
3.8111371466051169
 30
-0.0020214804189778
  0
VERTEX
  5
43AC0
  8
ASHADE
 10
-0.3652095731273093
 20
0.1893648319374153
 30
-0.0020214804189778
  0
SEQEND
  5
43AC1
  8
ASHADE
  0
POLYLINE
  5
438AA
  8
ASHADE
 66
     1
 10
0.0
 20
0.0
 30
-0.0020214804189778
  0
VERTEX
  5
43AC2
  8
ASHADE
 10
0.9061779408047705
 20
4.1474820817540801
 30
-0.0020214804189778
 42
0.0640866663308697
  0
VERTEX
  5
43AC3
  8
ASHADE
 10
0.6054809705505875
 20
4.4241178314219587
 30
-0.0020214804189778
 42
0.151271653328121
  0
VERTEX
  5
43AC4
  8
ASHADE
 10
0.5529619329611606
 20
4.441259060455427
 30
-0.0020214804189778
 42
0.3385944154695968
  0
VERTEX
  5
43AC5
  8
ASHADE
 10
0.4510537700320394
 20
4.3324054743181257
 30
-0.0020214804189778
 42
0.0324137992163781
  0
VERTEX
  5
43AC6
  8
ASHADE
 10
0.3657145798916588
 20
3.8111371466051169
 30
-0.0020214804189778
  0
VERTEX
  5
43AC7
  8
ASHADE
 10
0.3651287131647365
 20
0.1893648319374153
 30
-0.0020214804189778
  0
SEQEND
  5
43AC8
  8
ASHADE
  0
POLYLINE
  5
438AF
  8
ASHADE
 66
     1
 10
0.0
 20
0.0
 30
-0.0019968520199929
 70
     1
  0
VERTEX
  5
43AC9
  8
ASHADE
 10
0.3618202940821718
 20
4.9721606762836972
 30
-0.0019968520199929
  0
VERTEX
  5
43ACA
  8
ASHADE
 10
0.3771163919869238
 20
4.986957245890367
 30
-0.0019968520199929
  0
VERTEX
  5
43ACB
  8
ASHADE
 10
0.3770587249025787
 20
5.7278479124586488
 30
-0.0019968520199929
  0
VERTEX
  5
43ACC
  8
ASHADE
 10
0.3768707007840319
 20
5.7307756034489179
 30
-0.0019968520199929
  0
VERTEX
  5
43ACD
  8
ASHADE
 10
0.3618202060833617
 20
5.7458260688166449
 30
-0.0019968520199929
  0
VERTEX
  5
43ACE
  8
ASHADE
 10
-0.3817442850470378
 20
5.745826156815462
 30
-0.0019968520199929
  0
VERTEX
  5
43ACF
  8
ASHADE
 10
-0.3967947504147808
 20
5.7307756621147847
 30
-0.0019968520199929
  0
VERTEX
  5
43AD0
  8
ASHADE
 10
-0.3967947504147808
 20
4.9872113469820158
 30
-0.0019968520199929
  0
VERTEX
  5
43AD1
  8
ASHADE
 10
-0.3817441970482349
 20
4.9721607936154451
 30
-0.0019968520199929
  0
SEQEND
  5
43AD2
  8
ASHADE
  0
POLYLINE
  5
438B8
  8
ASHADE
 66
     1
 10
0.0
 20
0.0
 30
-0.0018527686392926
  0
VERTEX
  5
43AD3
  8
ASHADE
 10
-0.0099620761479997
 20
5.1096055442820658
 30
-0.0018527686392926
  0
VERTEX
  5
43AD4
  8
ASHADE
 10
-0.2413082055859199
 20
5.1096055442820658
 30
-0.0018527686392926
  0
VERTEX
  5
43AD5
  8
ASHADE
 10
-0.2593499997481565
 20
5.1276473531107749
 30
-0.0018527686392926
  0
VERTEX
  5
43AD6
  8
ASHADE
 10
-0.2593499557487604
 20
5.590339567987197
 30
-0.0018527686392926
  0
VERTEX
  5
43AD7
  8
ASHADE
 10
-0.2413081615865167
 20
5.6083813768158981
 30
-0.0018527686392926
  0
VERTEX
  5
43AD8
  8
ASHADE
 10
-0.0099620321486071
 20
5.6083813768158981
 30
-0.0018527686392926
  0
VERTEX
  5
43AD9
  8
ASHADE
 10
0.2213840972893024
 20
5.6083813768158981
 30
-0.0018527686392926
  0
VERTEX
  5
43ADA
  8
ASHADE
 10
0.2394258914515426
 20
5.590339567987197
 30
-0.0018527686392926
  0
VERTEX
  5
43ADB
  8
ASHADE
 10
0.2394259354509565
 20
5.1276473531107749
 30
-0.0018527686392926
  0
VERTEX
  5
43ADC
  8
ASHADE
 10
0.2213841412887021
 20
5.1096055442820658
 30
-0.0018527686392926
  0
VERTEX
  5
43ADD
  8
ASHADE
 10
-0.0099619881491968
 20
5.1096055442820658
 30
-0.0018527686392926
  0
SEQEND
  5
43ADE
  8
ASHADE
  0
POLYLINE
  5
438C2
  8
ASHADE
 66
     1
 10
0.0
 20
0.0
 30
0.0
  0
VERTEX
  5
43ADF
  8
ASHADE
 10
-0.4045999999999986
 20
0.5665500000000006
 30
0.0
  0
VERTEX
  5
43AE0
  8
ASHADE
 10
-0.4053999999999968
 20
0.5643899999999987
 30
0.0
  0
VERTEX
  5
43AE1
  8
ASHADE
 10
-0.4060999999999986
 20
0.5622299999999987
 30
0.0
  0
VERTEX
  5
43AE2
  8
ASHADE
 10
-0.4068999999999967
 20
0.5600599999999992
 30
0.0
  0
VERTEX
  5
43AE3
  8
ASHADE
 10
-0.4076999999999984
 20
0.5578899999999996
 30
0.0
  0
VERTEX
  5
43AE4
  8
ASHADE
 10
-0.4083999999999969
 20
0.5557099999999986
 30
0.0
  0
VERTEX
  5
43AE5
  8
ASHADE
 10
-0.4090999999999987
 20
0.5535299999999978
 30
0.0
  0
VERTEX
  5
43AE6
  8
ASHADE
 10
-0.409899999999997
 20
0.5513500000000005
 30
0.0
  0
VERTEX
  5
43AE7
  8
ASHADE
 10
-0.4105999999999989
 20
0.5491599999999979
 30
0.0
  0
VERTEX
  5
43AE8
  8
ASHADE
 10
-0.4112999999999972
 20
0.5469699999999991
 30
0.0
  0
VERTEX
  5
43AE9
  8
ASHADE
 10
-0.4118999999999994
 20
0.5447699999999989
 30
0.0
  0
VERTEX
  5
43AEA
  8
ASHADE
 10
-0.4125999999999978
 20
0.5425699999999987
 30
0.0
  0
VERTEX
  5
43AEB
  8
ASHADE
 10
-0.4132999999999997
 20
0.5403699999999985
 30
0.0
  0
VERTEX
  5
43AEC
  8
ASHADE
 10
-0.4138999999999983
 20
0.5381599999999988
 30
0.0
  0
VERTEX
  5
43AED
  8
ASHADE
 10
-0.4144999999999969
 20
0.5359499999999989
 30
0.0
  0
VERTEX
  5
43AEE
  8
ASHADE
 10
-0.4151999999999987
 20
0.533739999999999
 30
0.0
  0
VERTEX
  5
43AEF
  8
ASHADE
 10
-0.4157999999999973
 20
0.5315299999999992
 30
0.0
  0
VERTEX
  5
43AF0
  8
ASHADE
 10
-0.4163999999999996
 20
0.529309999999998
 30
0.0
  0
VERTEX
  5
43AF1
  8
ASHADE
 10
-0.4169999999999982
 20
0.5270799999999989
 30
0.0
  0
VERTEX
  5
43AF2
  8
ASHADE
 10
-0.4174999999999969
 20
0.5248599999999996
 30
0.0
  0
VERTEX
  5
43AF3
  8
ASHADE
 10
-0.4180999999999992
 20
0.5226299999999986
 30
0.0
  0
VERTEX
  5
43AF4
  8
ASHADE
 10
-0.418599999999998
 20
0.5203999999999998
 30
0.0
  0
VERTEX
  5
43AF5
  8
ASHADE
 10
-0.4192000000000001
 20
0.5181599999999991
 30
0.0
  0
VERTEX
  5
43AF6
  8
ASHADE
 10
-0.419699999999999
 20
0.5159299999999985
 30
0.0
  0
VERTEX
  5
43AF7
  8
ASHADE
 10
-0.4201999999999977
 20
0.5136899999999997
 30
0.0
  0
VERTEX
  5
43AF8
  8
ASHADE
 10
-0.4207000000000001
 20
0.5114399999999995
 30
0.0
  0
VERTEX
  5
43AF9
  8
ASHADE
 10
-0.4211999999999989
 20
0.509199999999999
 30
0.0
  0
VERTEX
  5
43AFA
  8
ASHADE
 10
-0.4216999999999979
 20
0.5069499999999989
 30
0.0
  0
VERTEX
  5
43AFB
  8
ASHADE
 10
-0.4220999999999968
 20
0.5046999999999989
 30
0.0
  0
VERTEX
  5
43AFC
  8
ASHADE
 10
-0.4225999999999992
 20
0.5024500000000005
 30
0.0
  0
VERTEX
  5
43AFD
  8
ASHADE
 10
-0.4229999999999984
 20
0.5001899999999993
 30
0.0
  0
VERTEX
  5
43AFE
  8
ASHADE
 10
-0.4233999999999975
 20
0.497939999999999
 30
0.0
  0
VERTEX
  5
43AFF
  8
ASHADE
 10
-0.4238000000000001
 20
0.4956799999999994
 30
0.0
  0
VERTEX
  5
43B00
  8
ASHADE
 10
-0.4241999999999991
 20
0.4934199999999997
 30
0.0
  0
VERTEX
  5
43B01
  8
ASHADE
 10
-0.4245999999999981
 20
0.4911500000000002
 30
0.0
  0
VERTEX
  5
43B02
  8
ASHADE
 10
-0.4249999999999973
 20
0.4888899999999988
 30
0.0
  0
VERTEX
  5
43B03
  8
ASHADE
 10
-0.4253000000000001
 20
0.4866199999999994
 30
0.0
  0
VERTEX
  5
43B04
  8
ASHADE
 10
-0.4256999999999991
 20
0.4843500000000002
 30
0.0
  0
VERTEX
  5
43B05
  8
ASHADE
 10
-0.4259999999999984
 20
0.482079999999999
 30
0.0
  0
VERTEX
  5
43B06
  8
ASHADE
 10
-0.4263999999999976
 20
0.4798
 30
0.0
  0
VERTEX
  5
43B07
  8
ASHADE
 10
-0.4266999999999969
 20
0.4775299999999989
 30
0.0
  0
VERTEX
  5
43B08
  8
ASHADE
 10
-0.4269999999999996
 20
0.4752500000000001
 30
0.0
  0
VERTEX
  5
43B09
  8
ASHADE
 10
-0.4271999999999993
 20
0.4729699999999994
 30
0.0
  0
VERTEX
  5
43B0A
  8
ASHADE
 10
-0.4274999999999986
 20
0.4706899999999985
 30
0.0
  0
VERTEX
  5
43B0B
  8
ASHADE
 10
-0.4277999999999979
 20
0.4684099999999997
 30
0.0
  0
VERTEX
  5
43B0C
  8
ASHADE
 10
-0.4279999999999974
 20
0.466129999999999
 30
0.0
  0
VERTEX
  5
43B0D
  8
ASHADE
 10
-0.4283000000000003
 20
0.4638499999999999
 30
0.0
  0
VERTEX
  5
43B0E
  8
ASHADE
 10
-0.4284999999999998
 20
0.4615599999999997
 30
0.0
  0
VERTEX
  5
43B0F
  8
ASHADE
 10
-0.4286999999999992
 20
0.4592799999999988
 30
0.0
  0
VERTEX
  5
43B10
  8
ASHADE
 10
-0.4288999999999989
 20
0.4569899999999986
 30
0.0
  0
VERTEX
  5
43B11
  8
ASHADE
 10
-0.4290999999999984
 20
0.4546999999999999
 30
0.0
  0
VERTEX
  5
43B12
  8
ASHADE
 10
-0.4291999999999982
 20
0.4524099999999997
 30
0.0
  0
VERTEX
  5
43B13
  8
ASHADE
 10
-0.4293999999999977
 20
0.4501199999999992
 30
0.0
  0
VERTEX
  5
43B14
  8
ASHADE
 10
-0.4294999999999975
 20
0.447829999999999
 30
0.0
  0
VERTEX
  5
43B15
  8
ASHADE
 10
-0.429699999999997
 20
0.4455399999999985
 30
0.0
  0
VERTEX
  5
43B16
  8
ASHADE
 10
-0.4297999999999968
 20
0.44325
 30
0.0
  0
VERTEX
  5
43B17
  8
ASHADE
 10
-0.4299000000000001
 20
0.4409599999999996
 30
0.0
  0
VERTEX
  5
43B18
  8
ASHADE
 10
-0.4299999999999998
 20
0.4386599999999996
 30
0.0
  0
VERTEX
  5
43B19
  8
ASHADE
 10
-0.4300999999999995
 20
0.4363699999999994
 30
0.0
  0
VERTEX
  5
43B1A
  8
ASHADE
 10
-0.4301999999999994
 20
0.4340699999999993
 30
0.0
  0
VERTEX
  5
43B1B
  8
ASHADE
 10
-0.4301999999999994
 20
0.431779999999999
 30
0.0
  0
VERTEX
  5
43B1C
  8
ASHADE
 10
-0.4302999999999991
 20
0.429479999999999
 30
0.0
  0
VERTEX
  5
43B1D
  8
ASHADE
 10
-0.4302999999999991
 20
0.4271899999999988
 30
0.0
  0
VERTEX
  5
43B1E
  8
ASHADE
 10
-0.4302999999999991
 20
0.4248899999999988
 30
0.0
  0
VERTEX
  5
43B1F
  8
ASHADE
 10
-0.4302999999999991
 20
0.4226000000000001
 30
0.0
  0
VERTEX
  5
43B20
  8
ASHADE
 10
-0.4302999999999991
 20
0.4203000000000002
 30
0.0
  0
VERTEX
  5
43B21
  8
ASHADE
 10
-0.4302999999999991
 20
0.418009999999998
 30
0.0
  0
VERTEX
  5
43B22
  8
ASHADE
 10
-0.4302999999999991
 20
0.4157099999999982
 30
0.0
  0
VERTEX
  5
43B23
  8
ASHADE
 10
-0.4301999999999994
 20
0.4134199999999996
 30
0.0
  0
VERTEX
  5
43B24
  8
ASHADE
 10
-0.4301999999999994
 20
0.4111199999999995
 30
0.0
  0
VERTEX
  5
43B25
  8
ASHADE
 10
-0.4300999999999995
 20
0.4088299999999993
 30
0.0
  0
VERTEX
  5
43B26
  8
ASHADE
 10
-0.4299999999999998
 20
0.4065399999999988
 30
0.0
  0
VERTEX
  5
43B27
  8
ASHADE
 10
-0.4299000000000001
 20
0.404239999999999
 30
0.0
  0
VERTEX
  5
43B28
  8
ASHADE
 10
-0.4297999999999968
 20
0.4019500000000004
 30
0.0
  0
VERTEX
  5
43B29
  8
ASHADE
 10
-0.429699999999997
 20
0.3996599999999981
 30
0.0
  0
VERTEX
  5
43B2A
  8
ASHADE
 10
-0.4294999999999975
 20
0.3973699999999995
 30
0.0
  0
VERTEX
  5
43B2B
  8
ASHADE
 10
-0.4293999999999977
 20
0.3950799999999992
 30
0.0
  0
VERTEX
  5
43B2C
  8
ASHADE
 10
-0.4291999999999982
 20
0.3927899999999988
 30
0.0
  0
VERTEX
  5
43B2D
  8
ASHADE
 10
-0.4290999999999984
 20
0.3905000000000003
 30
0.0
  0
VERTEX
  5
43B2E
  8
ASHADE
 10
-0.4288999999999989
 20
0.3882099999999982
 30
0.0
  0
VERTEX
  5
43B2F
  8
ASHADE
 10
-0.4286999999999992
 20
0.3859199999999996
 30
0.0
  0
VERTEX
  5
43B30
  8
ASHADE
 10
-0.4284999999999998
 20
0.3836399999999989
 30
0.0
  0
VERTEX
  5
43B31
  8
ASHADE
 10
-0.4283000000000003
 20
0.3813500000000003
 30
0.0
  0
VERTEX
  5
43B32
  8
ASHADE
 10
-0.4279999999999974
 20
0.3790699999999996
 30
0.0
  0
VERTEX
  5
43B33
  8
ASHADE
 10
-0.4277999999999979
 20
0.3767899999999988
 30
0.0
  0
VERTEX
  5
43B34
  8
ASHADE
 10
-0.4274999999999986
 20
0.3745000000000003
 30
0.0
  0
VERTEX
  5
43B35
  8
ASHADE
 10
-0.4271999999999993
 20
0.3722299999999992
 30
0.0
  0
VERTEX
  5
43B36
  8
ASHADE
 10
-0.4269999999999996
 20
0.3699500000000002
 30
0.0
  0
VERTEX
  5
43B37
  8
ASHADE
 10
-0.4266999999999969
 20
0.3676699999999995
 30
0.0
  0
VERTEX
  5
43B38
  8
ASHADE
 10
-0.4263999999999976
 20
0.3654000000000002
 30
0.0
  0
VERTEX
  5
43B39
  8
ASHADE
 10
-0.4259999999999984
 20
0.3631199999999994
 30
0.0
  0
VERTEX
  5
43B3A
  8
ASHADE
 10
-0.4256999999999991
 20
0.3608500000000001
 30
0.0
  0
VERTEX
  5
43B3B
  8
ASHADE
 10
-0.4253000000000001
 20
0.358579999999999
 30
0.0
  0
VERTEX
  5
43B3C
  8
ASHADE
 10
-0.4249999999999973
 20
0.3563099999999979
 30
0.0
  0
VERTEX
  5
43B3D
  8
ASHADE
 10
-0.4245999999999981
 20
0.35405
 30
0.0
  0
VERTEX
  5
43B3E
  8
ASHADE
 10
-0.4241999999999991
 20
0.3517799999999989
 30
0.0
  0
VERTEX
  5
43B3F
  8
ASHADE
 10
-0.4238000000000001
 20
0.3495199999999992
 30
0.0
  0
VERTEX
  5
43B40
  8
ASHADE
 10
-0.4233999999999975
 20
0.3472599999999995
 30
0.0
  0
VERTEX
  5
43B41
  8
ASHADE
 10
-0.4229999999999984
 20
0.3450099999999994
 30
0.0
  0
VERTEX
  5
43B42
  8
ASHADE
 10
-0.4225999999999992
 20
0.3427499999999997
 30
0.0
  0
VERTEX
  5
43B43
  8
ASHADE
 10
-0.4220999999999968
 20
0.3404999999999996
 30
0.0
  0
VERTEX
  5
43B44
  8
ASHADE
 10
-0.4216999999999979
 20
0.3382499999999995
 30
0.0
  0
VERTEX
  5
43B45
  8
ASHADE
 10
-0.4211999999999989
 20
0.3359999999999994
 30
0.0
  0
VERTEX
  5
43B46
  8
ASHADE
 10
-0.4207000000000001
 20
0.3337499999999993
 30
0.0
  0
VERTEX
  5
43B47
  8
ASHADE
 10
-0.4201999999999977
 20
0.3315099999999989
 30
0.0
  0
VERTEX
  5
43B48
  8
ASHADE
 10
-0.419699999999999
 20
0.3292700000000002
 30
0.0
  0
VERTEX
  5
43B49
  8
ASHADE
 10
-0.4192000000000001
 20
0.3270299999999979
 30
0.0
  0
VERTEX
  5
43B4A
  8
ASHADE
 10
-0.418599999999998
 20
0.3247999999999989
 30
0.0
  0
VERTEX
  5
43B4B
  8
ASHADE
 10
-0.4180999999999992
 20
0.3225699999999998
 30
0.0
  0
VERTEX
  5
43B4C
  8
ASHADE
 10
-0.4174999999999969
 20
0.320339999999999
 30
0.0
  0
VERTEX
  5
43B4D
  8
ASHADE
 10
-0.4169999999999982
 20
0.3181199999999995
 30
0.0
  0
VERTEX
  5
43B4E
  8
ASHADE
 10
-0.4163999999999996
 20
0.3158899999999987
 30
0.0
  0
VERTEX
  5
43B4F
  8
ASHADE
 10
-0.4157999999999973
 20
0.3136699999999992
 30
0.0
  0
VERTEX
  5
43B50
  8
ASHADE
 10
-0.4151999999999987
 20
0.3114599999999994
 30
0.0
  0
VERTEX
  5
43B51
  8
ASHADE
 10
-0.4144999999999969
 20
0.3092399999999982
 30
0.0
  0
VERTEX
  5
43B52
  8
ASHADE
 10
-0.4138999999999983
 20
0.3070399999999998
 30
0.0
  0
VERTEX
  5
43B53
  8
ASHADE
 10
-0.4132999999999997
 20
0.3048299999999982
 30
0.0
  0
VERTEX
  5
43B54
  8
ASHADE
 10
-0.4125999999999978
 20
0.302629999999998
 30
0.0
  0
VERTEX
  5
43B55
  8
ASHADE
 10
-0.4118999999999994
 20
0.3004299999999977
 30
0.0
  0
VERTEX
  5
43B56
  8
ASHADE
 10
-0.4112999999999972
 20
0.2982299999999993
 30
0.0
  0
VERTEX
  5
43B57
  8
ASHADE
 10
-0.4105999999999989
 20
0.2960399999999987
 30
0.0
  0
VERTEX
  5
43B58
  8
ASHADE
 10
-0.409899999999997
 20
0.2938499999999999
 30
0.0
  0
VERTEX
  5
43B59
  8
ASHADE
 10
-0.4090999999999987
 20
0.2916699999999989
 30
0.0
  0
VERTEX
  5
43B5A
  8
ASHADE
 10
-0.4083999999999969
 20
0.2894899999999998
 30
0.0
  0
VERTEX
  5
43B5B
  8
ASHADE
 10
-0.4076999999999984
 20
0.2873099999999988
 30
0.0
  0
VERTEX
  5
43B5C
  8
ASHADE
 10
-0.4068999999999967
 20
0.2851399999999993
 30
0.0
  0
VERTEX
  5
43B5D
  8
ASHADE
 10
-0.4060999999999986
 20
0.2829699999999997
 30
0.0
  0
VERTEX
  5
43B5E
  8
ASHADE
 10
-0.4053999999999968
 20
0.280809999999998
 30
0.0
  0
VERTEX
  5
43B5F
  8
ASHADE
 10
-0.4045999999999986
 20
0.2786499999999998
 30
0.0
  0
SEQEND
  5
43B60
  8
ASHADE
  0
POLYLINE
  5
43945
  8
ASHADE
 66
     1
 10
0.0
 20
0.0
 30
0.0
  0
VERTEX
  5
43B61
  8
ASHADE
 10
0.4045000000000023
 20
0.2786499999999998
 30
0.0
  0
VERTEX
  5
43B62
  8
ASHADE
 10
0.4053000000000006
 20
0.280809999999998
 30
0.0
  0
VERTEX
  5
43B63
  8
ASHADE
 10
0.4061000000000023
 20
0.2829699999999997
 30
0.0
  0
VERTEX
  5
43B64
  8
ASHADE
 10
0.4068000000000005
 20
0.2851399999999993
 30
0.0
  0
VERTEX
  5
43B65
  8
ASHADE
 10
0.4076000000000022
 20
0.2873099999999988
 30
0.0
  0
VERTEX
  5
43B66
  8
ASHADE
 10
0.4083000000000007
 20
0.2894899999999998
 30
0.0
  0
VERTEX
  5
43B67
  8
ASHADE
 10
0.4091000000000024
 20
0.2916699999999989
 30
0.0
  0
VERTEX
  5
43B68
  8
ASHADE
 10
0.4098000000000006
 20
0.2938499999999999
 30
0.0
  0
VERTEX
  5
43B69
  8
ASHADE
 10
0.4105000000000027
 20
0.2960399999999987
 30
0.0
  0
VERTEX
  5
43B6A
  8
ASHADE
 10
0.4112000000000009
 20
0.2982299999999993
 30
0.0
  0
VERTEX
  5
43B6B
  8
ASHADE
 10
0.4119000000000029
 20
0.3004299999999977
 30
0.0
  0
VERTEX
  5
43B6C
  8
ASHADE
 10
0.4125000000000015
 20
0.302629999999998
 30
0.0
  0
VERTEX
  5
43B6D
  8
ASHADE
 10
0.4132000000000035
 20
0.3048299999999982
 30
0.0
  0
VERTEX
  5
43B6E
  8
ASHADE
 10
0.4138000000000021
 20
0.3070399999999998
 30
0.0
  0
VERTEX
  5
43B6F
  8
ASHADE
 10
0.4145000000000004
 20
0.3092399999999982
 30
0.0
  0
VERTEX
  5
43B70
  8
ASHADE
 10
0.4151000000000026
 20
0.3114599999999994
 30
0.0
  0
VERTEX
  5
43B71
  8
ASHADE
 10
0.4157000000000012
 20
0.3136699999999992
 30
0.0
  0
VERTEX
  5
43B72
  8
ASHADE
 10
0.4163000000000034
 20
0.3158899999999987
 30
0.0
  0
VERTEX
  5
43B73
  8
ASHADE
 10
0.416900000000002
 20
0.3181099999999981
 30
0.0
  0
VERTEX
  5
43B74
  8
ASHADE
 10
0.4174000000000008
 20
0.320339999999999
 30
0.0
  0
VERTEX
  5
43B75
  8
ASHADE
 10
0.4180000000000029
 20
0.3225699999999998
 30
0.0
  0
VERTEX
  5
43B76
  8
ASHADE
 10
0.4186000000000015
 20
0.3247999999999989
 30
0.0
  0
VERTEX
  5
43B77
  8
ASHADE
 10
0.4191000000000004
 20
0.3270299999999979
 30
0.0
  0
VERTEX
  5
43B78
  8
ASHADE
 10
0.4196000000000028
 20
0.3292700000000002
 30
0.0
  0
VERTEX
  5
43B79
  8
ASHADE
 10
0.4201000000000015
 20
0.3315099999999989
 30
0.0
  0
VERTEX
  5
43B7A
  8
ASHADE
 10
0.4206000000000003
 20
0.3337499999999993
 30
0.0
  0
VERTEX
  5
43B7B
  8
ASHADE
 10
0.4211000000000027
 20
0.3359999999999994
 30
0.0
  0
VERTEX
  5
43B7C
  8
ASHADE
 10
0.4216000000000017
 20
0.3382499999999995
 30
0.0
  0
VERTEX
  5
43B7D
  8
ASHADE
 10
0.4220000000000006
 20
0.3404999999999996
 30
0.0
  0
VERTEX
  5
43B7E
  8
ASHADE
 10
0.422500000000003
 20
0.3427499999999997
 30
0.0
  0
VERTEX
  5
43B7F
  8
ASHADE
 10
0.4229000000000022
 20
0.3450099999999994
 30
0.0
  0
VERTEX
  5
43B80
  8
ASHADE
 10
0.4233000000000012
 20
0.3472599999999995
 30
0.0
  0
VERTEX
  5
43B81
  8
ASHADE
 10
0.4237000000000002
 20
0.3495199999999992
 30
0.0
  0
VERTEX
  5
43B82
  8
ASHADE
 10
0.4241000000000028
 20
0.3517799999999989
 30
0.0
  0
VERTEX
  5
43B83
  8
ASHADE
 10
0.4245000000000019
 20
0.35405
 30
0.0
  0
VERTEX
  5
43B84
  8
ASHADE
 10
0.4249000000000011
 20
0.3563099999999979
 30
0.0
  0
VERTEX
  5
43B85
  8
ASHADE
 10
0.4253000000000001
 20
0.358579999999999
 30
0.0
  0
VERTEX
  5
43B86
  8
ASHADE
 10
0.425600000000003
 20
0.3608500000000001
 30
0.0
  0
VERTEX
  5
43B87
  8
ASHADE
 10
0.4259000000000023
 20
0.3631199999999994
 30
0.0
  0
VERTEX
  5
43B88
  8
ASHADE
 10
0.4263000000000014
 20
0.3654000000000002
 30
0.0
  0
VERTEX
  5
43B89
  8
ASHADE
 10
0.4266000000000007
 20
0.3676699999999995
 30
0.0
  0
VERTEX
  5
43B8A
  8
ASHADE
 10
0.4269000000000034
 20
0.3699500000000002
 30
0.0
  0
VERTEX
  5
43B8B
  8
ASHADE
 10
0.4272000000000027
 20
0.3722199999999995
 30
0.0
  0
VERTEX
  5
43B8C
  8
ASHADE
 10
0.4274000000000024
 20
0.3745000000000003
 30
0.0
  0
VERTEX
  5
43B8D
  8
ASHADE
 10
0.4277000000000017
 20
0.3767899999999988
 30
0.0
  0
VERTEX
  5
43B8E
  8
ASHADE
 10
0.4279000000000012
 20
0.3790699999999996
 30
0.0
  0
VERTEX
  5
43B8F
  8
ASHADE
 10
0.4282000000000005
 20
0.3813500000000003
 30
0.0
  0
VERTEX
  5
43B90
  8
ASHADE
 10
0.4283999999999999
 20
0.3836399999999989
 30
0.0
  0
VERTEX
  5
43B91
  8
ASHADE
 10
0.428600000000003
 20
0.3859199999999996
 30
0.0
  0
VERTEX
  5
43B92
  8
ASHADE
 10
0.4288000000000026
 20
0.3882099999999982
 30
0.0
  0
VERTEX
  5
43B93
  8
ASHADE
 10
0.4290000000000022
 20
0.3905000000000003
 30
0.0
  0
VERTEX
  5
43B94
  8
ASHADE
 10
0.4292000000000016
 20
0.3927899999999988
 30
0.0
  0
VERTEX
  5
43B95
  8
ASHADE
 10
0.4293000000000015
 20
0.3950799999999992
 30
0.0
  0
VERTEX
  5
43B96
  8
ASHADE
 10
0.4295000000000009
 20
0.3973699999999995
 30
0.0
  0
VERTEX
  5
43B97
  8
ASHADE
 10
0.4296000000000008
 20
0.3996599999999981
 30
0.0
  0
VERTEX
  5
43B98
  8
ASHADE
 10
0.4297000000000005
 20
0.4019500000000004
 30
0.0
  0
VERTEX
  5
43B99
  8
ASHADE
 10
0.4298000000000002
 20
0.404239999999999
 30
0.0
  0
VERTEX
  5
43B9A
  8
ASHADE
 10
0.4299000000000001
 20
0.4065399999999988
 30
0.0
  0
VERTEX
  5
43B9B
  8
ASHADE
 10
0.4300000000000034
 20
0.4088299999999993
 30
0.0
  0
VERTEX
  5
43B9C
  8
ASHADE
 10
0.4301000000000032
 20
0.4111199999999995
 30
0.0
  0
VERTEX
  5
43B9D
  8
ASHADE
 10
0.4301000000000032
 20
0.4134199999999996
 30
0.0
  0
VERTEX
  5
43B9E
  8
ASHADE
 10
0.4302000000000028
 20
0.4157099999999982
 30
0.0
  0
VERTEX
  5
43B9F
  8
ASHADE
 10
0.4302000000000028
 20
0.418009999999998
 30
0.0
  0
VERTEX
  5
43BA0
  8
ASHADE
 10
0.4302000000000028
 20
0.4203000000000002
 30
0.0
  0
VERTEX
  5
43BA1
  8
ASHADE
 10
0.4302000000000028
 20
0.4226000000000001
 30
0.0
  0
VERTEX
  5
43BA2
  8
ASHADE
 10
0.4302000000000028
 20
0.4248899999999988
 30
0.0
  0
VERTEX
  5
43BA3
  8
ASHADE
 10
0.4302000000000028
 20
0.4271899999999988
 30
0.0
  0
VERTEX
  5
43BA4
  8
ASHADE
 10
0.4302000000000028
 20
0.429479999999999
 30
0.0
  0
VERTEX
  5
43BA5
  8
ASHADE
 10
0.4301000000000032
 20
0.431779999999999
 30
0.0
  0
VERTEX
  5
43BA6
  8
ASHADE
 10
0.4301000000000032
 20
0.4340699999999993
 30
0.0
  0
VERTEX
  5
43BA7
  8
ASHADE
 10
0.4300000000000034
 20
0.4363699999999994
 30
0.0
  0
VERTEX
  5
43BA8
  8
ASHADE
 10
0.4299000000000001
 20
0.4386599999999996
 30
0.0
  0
VERTEX
  5
43BA9
  8
ASHADE
 10
0.4298000000000002
 20
0.4409599999999996
 30
0.0
  0
VERTEX
  5
43BAA
  8
ASHADE
 10
0.4297000000000005
 20
0.44325
 30
0.0
  0
VERTEX
  5
43BAB
  8
ASHADE
 10
0.4296000000000008
 20
0.4455399999999985
 30
0.0
  0
VERTEX
  5
43BAC
  8
ASHADE
 10
0.4295000000000009
 20
0.447829999999999
 30
0.0
  0
VERTEX
  5
43BAD
  8
ASHADE
 10
0.4293000000000015
 20
0.4501199999999992
 30
0.0
  0
VERTEX
  5
43BAE
  8
ASHADE
 10
0.4292000000000016
 20
0.4524099999999997
 30
0.0
  0
VERTEX
  5
43BAF
  8
ASHADE
 10
0.4290000000000022
 20
0.4546999999999999
 30
0.0
  0
VERTEX
  5
43BB0
  8
ASHADE
 10
0.4288000000000026
 20
0.4569899999999986
 30
0.0
  0
VERTEX
  5
43BB1
  8
ASHADE
 10
0.428600000000003
 20
0.4592799999999988
 30
0.0
  0
VERTEX
  5
43BB2
  8
ASHADE
 10
0.4283999999999999
 20
0.4615599999999997
 30
0.0
  0
VERTEX
  5
43BB3
  8
ASHADE
 10
0.4282000000000005
 20
0.4638499999999999
 30
0.0
  0
VERTEX
  5
43BB4
  8
ASHADE
 10
0.4279000000000012
 20
0.466129999999999
 30
0.0
  0
VERTEX
  5
43BB5
  8
ASHADE
 10
0.4277000000000017
 20
0.4684099999999997
 30
0.0
  0
VERTEX
  5
43BB6
  8
ASHADE
 10
0.4274000000000024
 20
0.4706899999999985
 30
0.0
  0
VERTEX
  5
43BB7
  8
ASHADE
 10
0.4272000000000027
 20
0.4729699999999994
 30
0.0
  0
VERTEX
  5
43BB8
  8
ASHADE
 10
0.4269000000000034
 20
0.4752500000000001
 30
0.0
  0
VERTEX
  5
43BB9
  8
ASHADE
 10
0.4266000000000007
 20
0.4775299999999989
 30
0.0
  0
VERTEX
  5
43BBA
  8
ASHADE
 10
0.4263000000000014
 20
0.4798
 30
0.0
  0
VERTEX
  5
43BBB
  8
ASHADE
 10
0.4259000000000023
 20
0.482079999999999
 30
0.0
  0
VERTEX
  5
43BBC
  8
ASHADE
 10
0.425600000000003
 20
0.4843500000000002
 30
0.0
  0
VERTEX
  5
43BBD
  8
ASHADE
 10
0.4253000000000001
 20
0.4866199999999994
 30
0.0
  0
VERTEX
  5
43BBE
  8
ASHADE
 10
0.4249000000000011
 20
0.4888899999999988
 30
0.0
  0
VERTEX
  5
43BBF
  8
ASHADE
 10
0.4245000000000019
 20
0.4911500000000002
 30
0.0
  0
VERTEX
  5
43BC0
  8
ASHADE
 10
0.4241000000000028
 20
0.4934199999999997
 30
0.0
  0
VERTEX
  5
43BC1
  8
ASHADE
 10
0.4237000000000002
 20
0.4956799999999994
 30
0.0
  0
VERTEX
  5
43BC2
  8
ASHADE
 10
0.4233000000000012
 20
0.497939999999999
 30
0.0
  0
VERTEX
  5
43BC3
  8
ASHADE
 10
0.4229000000000022
 20
0.5001899999999993
 30
0.0
  0
VERTEX
  5
43BC4
  8
ASHADE
 10
0.422500000000003
 20
0.5024500000000005
 30
0.0
  0
VERTEX
  5
43BC5
  8
ASHADE
 10
0.4220000000000006
 20
0.5046999999999989
 30
0.0
  0
VERTEX
  5
43BC6
  8
ASHADE
 10
0.4216000000000017
 20
0.5069499999999989
 30
0.0
  0
VERTEX
  5
43BC7
  8
ASHADE
 10
0.4211000000000027
 20
0.509199999999999
 30
0.0
  0
VERTEX
  5
43BC8
  8
ASHADE
 10
0.4206000000000003
 20
0.5114399999999995
 30
0.0
  0
VERTEX
  5
43BC9
  8
ASHADE
 10
0.4201000000000015
 20
0.5136899999999997
 30
0.0
  0
VERTEX
  5
43BCA
  8
ASHADE
 10
0.4196000000000028
 20
0.5159299999999985
 30
0.0
  0
VERTEX
  5
43BCB
  8
ASHADE
 10
0.4191000000000004
 20
0.5181599999999991
 30
0.0
  0
VERTEX
  5
43BCC
  8
ASHADE
 10
0.4186000000000015
 20
0.5203999999999998
 30
0.0
  0
VERTEX
  5
43BCD
  8
ASHADE
 10
0.4180000000000029
 20
0.5226299999999986
 30
0.0
  0
VERTEX
  5
43BCE
  8
ASHADE
 10
0.4174000000000008
 20
0.5248599999999996
 30
0.0
  0
VERTEX
  5
43BCF
  8
ASHADE
 10
0.416900000000002
 20
0.5270799999999989
 30
0.0
  0
VERTEX
  5
43BD0
  8
ASHADE
 10
0.4163000000000034
 20
0.529309999999998
 30
0.0
  0
VERTEX
  5
43BD1
  8
ASHADE
 10
0.4157000000000012
 20
0.5315299999999992
 30
0.0
  0
VERTEX
  5
43BD2
  8
ASHADE
 10
0.4151000000000026
 20
0.533739999999999
 30
0.0
  0
VERTEX
  5
43BD3
  8
ASHADE
 10
0.4145000000000004
 20
0.5359499999999989
 30
0.0
  0
VERTEX
  5
43BD4
  8
ASHADE
 10
0.4138000000000021
 20
0.5381599999999988
 30
0.0
  0
VERTEX
  5
43BD5
  8
ASHADE
 10
0.4132000000000035
 20
0.5403699999999985
 30
0.0
  0
VERTEX
  5
43BD6
  8
ASHADE
 10
0.4125000000000015
 20
0.5425699999999987
 30
0.0
  0
VERTEX
  5
43BD7
  8
ASHADE
 10
0.4119000000000029
 20
0.5447699999999989
 30
0.0
  0
VERTEX
  5
43BD8
  8
ASHADE
 10
0.4112000000000009
 20
0.5469699999999991
 30
0.0
  0
VERTEX
  5
43BD9
  8
ASHADE
 10
0.4105000000000027
 20
0.5491599999999979
 30
0.0
  0
VERTEX
  5
43BDA
  8
ASHADE
 10
0.4098000000000006
 20
0.5513500000000005
 30
0.0
  0
VERTEX
  5
43BDB
  8
ASHADE
 10
0.4091000000000024
 20
0.5535299999999978
 30
0.0
  0
VERTEX
  5
43BDC
  8
ASHADE
 10
0.4083000000000007
 20
0.5557099999999986
 30
0.0
  0
VERTEX
  5
43BDD
  8
ASHADE
 10
0.4076000000000022
 20
0.5578899999999996
 30
0.0
  0
VERTEX
  5
43BDE
  8
ASHADE
 10
0.4068000000000005
 20
0.5600599999999992
 30
0.0
  0
VERTEX
  5
43BDF
  8
ASHADE
 10
0.4061000000000023
 20
0.5622299999999987
 30
0.0
  0
VERTEX
  5
43BE0
  8
ASHADE
 10
0.4053000000000006
 20
0.5643899999999987
 30
0.0
  0
VERTEX
  5
43BE1
  8
ASHADE
 10
0.4045000000000023
 20
0.5665500000000006
 30
0.0
  0
SEQEND
  5
43BE2
  8
ASHADE
  0
POLYLINE
  5
439C5
  8
ASHADE
 66
     1
 10
0.0
 20
0.0
 30
0.0
  0
VERTEX
  5
43BE3
  8
ASHADE
 10
-0.365199999999998
 20
0.1991000000000005
 30
0.0
  0
VERTEX
  5
43BE4
  8
ASHADE
 10
-0.3615999999999992
 20
0.1934499999999994
 30
0.0
  0
VERTEX
  5
43BE5
  8
ASHADE
 10
-0.3577999999999974
 20
0.1878500000000001
 30
0.0
  0
VERTEX
  5
43BE6
  8
ASHADE
 10
-0.3539999999999992
 20
0.1823199999999998
 30
0.0
  0
VERTEX
  5
43BE7
  8
ASHADE
 10
-0.3500999999999976
 20
0.1768399999999994
 30
0.0
  0
VERTEX
  5
43BE8
  8
ASHADE
 10
-0.3460999999999998
 20
0.1714299999999982
 30
0.0
  0
VERTEX
  5
43BE9
  8
ASHADE
 10
-0.3419999999999987
 20
0.1660799999999982
 30
0.0
  0
VERTEX
  5
43BEA
  8
ASHADE
 10
-0.3377999999999979
 20
0.1607899999999995
 30
0.0
  0
VERTEX
  5
43BEB
  8
ASHADE
 10
-0.3334999999999972
 20
0.15557
 30
0.0
  0
VERTEX
  5
43BEC
  8
ASHADE
 10
-0.3291999999999966
 20
0.1504199999999995
 30
0.0
  0
VERTEX
  5
43BED
  8
ASHADE
 10
-0.3247999999999997
 20
0.1453299999999986
 30
0.0
  0
VERTEX
  5
43BEE
  8
ASHADE
 10
-0.3201999999999998
 20
0.14032
 30
0.0
  0
VERTEX
  5
43BEF
  8
ASHADE
 10
-0.3156999999999996
 20
0.1353699999999991
 30
0.0
  0
VERTEX
  5
43BF0
  8
ASHADE
 10
-0.3109999999999999
 20
0.1305000000000005
 30
0.0
  0
VERTEX
  5
43BF1
  8
ASHADE
 10
-0.3061999999999969
 20
0.1256999999999993
 30
0.0
  0
VERTEX
  5
43BF2
  8
ASHADE
 10
-0.3013999999999974
 20
0.1209699999999989
 30
0.0
  0
VERTEX
  5
43BF3
  8
ASHADE
 10
-0.2964999999999982
 20
0.1163299999999987
 30
0.0
  0
VERTEX
  5
43BF4
  8
ASHADE
 10
-0.2914999999999992
 20
0.1117499999999998
 30
0.0
  0
VERTEX
  5
43BF5
  8
ASHADE
 10
-0.2864999999999966
 20
0.1072599999999992
 30
0.0
  0
VERTEX
  5
43BF6
  8
ASHADE
 10
-0.2813999999999979
 20
0.1028399999999996
 30
0.0
  0
VERTEX
  5
43BF7
  8
ASHADE
 10
-0.2761999999999993
 20
0.0985099999999983
 30
0.0
  0
VERTEX
  5
43BF8
  8
ASHADE
 10
-0.2708999999999975
 20
0.0942499999999997
 30
0.0
  0
VERTEX
  5
43BF9
  8
ASHADE
 10
-0.2655999999999992
 20
0.0900799999999977
 30
0.0
  0
VERTEX
  5
43BFA
  8
ASHADE
 10
-0.2601999999999975
 20
0.0859899999999998
 30
0.0
  0
VERTEX
  5
43BFB
  8
ASHADE
 10
-0.2546999999999997
 20
0.0819899999999985
 30
0.0
  0
VERTEX
  5
43BFC
  8
ASHADE
 10
-0.2491999999999983
 20
0.0780699999999994
 30
0.0
  0
VERTEX
  5
43BFD
  8
ASHADE
 10
-0.2435999999999971
 20
0.0742399999999988
 30
0.0
  0
VERTEX
  5
43BFE
  8
ASHADE
 10
-0.2379999999999995
 20
0.0704899999999986
 30
0.0
  0
VERTEX
  5
43BFF
  8
ASHADE
 10
-0.2322999999999986
 20
0.0668399999999982
 30
0.0
  0
VERTEX
  5
43C00
  8
ASHADE
 10
-0.2264999999999979
 20
0.0632700000000002
 30
0.0
  0
VERTEX
  5
43C01
  8
ASHADE
 10
-0.2206999999999972
 20
0.0597899999999987
 30
0.0
  0
VERTEX
  5
43C02
  8
ASHADE
 10
-0.2147999999999968
 20
0.0564099999999988
 30
0.0
  0
VERTEX
  5
43C03
  8
ASHADE
 10
-0.2088999999999999
 20
0.0531099999999993
 30
0.0
  0
VERTEX
  5
43C04
  8
ASHADE
 10
-0.2028999999999996
 20
0.0499099999999979
 30
0.0
  0
VERTEX
  5
43C05
  8
ASHADE
 10
-0.1968999999999994
 20
0.0468000000000002
 30
0.0
  0
VERTEX
  5
43C06
  8
ASHADE
 10
-0.1907999999999994
 20
0.0437899999999987
 30
0.0
  0
VERTEX
  5
43C07
  8
ASHADE
 10
-0.1845999999999996
 20
0.0408699999999991
 30
0.0
  0
VERTEX
  5
43C08
  8
ASHADE
 10
-0.1784999999999997
 20
0.0380499999999993
 30
0.0
  0
VERTEX
  5
43C09
  8
ASHADE
 10
-0.1722000000000001
 20
0.0353199999999996
 30
0.0
  0
VERTEX
  5
43C0A
  8
ASHADE
 10
-0.1659999999999968
 20
0.0326899999999988
 30
0.0
  0
VERTEX
  5
43C0B
  8
ASHADE
 10
-0.1596999999999973
 20
0.0301599999999986
 30
0.0
  0
VERTEX
  5
43C0C
  8
ASHADE
 10
-0.153299999999998
 20
0.0277199999999995
 30
0.0
  0
VERTEX
  5
43C0D
  8
ASHADE
 10
-0.1468999999999987
 20
0.0253899999999989
 30
0.0
  0
VERTEX
  5
43C0E
  8
ASHADE
 10
-0.1404999999999994
 20
0.023159999999999
 30
0.0
  0
VERTEX
  5
43C0F
  8
ASHADE
 10
-0.1341000000000001
 20
0.0210199999999992
 30
0.0
  0
VERTEX
  5
43C10
  8
ASHADE
 10
-0.1275999999999975
 20
0.0189899999999987
 30
0.0
  0
VERTEX
  5
43C11
  8
ASHADE
 10
-0.1209999999999987
 20
0.0170499999999994
 30
0.0
  0
VERTEX
  5
43C12
  8
ASHADE
 10
-0.1144999999999996
 20
0.0152199999999994
 30
0.0
  0
VERTEX
  5
43C13
  8
ASHADE
 10
-0.1078999999999972
 20
0.0134899999999991
 30
0.0
  0
VERTEX
  5
43C14
  8
ASHADE
 10
-0.1012999999999984
 20
0.0118699999999992
 30
0.0
  0
VERTEX
  5
43C15
  8
ASHADE
 10
-0.0946999999999996
 20
0.0103399999999994
 30
0.0
  0
VERTEX
  5
43C16
  8
ASHADE
 10
-0.0879999999999974
 20
0.0089199999999989
 30
0.0
  0
VERTEX
  5
43C17
  8
ASHADE
 10
-0.0812999999999988
 20
0.0076099999999988
 30
0.0
  0
VERTEX
  5
43C18
  8
ASHADE
 10
-0.0745999999999967
 20
0.0063999999999993
 30
0.0
  0
VERTEX
  5
43C19
  8
ASHADE
 10
-0.0678999999999981
 20
0.0052899999999987
 30
0.0
  0
VERTEX
  5
43C1A
  8
ASHADE
 10
-0.0611999999999995
 20
0.0042899999999992
 30
0.0
  0
VERTEX
  5
43C1B
  8
ASHADE
 10
-0.0543999999999976
 20
0.0033899999999987
 30
0.0
  0
VERTEX
  5
43C1C
  8
ASHADE
 10
-0.0475999999999992
 20
0.0025899999999988
 30
0.0
  0
VERTEX
  5
43C1D
  8
ASHADE
 10
-0.0408999999999971
 20
0.0019099999999987
 30
0.0
  0
VERTEX
  5
43C1E
  8
ASHADE
 10
-0.0340999999999987
 20
0.0013199999999998
 30
0.0
  0
VERTEX
  5
43C1F
  8
ASHADE
 10
-0.0272999999999968
 20
0.0008499999999998
 30
0.0
  0
VERTEX
  5
43C20
  8
ASHADE
 10
-0.0204999999999984
 20
0.0004799999999987
 30
0.0
  0
VERTEX
  5
43C21
  8
ASHADE
 10
-0.0137000000000001
 20
0.0002099999999992
 30
0.0
  0
VERTEX
  5
43C22
  8
ASHADE
 10
-0.0068999999999981
 20
0.0000499999999999
 30
0.0
  0
VERTEX
  5
43C23
  8
ASHADE
 10
0.0
 20
0.0
 30
0.0
  0
VERTEX
  5
43C24
  8
ASHADE
 10
0.0068000000000019
 20
0.0000499999999999
 30
0.0
  0
VERTEX
  5
43C25
  8
ASHADE
 10
0.0136000000000003
 20
0.0002099999999992
 30
0.0
  0
VERTEX
  5
43C26
  8
ASHADE
 10
0.0204000000000022
 20
0.0004799999999987
 30
0.0
  0
VERTEX
  5
43C27
  8
ASHADE
 10
0.0272000000000006
 20
0.0008499999999998
 30
0.0
  0
VERTEX
  5
43C28
  8
ASHADE
 10
0.0340000000000025
 20
0.0013199999999998
 30
0.0
  0
VERTEX
  5
43C29
  8
ASHADE
 10
0.0408000000000008
 20
0.0019099999999987
 30
0.0
  0
VERTEX
  5
43C2A
  8
ASHADE
 10
0.0476000000000028
 20
0.0025899999999988
 30
0.0
  0
VERTEX
  5
43C2B
  8
ASHADE
 10
0.0543000000000014
 20
0.0033899999999987
 30
0.0
  0
VERTEX
  5
43C2C
  8
ASHADE
 10
0.0611000000000033
 20
0.0042899999999992
 30
0.0
  0
VERTEX
  5
43C2D
  8
ASHADE
 10
0.0678000000000019
 20
0.0052899999999987
 30
0.0
  0
VERTEX
  5
43C2E
  8
ASHADE
 10
0.0745000000000005
 20
0.0063999999999993
 30
0.0
  0
VERTEX
  5
43C2F
  8
ASHADE
 10
0.0812000000000026
 20
0.0076099999999988
 30
0.0
  0
VERTEX
  5
43C30
  8
ASHADE
 10
0.0879000000000012
 20
0.0089199999999989
 30
0.0
  0
VERTEX
  5
43C31
  8
ASHADE
 10
0.0946000000000034
 20
0.0103399999999994
 30
0.0
  0
VERTEX
  5
43C32
  8
ASHADE
 10
0.1012000000000022
 20
0.0118699999999992
 30
0.0
  0
VERTEX
  5
43C33
  8
ASHADE
 10
0.107800000000001
 20
0.0134899999999991
 30
0.0
  0
VERTEX
  5
43C34
  8
ASHADE
 10
0.1144000000000034
 20
0.0152199999999994
 30
0.0
  0
VERTEX
  5
43C35
  8
ASHADE
 10
0.1210000000000022
 20
0.0170499999999994
 30
0.0
  0
VERTEX
  5
43C36
  8
ASHADE
 10
0.1275000000000013
 20
0.0189899999999987
 30
0.0
  0
VERTEX
  5
43C37
  8
ASHADE
 10
0.1340000000000003
 20
0.0210199999999992
 30
0.0
  0
VERTEX
  5
43C38
  8
ASHADE
 10
0.1404000000000032
 20
0.023159999999999
 30
0.0
  0
VERTEX
  5
43C39
  8
ASHADE
 10
0.1469000000000022
 20
0.0253899999999989
 30
0.0
  0
VERTEX
  5
43C3A
  8
ASHADE
 10
0.1532000000000018
 20
0.0277199999999995
 30
0.0
  0
VERTEX
  5
43C3B
  8
ASHADE
 10
0.1596000000000011
 20
0.0301599999999986
 30
0.0
  0
VERTEX
  5
43C3C
  8
ASHADE
 10
0.1659000000000006
 20
0.0326899999999988
 30
0.0
  0
VERTEX
  5
43C3D
  8
ASHADE
 10
0.1722000000000001
 20
0.0353199999999996
 30
0.0
  0
VERTEX
  5
43C3E
  8
ASHADE
 10
0.1783999999999999
 20
0.0380499999999993
 30
0.0
  0
VERTEX
  5
43C3F
  8
ASHADE
 10
0.1846000000000032
 20
0.0408699999999991
 30
0.0
  0
VERTEX
  5
43C40
  8
ASHADE
 10
0.1907000000000032
 20
0.0437899999999987
 30
0.0
  0
VERTEX
  5
43C41
  8
ASHADE
 10
0.1968000000000032
 20
0.0468000000000002
 30
0.0
  0
VERTEX
  5
43C42
  8
ASHADE
 10
0.2027999999999999
 20
0.0499099999999979
 30
0.0
  0
VERTEX
  5
43C43
  8
ASHADE
 10
0.2088000000000001
 20
0.0531099999999993
 30
0.0
  0
VERTEX
  5
43C44
  8
ASHADE
 10
0.2147000000000006
 20
0.0564099999999988
 30
0.0
  0
VERTEX
  5
43C45
  8
ASHADE
 10
0.220600000000001
 20
0.0597899999999987
 30
0.0
  0
VERTEX
  5
43C46
  8
ASHADE
 10
0.2264000000000017
 20
0.0632700000000002
 30
0.0
  0
VERTEX
  5
43C47
  8
ASHADE
 10
0.2322000000000024
 20
0.0668399999999982
 30
0.0
  0
VERTEX
  5
43C48
  8
ASHADE
 10
0.2379000000000033
 20
0.0704899999999986
 30
0.0
  0
VERTEX
  5
43C49
  8
ASHADE
 10
0.2435000000000009
 20
0.0742399999999988
 30
0.0
  0
VERTEX
  5
43C4A
  8
ASHADE
 10
0.2491000000000021
 20
0.0780699999999994
 30
0.0
  0
VERTEX
  5
43C4B
  8
ASHADE
 10
0.2545999999999999
 20
0.0819899999999985
 30
0.0
  0
VERTEX
  5
43C4C
  8
ASHADE
 10
0.2601000000000013
 20
0.0859899999999998
 30
0.0
  0
VERTEX
  5
43C4D
  8
ASHADE
 10
0.265500000000003
 20
0.0900799999999977
 30
0.0
  0
VERTEX
  5
43C4E
  8
ASHADE
 10
0.2708000000000013
 20
0.0942499999999997
 30
0.0
  0
VERTEX
  5
43C4F
  8
ASHADE
 10
0.2761000000000031
 20
0.0985099999999983
 30
0.0
  0
VERTEX
  5
43C50
  8
ASHADE
 10
0.2813000000000016
 20
0.1028399999999996
 30
0.0
  0
VERTEX
  5
43C51
  8
ASHADE
 10
0.2864000000000004
 20
0.1072599999999992
 30
0.0
  0
VERTEX
  5
43C52
  8
ASHADE
 10
0.2915000000000027
 20
0.1117499999999998
 30
0.0
  0
VERTEX
  5
43C53
  8
ASHADE
 10
0.296400000000002
 20
0.1163299999999987
 30
0.0
  0
VERTEX
  5
43C54
  8
ASHADE
 10
0.3013000000000012
 20
0.1209699999999989
 30
0.0
  0
VERTEX
  5
43C55
  8
ASHADE
 10
0.3062000000000005
 20
0.1256999999999993
 30
0.0
  0
VERTEX
  5
43C56
  8
ASHADE
 10
0.3109000000000002
 20
0.1305000000000005
 30
0.0
  0
VERTEX
  5
43C57
  8
ASHADE
 10
0.3155999999999999
 20
0.1353699999999991
 30
0.0
  0
VERTEX
  5
43C58
  8
ASHADE
 10
0.3202000000000034
 20
0.14032
 30
0.0
  0
VERTEX
  5
43C59
  8
ASHADE
 10
0.3247
 20
0.1453299999999986
 30
0.0
  0
VERTEX
  5
43C5A
  8
ASHADE
 10
0.3291000000000004
 20
0.1504199999999995
 30
0.0
  0
VERTEX
  5
43C5B
  8
ASHADE
 10
0.3335000000000008
 20
0.15557
 30
0.0
  0
VERTEX
  5
43C5C
  8
ASHADE
 10
0.3377000000000017
 20
0.1607899999999995
 30
0.0
  0
VERTEX
  5
43C5D
  8
ASHADE
 10
0.3419000000000025
 20
0.1660799999999982
 30
0.0
  0
VERTEX
  5
43C5E
  8
ASHADE
 10
0.3460000000000001
 20
0.1714299999999982
 30
0.0
  0
VERTEX
  5
43C5F
  8
ASHADE
 10
0.3500000000000014
 20
0.1768399999999994
 30
0.0
  0
VERTEX
  5
43C60
  8
ASHADE
 10
0.353900000000003
 20
0.1823199999999998
 30
0.0
  0
VERTEX
  5
43C61
  8
ASHADE
 10
0.3577000000000012
 20
0.1878500000000001
 30
0.0
  0
VERTEX
  5
43C62
  8
ASHADE
 10
0.361500000000003
 20
0.1934399999999998
 30
0.0
  0
VERTEX
  5
43C63
  8
ASHADE
 10
0.3651000000000018
 20
0.1991000000000005
 30
0.0
  0
SEQEND
  5
43C64
  8
ASHADE
  0
POLYLINE
  5
43A45
  8
ASHADE
 66
     1
 10
0.0
 20
0.0
 30
-0.0019675327654622
  0
VERTEX
  5
43C65
  8
ASHADE
 10
4.9898679182604209
 20
4.8792974785377581
 30
-0.0019675327654622
  0
VERTEX
  5
43C66
  8
ASHADE
 10
4.9898679182604209
 20
4.163033582998378
 30
-0.0019675327654622
  0
VERTEX
  5
43C67
  8
ASHADE
 10
4.9761204714223286
 20
4.1492860957842383
 30
-0.0019675327654622
  0
VERTEX
  5
43C68
  8
ASHADE
 10
4.0271069923714098
 20
4.1492861746381378
 30
-0.0019675327654622
  0
VERTEX
  5
43C69
  8
ASHADE
 10
3.0780935133204821
 20
4.1492860957842383
 30
-0.0019675327654622
  0
VERTEX
  5
43C6A
  8
ASHADE
 10
3.0643460664823921
 20
4.163033582998378
 30
-0.0019675327654622
  0
VERTEX
  5
43C6B
  8
ASHADE
 10
3.0643460664823921
 20
6.0610606180559268
 30
-0.0019675327654622
  0
VERTEX
  5
43C6C
  8
ASHADE
 10
3.0780935921743722
 20
6.074808026416167
 30
-0.0019675327654622
  0
VERTEX
  5
43C6D
  8
ASHADE
 10
4.0271069923714098
 20
6.074808026416167
 30
-0.0019675327654622
  0
VERTEX
  5
43C6E
  8
ASHADE
 10
4.976120392568431
 20
6.074808026416167
 30
-0.0019675327654622
  0
VERTEX
  5
43C6F
  8
ASHADE
 10
4.9898679182604209
 20
6.0610606180559268
 30
-0.0019675327654622
  0
VERTEX
  5
43C70
  8
ASHADE
 10
4.9898679182604209
 20
5.3502293250043991
 30
-0.0019675327654622
  0
SEQEND
  5
43C71
  8
ASHADE
  0
POLYLINE
  5
43A50
  8
ASHADE
 66
     1
 10
0.0
 20
0.0
 30
-0.0024033165421387
  0
VERTEX
  5
43C72
  8
ASHADE
 10
6.5432348348573068
 20
5.1150091990511291
 30
-0.0024033165421387
  0
VERTEX
  5
43C73
  8
ASHADE
 10
6.5432350695208044
 20
5.3495207409243468
 30
-0.0024033165421387
 42
0.0713501078896586
  0
VERTEX
  5
43C74
  8
ASHADE
 10
6.4509743038490566
 20
5.4237280232589091
 30
-0.0024033165421387
  0
VERTEX
  5
43C75
  8
ASHADE
 10
6.4294059134796502
 20
5.4295496136973886
 30
-0.0024033165421387
 42
-0.0168013169186273
  0
VERTEX
  5
43C76
  8
ASHADE
 10
4.8538320871666301
 20
5.3473114428649984
 30
-0.0024033165421387
  0
VERTEX
  5
43C77
  8
ASHADE
 10
3.821177815146771
 20
5.347581423206198
 30
-0.0024033165421387
 42
0.3046260651873852
  0
VERTEX
  5
43C78
  8
ASHADE
 10
3.766949195392451
 20
5.2591667920778784
 30
-0.0024033165421387
  0
VERTEX
  5
43C79
  8
ASHADE
 10
3.766949195392451
 20
5.1147634017710786
 30
-0.0024033165421387
  0
VERTEX
  5
43C7A
  8
ASHADE
 10
3.766949195392451
 20
4.9703600114642592
 30
-0.0024033165421387
 42
0.3046260651873856
  0
VERTEX
  5
43C7B
  8
ASHADE
 10
3.821177815146771
 20
4.8819453803359592
 30
-0.0024033165421387
  0
VERTEX
  5
43C7C
  8
ASHADE
 10
4.8538320871666301
 20
4.8822153606771472
 30
-0.0024033165421387
 42
-0.0168013169186273
  0
VERTEX
  5
43C7D
  8
ASHADE
 10
6.4294059134796484
 20
4.7999771898447472
 30
-0.0024033165421387
  0
VERTEX
  5
43C7E
  8
ASHADE
 10
6.4509743038490566
 20
4.80579878028324
 30
-0.0024033165421387
 42
0.0713501078896586
  0
VERTEX
  5
43C7F
  8
ASHADE
 10
6.5432350695208044
 20
4.8800060626178068
 30
-0.0024033165421387
  0
VERTEX
  5
43C80
  8
ASHADE
 10
6.5432348348573068
 20
5.1145176044910174
 30
-0.0024033165421387
  0
SEQEND
  5
43C81
  8
ASHADE
  0
POLYLINE
  5
43A5E
  8
ASHADE
 66
     1
 10
0.0
 20
0.0
 30
0.0001653212497822
  0
VERTEX
  5
43C82
  8
ASHADE
 10
4.3565589845418966
 20
5.3474414514899076
 30
0.0001653212497822
  0
VERTEX
  5
43C83
  8
ASHADE
 10
4.35655898454291
 20
5.4298129061292171
 30
0.0001653212497822
  0
VERTEX
  5
43C84
  8
ASHADE
 10
4.3449150374010497
 20
5.4415007904003732
 30
0.0001653212497822
  0
VERTEX
  5
43C85
  8
ASHADE
 10
4.0633815812900149
 20
5.4415007904003732
 30
0.0001653212497822
  0
SEQEND
  5
43C86
  8
ASHADE
  0
POLYLINE
  5
43A61
  8
ASHADE
 66
     1
 10
0.0
 20
0.0
 30
0.0001653212497822
  0
VERTEX
  5
43C87
  8
ASHADE
 10
4.0616490881981342
 20
4.7826389353703211
 30
0.0001653212497822
  0
VERTEX
  5
43C88
  8
ASHADE
 10
4.3449159760549882
 20
4.7826389353703211
 30
0.0001653212497822
  0
VERTEX
  5
43C89
  8
ASHADE
 10
4.3565589845350789
 20
4.7943343466804498
 30
0.0001653212497822
  0
VERTEX
  5
43C8A
  8
ASHADE
 10
4.3565589845361643
 20
4.8820853520522229
 30
0.0001653212497822
  0
SEQEND
  5
43C8B
  8
ASHADE
  0
POLYLINE
  5
43A64
  8
ASHADE
 66
     1
 10
0.0
 20
0.0
 30
0.0001653212497822
  0
VERTEX
  5
43C8C
  8
ASHADE
 10
3.9888330705479831
 20
5.4415007904003732
 30
0.0001653212497822
  0
VERTEX
  5
43C8D
  8
ASHADE
 10
3.7089659598544511
 20
5.4415007904003732
 30
0.0001653212497822
  0
VERTEX
  5
43C8E
  8
ASHADE
 10
3.697473360826212
 20
5.4299529862951603
 30
0.0001653212497822
  0
VERTEX
  5
43C8F
  8
ASHADE
 10
3.6974733609859372
 20
5.1551860094828461
 30
0.0001653212497822
  0
SEQEND
  5
43C90
  8
ASHADE
  0
POLYLINE
  5
43A67
  8
ASHADE
 66
     1
 10
0.0
 20
0.0
 30
0.0001653212497822
  0
VERTEX
  5
43C91
  8
ASHADE
 10
3.6974733610359518
 20
5.0691451873752316
 30
0.0001653212497822
  0
VERTEX
  5
43C92
  8
ASHADE
 10
3.69747336119568
 20
4.7943782109450099
 30
0.0001653212497822
  0
VERTEX
  5
43C93
  8
ASHADE
 10
3.708965021200501
 20
4.7826389353703211
 30
0.0001653212497822
  0
VERTEX
  5
43C94
  8
ASHADE
 10
3.9905655636398638
 20
4.7826389353703211
 30
0.0001653212497822
  0
SEQEND
  5
43C95
  8
ASHADE
  0
POLYLINE
  5
43A6A
  8
ASHADE
 66
     1
 10
0.0
 20
0.0
 30
0.0001362503410201
  0
VERTEX
  5
43C96
  8
ASHADE
 10
-4.0547603705317421
 20
4.7861455118488001
 30
0.0001362503410201
  0
VERTEX
  5
43C97
  8
ASHADE
 10
-4.3380272583886867
 20
4.7861455118488001
 30
0.0001362503410201
  0
VERTEX
  5
43C98
  8
ASHADE
 10
-4.3496702668687757
 20
4.797840923158927
 30
0.0001362503410201
  0
VERTEX
  5
43C99
  8
ASHADE
 10
-4.349670266869845
 20
4.8855919285307214
 30
0.0001362503410201
  0
SEQEND
  5
43C9A
  8
ASHADE
  0
POLYLINE
  5
43A6D
  8
ASHADE
 66
     1
 10
0.0
 20
0.0
 30
0.0001362503410201
  0
VERTEX
  5
43C9B
  8
ASHADE
 10
-3.6905846433696392
 20
5.0726517638537452
 30
0.0001362503410201
  0
VERTEX
  5
43C9C
  8
ASHADE
 10
-3.6905846435293679
 20
4.7978847874234782
 30
0.0001362503410201
  0
VERTEX
  5
43C9D
  8
ASHADE
 10
-3.702076303534187
 20
4.7861455118488001
 30
0.0001362503410201
  0
VERTEX
  5
43C9E
  8
ASHADE
 10
-3.983676845973636
 20
4.7861455118488001
 30
0.0001362503410201
  0
SEQEND
  5
43C9F
  8
ASHADE
  0
POLYLINE
  5
43A70
  8
ASHADE
 66
     1
 10
0.0
 20
0.0
 30
0.0001362503410201
  0
VERTEX
  5
43CA0
  8
ASHADE
 10
-3.981944352881654
 20
5.4450073668788592
 30
0.0001362503410201
  0
VERTEX
  5
43CA1
  8
ASHADE
 10
-3.702077242188142
 20
5.4450073668788592
 30
0.0001362503410201
  0
VERTEX
  5
43CA2
  8
ASHADE
 10
-3.6905846431598941
 20
5.4334595627736393
 30
0.0001362503410201
  0
VERTEX
  5
43CA3
  8
ASHADE
 10
-3.6905846433196241
 20
5.158692585961302
 30
0.0001362503410201
  0
SEQEND
  5
43CA4
  8
ASHADE
  0
POLYLINE
  5
43A73
  8
ASHADE
 66
     1
 10
0.0
 20
0.0
 30
-3.782336712904272
210
-0.7071067252052544
220
-0.7071068371678364
230
0.0
  0
VERTEX
  5
43CA5
  8
ASHADE
 10
-4.1363548358092794
 20
-0.0018527686392926
 30
-3.782336712904272
  0
VERTEX
  5
43CA6
  8
ASHADE
 10
-4.3328463018227747
 20
-0.0019968520199929
 30
-3.782336712904272
  0
SEQEND
  5
43CA7
  8
ASHADE
  0
POLYLINE
  5
43A74
  8
ASHADE
 66
     1
 10
0.0
 20
0.0
 30
3.7964262406226061
210
-0.7071065386007002
220
0.7071070237723118
230
0.0
  0
VERTEX
  5
43CA8
  8
ASHADE
 10
-4.1222653918489778
 20
-0.0018527686392926
 30
3.7964262406226061
  0
VERTEX
  5
43CA9
  8
ASHADE
 10
-4.3187568060087029
 20
-0.0019968520199929
 30
3.7964262406226061
  0
SEQEND
  5
43CAA
  8
ASHADE
  0
POLYLINE
  5
43A75
  8
ASHADE
 66
     1
 10
0.0
 20
0.0
 30
3.7822844529501278
210
0.7071174156303981
220
0.7070961465827592
230
0.0
  0
VERTEX
  5
43CAB
  8
ASHADE
 10
3.456551391195068
 20
-0.0018527686392926
 30
3.7822844529501278
  0
VERTEX
  5
43CAC
  8
ASHADE
 10
3.259883221899007
 20
-0.0019968520199929
 30
3.7822844529501278
  0
SEQEND
  5
43CAD
  8
ASHADE
  0
POLYLINE
  5
43A76
  8
ASHADE
 66
     1
 10
0.0
 20
0.0
 30
-3.7964247874136361
210
0.7071067998469997
220
-0.7071067625260952
230
0.0
  0
VERTEX
  5
43CAE
  8
ASHADE
 10
3.4424061663969918
 20
-0.0018527686392926
 30
-3.7964247874136361
  0
VERTEX
  5
43CAF
  8
ASHADE
 10
3.245914804091095
 20
-0.0019968520199929
 30
-3.7964247874136361
  0
SEQEND
  5
43CB0
  8
ASHADE
  0
POLYLINE
  5
43A77
  8
ASHADE
 66
     1
 10
0.0
 20
0.0
 30
-0.0027426399435898
  0
VERTEX
  5
43CB1
  8
ASHADE
 10
4.259526206595611
 20
5.3474668200408431
 30
-0.0027426399435898
 42
2.4382995073600151
  0
VERTEX
  5
43CB2
  8
ASHADE
 10
4.2646509511783179
 20
4.8820613233304444
 30
-0.0027426399435898
  0
SEQEND
  5
43CB3
  8
ASHADE
  0
POLYLINE
  5
43A78
  8
ASHADE
 66
     1
 10
0.0
 20
0.0
 30
0.7657564257146859
210
-0.7073021239227969
220
0.7069113844707131
230
0.0
  0
VERTEX
  5
43CB4
  8
ASHADE
 10
-5.110740915457181
 20
-0.0019675327654622
 30
0.7657564257146859
  0
VERTEX
  5
43CB5
  8
ASHADE
 10
-6.0047700896652927
 20
0.0001653212497822
 30
0.7657564257146859
  0
SEQEND
  5
43CB6
  8
ASHADE
  0
POLYLINE
  5
43A79
  8
ASHADE
 66
     1
 10
0.0
 20
0.0
 30
6.4624078055121661
210
0.707105742806172
220
0.7071078195653983
230
0.0
  0
VERTEX
  5
43CB7
  8
ASHADE
 10
0.3095259100268066
 20
0.0001653212497822
 30
6.4624078055121661
  0
VERTEX
  5
43CB8
  8
ASHADE
 10
-0.5846696695673465
 20
-0.0019675327654622
 30
6.4624078055121661
  0
SEQEND
  5
43CB9
  8
ASHADE
  0
POLYLINE
  5
43A7A
  8
ASHADE
 66
     1
 10
0.0
 20
0.0
 30
6.4620098148243601
210
0.7072228897950991
220
0.7069906535095563
230
0.0
  0
VERTEX
  5
43CBA
  8
ASHADE
 10
2.1200583322502662
 20
-0.0019675327654622
 30
6.4620098148243601
  0
VERTEX
  5
43CBB
  8
ASHADE
 10
1.2261287903607749
 20
0.0001653212497822
 30
6.4620098148243601
  0
SEQEND
  5
43CBC
  8
ASHADE
  0
POLYLINE
  5
43A7B
  8
ASHADE
 66
     1
 10
0.0
 20
0.0
 30
0.767042922802689
210
-0.7071181490304196
220
0.7070954131599168
230
0.0
  0
VERTEX
  5
43CBD
  8
ASHADE
 10
-6.9200377936328969
 20
0.0001653212497822
 30
0.767042922802689
  0
VERTEX
  5
43CBE
  8
ASHADE
 10
-7.8141987974739271
 20
-0.0019675327654622
 30
0.767042922802689
  0
SEQEND
  5
43CBF
  8
ASHADE
  0
POLYLINE
  5
43A7C
  8
ASHADE
 66
     1
 10
0.0
 20
0.0
 30
-6.4600162813375883
210
0.7071057428061661
220
-0.7071078195654043
230
0.0
  0
VERTEX
  5
43CC0
  8
ASHADE
 10
0.3168764965209001
 20
0.0001362503410201
 30
-6.4600162813375883
  0
VERTEX
  5
43CC1
  8
ASHADE
 10
-0.5773190830732493
 20
-0.0019966036742244
 30
-6.4600162813375883
  0
SEQEND
  5
43CC2
  8
ASHADE
  0
POLYLINE
  5
43A7D
  8
ASHADE
 66
     1
 10
0.0
 20
0.0
 30
-0.7743935442318725
210
-0.7071181490304231
220
-0.7070954131599133
230
0.0
  0
VERTEX
  5
43CC3
  8
ASHADE
 10
-6.9176463768374008
 20
0.0001362503410201
 30
-0.7743935442318725
  0
VERTEX
  5
43CC4
  8
ASHADE
 10
-7.8118073806784194
 20
-0.0019966036742244
 30
-0.7743935442318725
  0
SEQEND
  5
43CC5
  8
ASHADE
  0
POLYLINE
  5
43A7E
  8
ASHADE
 66
     1
 10
0.0
 20
0.0
 30
-6.4596170728055053
210
0.7072228897951013
220
-0.7069906535095542
230
0.0
  0
VERTEX
  5
43CC6
  8
ASHADE
 10
2.1274085224054242
 20
-0.0019966036742244
 30
-6.4596170728055053
  0
VERTEX
  5
43CC7
  8
ASHADE
 10
1.233478980515949
 20
0.0001362503410201
 30
-6.4596170728055053
  0
SEQEND
  5
43CC8
  8
ASHADE
  0
POLYLINE
  5
43A7F
  8
ASHADE
 66
     1
 10
0.0
 20
0.0
 30
-0.7731076691842774
210
-0.7073021239228032
220
-0.7069113844707069
230
0.0
  0
VERTEX
  5
43CC9
  8
ASHADE
 10
-5.1083514115054021
 20
-0.0019966036742244
 30
-0.7731076691842774
  0
VERTEX
  5
43CCA
  8
ASHADE
 10
-6.0023805857135013
 20
0.0001362503410201
 30
-0.7731076691842774
  0
SEQEND
  5
43CCB
  8
ASHADE
  0
POLYLINE
  5
43A80
  8
ASHADE
 66
     1
 10
0.0
 20
0.0
 30
-0.0027717108523519
  0
VERTEX
  5
43CCC
  8
ASHADE
 10
-4.2577622335120093
 20
4.885567899808934
 30
-0.0027717108523519
 42
2.4382995073600222
  0
VERTEX
  5
43CCD
  8
ASHADE
 10
-4.2526374889292997
 20
5.3509733965193318
 30
-0.0027717108523519
  0
SEQEND
  5
43CCE
  8
ASHADE
  0
ENDSEC
  0
EOF
