  0
SECTION
  2
HEADER
  9
$ACADVER
  1
AC1009
  9
$INSBASE
 10
0.0
 20
0.0
 30
0.0
  9
$EXTMIN
 10
-4.1658008054947153
 20
-9.0863946659054697
 30
-0.0115473721753807
  9
$EXTMAX
 10
6.5948487550675754
 20
4.3971382847853953
 30
0.0016651134485182
  9
$LIMMIN
 10
0.0
 20
0.0
  9
$LIMMAX
 10
420.0
 20
297.0
  9
$ORTHOMODE
 70
     1
  9
$REGENMODE
 70
     1
  9
$FILLMODE
 70
     1
  9
$QTEXTMODE
 70
     0
  9
$MIRRTEXT
 70
     1
  9
$DRAGMODE
 70
     2
  9
$LTSCALE
 40
1.0
  9
$OSMODE
 70
    37
  9
$ATTMODE
 70
     1
  9
$TEXTSIZE
 40
0.001
  9
$TRACEWID
 40
1.0
  9
$TEXTSTYLE
  7
STANDARD
  9
$CLAYER
  8
0
  9
$CELTYPE
  6
BYLAYER
  9
$CECOLOR
 62
   256
  9
$DIMSCALE
 40
1.0
  9
$DIMASZ
 40
2.5
  9
$DIMEXO
 40
0.625
  9
$DIMDLI
 40
3.75
  9
$DIMRND
 40
0.0
  9
$DIMDLE
 40
0.0
  9
$DIMEXE
 40
1.25
  9
$DIMTP
 40
0.0
  9
$DIMTM
 40
0.0
  9
$DIMTXT
 40
2.5
  9
$DIMCEN
 40
2.5
  9
$DIMTSZ
 40
0.0
  9
$DIMTOL
 70
     0
  9
$DIMLIM
 70
     0
  9
$DIMTIH
 70
     0
  9
$DIMTOH
 70
     0
  9
$DIMSE1
 70
     0
  9
$DIMSE2
 70
     0
  9
$DIMTAD
 70
     1
  9
$DIMZIN
 70
     8
  9
$DIMBLK
  1

  9
$DIMASO
 70
     1
  9
$DIMSHO
 70
     1
  9
$DIMPOST
  1

  9
$DIMAPOST
  1

  9
$DIMALT
 70
     0
  9
$DIMALTD
 70
     3
  9
$DIMALTF
 40
0.03937007874016
  9
$DIMLFAC
 40
1.0
  9
$DIMTOFL
 70
     1
  9
$DIMTVP
 40
0.0
  9
$DIMTIX
 70
     0
  9
$DIMSOXD
 70
     0
  9
$DIMSAH
 70
     0
  9
$DIMBLK1
  1

  9
$DIMBLK2
  1

  9
$DIMSTYLE
  2
ISO-25
  9
$DIMCLRD
 70
     0
  9
$DIMCLRE
 70
     0
  9
$DIMCLRT
 70
     0
  9
$DIMTFAC
 40
1.0
  9
$DIMGAP
 40
0.625
  9
$LUNITS
 70
     2
  9
$LUPREC
 70
     4
  9
$SKETCHINC
 40
1.0
  9
$FILLETRAD
 40
0.0
  9
$AUNITS
 70
     0
  9
$AUPREC
 70
     0
  9
$MENU
  1
.
  9
$ELEVATION
 40
0.0
  9
$PELEVATION
 40
0.0
  9
$THICKNESS
 40
0.0
  9
$LIMCHECK
 70
     0
  9
$BLIPMODE
 70
     0
  9
$CHAMFERA
 40
10.0
  9
$CHAMFERB
 40
10.0
  9
$SKPOLY
 70
     0
  9
$TDCREATE
 40
2453378.22126956
  9
$TDUPDATE
 40
2453411.4966163891
  9
$TDINDWG
 40
0.360584375
  9
$TDUSRTIMER
 40
0.3605703704
  9
$USRTIMER
 70
     1
  9
$ANGBASE
 50
0.0
  9
$ANGDIR
 70
     0
  9
$PDMODE
 70
     0
  9
$PDSIZE
 40
0.0
  9
$PLINEWID
 40
0.0
  9
$COORDS
 70
     1
  9
$SPLFRAME
 70
     0
  9
$SPLINETYPE
 70
     6
  9
$SPLINESEGS
 70
     8
  9
$ATTDIA
 70
     0
  9
$ATTREQ
 70
     1
  9
$HANDLING
 70
     1
  9
$HANDSEED
  5
4352E
  9
$SURFTAB1
 70
     6
  9
$SURFTAB2
 70
     6
  9
$SURFTYPE
 70
     6
  9
$SURFU
 70
     6
  9
$SURFV
 70
     6
  9
$UCSNAME
  2

  9
$UCSORG
 10
0.0
 20
0.0
 30
0.0
  9
$UCSXDIR
 10
1.0
 20
0.0
 30
0.0
  9
$UCSYDIR
 10
0.0
 20
1.0
 30
0.0
  9
$PUCSNAME
  2

  9
$PUCSORG
 10
0.0
 20
0.0
 30
0.0
  9
$PUCSXDIR
 10
1.0
 20
0.0
 30
0.0
  9
$PUCSYDIR
 10
0.0
 20
1.0
 30
0.0
  9
$USERI1
 70
     0
  9
$USERI2
 70
     0
  9
$USERI3
 70
     0
  9
$USERI4
 70
     0
  9
$USERI5
 70
     0
  9
$USERR1
 40
0.0
  9
$USERR2
 40
0.0
  9
$USERR3
 40
0.0
  9
$USERR4
 40
0.0
  9
$USERR5
 40
0.0
  9
$WORLDVIEW
 70
     1
  9
$SHADEDGE
 70
     3
  9
$SHADEDIF
 70
    70
  9
$TILEMODE
 70
     1
  9
$MAXACTVP
 70
    64
  9
$PLIMCHECK
 70
     0
  9
$PEXTMIN
 10
1.0000000000000000E+020
 20
1.0000000000000000E+020
 30
1.0000000000000000E+020
  9
$PEXTMAX
 10
-1.0000000000000000E+020
 20
-1.0000000000000000E+020
 30
-1.0000000000000000E+020
  9
$PLIMMIN
 10
0.0
 20
0.0
  9
$PLIMMAX
 10
420.0
 20
297.0
  9
$UNITMODE
 70
     0
  9
$VISRETAIN
 70
     1
  9
$PLINEGEN
 70
     0
  9
$PSLTSCALE
 70
     1
  0
ENDSEC
  0
SECTION
  2
TABLES
  0
TABLE
  2
VPORT
 70
     2
  0
VPORT
  2
*ACTIVE
 70
     0
 10
0.0
 20
0.0
 11
1.0
 21
1.0
 12
0.3252986763257208
 22
2.0617899009111511
 13
0.0
 23
0.0
 14
10.0
 24
10.0
 15
10.0
 25
10.0
 16
0.0
 26
0.0
 36
1.0
 17
0.0
 27
0.0
 37
0.0
 40
5.0827577585022254
 41
1.9608247422680409
 42
50.0
 43
0.0
 44
0.0
 50
0.0
 51
0.0
 71
     0
 72
  1000
 73
     1
 74
     3
 75
     0
 76
     0
 77
     0
 78
     0
  0
ENDTAB
  0
TABLE
  2
LTYPE
 70
     1
  0
LTYPE
  2
CONTINUOUS
 70
     0
  3
Solid line
 72
    65
 73
     0
 40
0.0
  0
ENDTAB
  0
TABLE
  2
LAYER
 70
     3
  0
LAYER
  2
0
 70
     0
 62
     7
  6
CONTINUOUS
  0
LAYER
  2
ASHADE
 70
     0
 62
     7
  6
CONTINUOUS
  0
LAYER
  2
DEFPOINTS
 70
     0
 62
     7
  6
CONTINUOUS
  0
ENDTAB
  0
TABLE
  2
STYLE
 70
     2
  0
STYLE
  2
STANDARD
 70
     0
 40
0.0
 41
1.0
 50
0.0
 71
     0
 42
0.001
  3
txt
  4

  0
STYLE
  2
ASHADE
 70
     0
 40
0.2
 41
1.0
 50
0.0
 71
     0
 42
2.5
  3
simplex.shx
  4

  0
ENDTAB
  0
TABLE
  2
VIEW
 70
     0
  0
ENDTAB
  0
TABLE
  2
UCS
 70
     0
  0
ENDTAB
  0
TABLE
  2
APPID
 70
     6
  0
APPID
  2
ACAD
 70
     0
  0
APPID
  2
AVE_RENDER
 70
     0
  0
APPID
  2
AVE_ENTITY_MATERIAL
 70
     0
  0
APPID
  2
AVE_FINISH
 70
     0
  0
APPID
  2
AVE_MATERIAL
 70
     0
  0
APPID
  2
AVE_GLOBAL
 70
     0
  0
ENDTAB
  0
TABLE
  2
DIMSTYLE
 70
     2
  0
DIMSTYLE
  2
ISO-25
 70
     0
  3

  4

  5

  6

  7

 40
1.0
 41
2.5
 42
0.625
 43
3.75
 44
1.25
 45
0.0
 46
0.0
 47
0.0
 48
0.0
140
2.5
141
2.5
142
0.0
143
0.03937007874016
144
1.0
145
0.0
146
1.0
147
0.625
 71
     0
 72
     0
 73
     0
 74
     0
 75
     0
 76
     0
 77
     1
 78
     8
170
     0
171
     3
172
     1
173
     0
174
     0
175
     0
176
     0
177
     0
178
     0
  0
DIMSTYLE
  2
STANDARD
 70
     0
  3

  4

  5

  6

  7

 40
1.0
 41
0.18
 42
0.0625
 43
0.38
 44
0.18
 45
0.0
 46
0.0
 47
0.0
 48
0.0
140
0.18
141
0.09
142
0.0
143
25.399999999999999
144
1.0
145
0.0
146
1.0
147
0.09
 71
     0
 72
     0
 73
     1
 74
     1
 75
     0
 76
     0
 77
     0
 78
     0
170
     0
171
     2
172
     0
173
     0
174
     0
175
     0
176
     0
177
     0
178
     0
  0
ENDTAB
  0
ENDSEC
  0
SECTION
  2
BLOCKS
  0
BLOCK
  8
0
  2
$MODEL_SPACE
 70
     0
 10
0.0
 20
0.0
 30
0.0
  3
$MODEL_SPACE
  1

  0
ENDBLK
  5
4340F
  8
0
  0
BLOCK
 67
     1
  8
0
  2
$PAPER_SPACE
 70
     0
 10
0.0
 20
0.0
 30
0.0
  3
$PAPER_SPACE
  1

  0
ENDBLK
  5
4340B
 67
     1
  8
0
  0
BLOCK
  8
ASHADE
  2
AVE_RENDER
 70
     0
 10
0.0
 20
0.0
 30
0.0
  3
AVE_RENDER
  1
AVE_RENDER
  0
ENDBLK
  5
31
  8
0
  0
BLOCK
  8
ASHADE
  2
AVE_GLOBAL
 70
     0
 10
0.0
 20
0.0
 30
0.0
  3
AVE_GLOBAL
  1
AVE_GLOBAL
  0
ENDBLK
  5
3F
  8
0
  0
BLOCK
  8
ASHADE
  2
RM_SDB
 70
     2
 10
0.0
 20
0.0
 30
0.0
  3
RM_SDB
  1
RM_SDB
  0
ATTDEF
  5
3E65C
  8
ASHADE
  6
CONTINUOUS
 62
     1
 10
0.0000000000000001
 20
-0.15
 30
0.0
 40
0.2
  1

 41
100.0
  7
ASHADE
 72
     1
 11
0.0000000000000001
 21
-0.15
 31
0.0
  3
Name
  2
NAME
 70
     0
  0
ENDBLK
  5
620
  8
0
  0
ENDSEC
  0
SECTION
  2
ENTITIES
  0
ATTDEF
  5
4339F
  8
0
 10
0.0
 20
0.0
 30
0.0
 40
0.001
  1
K-454-4V
  3

  2
MODELNUMBER
 70
     8
  0
ATTDEF
  5
433A0
  8
0
 10
0.0
 20
-0.0016666666666667
 30
0.0
 40
0.001
  1
MEMOIRS STATELY
  3

  2
TRADENAME
 70
     8
  0
ATTDEF
  5
433A1
  8
0
 10
0.0
 20
-0.0033333333333333
 30
0.0
 40
0.001
  1
FAUCETS
  3

  2
PRODUCT
 70
     8
  0
ATTDEF
  5
433A2
  8
0
 10
0.0
 20
-0.005
 30
0.0
 40
0.001
  1
BRASS
  3

  2
MATERIAL
 70
     8
  0
POLYLINE
  5
4345B
  8
ASHADE
 66
     1
 10
0.0
 20
0.0
 30
0.0016651134485182
 70
     1
  0
VERTEX
  5
434C1
  8
ASHADE
 10
-3.4321765716528061
 20
1.8492636527395181
 30
0.0016651134485182
  0
VERTEX
  5
434C2
  8
ASHADE
 10
-4.160174513742839
 20
2.252799549309016
 30
0.0016651134485182
  0
VERTEX
  5
434C3
  8
ASHADE
 10
-4.1658008054947153
 20
2.2717162422811952
 30
0.0016651134485182
  0
VERTEX
  5
434C4
  8
ASHADE
 10
-4.0732520469139963
 20
2.4386801387561139
 30
0.0016651134485182
  0
VERTEX
  5
434C5
  8
ASHADE
 10
-4.0542258269048084
 20
2.443936009672937
 30
0.0016651134485182
  0
VERTEX
  5
434C6
  8
ASHADE
 10
-3.3262278848146711
 20
2.0404004650986161
 30
0.0016651134485182
  0
VERTEX
  5
434C7
  8
ASHADE
 10
-3.3206034703706981
 20
2.0214802521741362
 30
0.0016651134485182
  0
VERTEX
  5
434C8
  8
ASHADE
 10
-3.413153275198141
 20
1.8545169356412821
 30
0.0016651134485182
  0
SEQEND
  5
434C9
  8
ASHADE
  0
POLYLINE
  5
43463
  8
ASHADE
 66
     1
 10
0.0
 20
0.0
 30
0.0016651134341954
  0
VERTEX
  5
434CA
  8
ASHADE
 10
-3.3792392056539891
 20
2.069785097920624
 30
0.0016651134341954
  0
VERTEX
  5
434CB
  8
ASHADE
 10
-3.3848632501816009
 20
2.088703831819295
 30
0.0016651134341954
  0
VERTEX
  5
434CC
  8
ASHADE
 10
-3.3538169461614089
 20
2.1444794565387761
 30
0.0016651134341954
  0
SEQEND
  5
434CD
  8
ASHADE
  0
POLYLINE
  5
43465
  8
ASHADE
 66
     1
 10
0.0
 20
0.0
 30
0.0015174439875118
  0
VERTEX
  5
434CE
  8
ASHADE
 10
-4.002036902174873
 20
2.4150068123912849
 30
0.0015174439875118
  0
VERTEX
  5
434CF
  8
ASHADE
 10
-3.9822033789610121
 20
2.419814715234045
 30
0.0015174439875118
  0
VERTEX
  5
434D0
  8
ASHADE
 10
-3.9507292486088099
 20
2.4765935630396161
 30
0.0015174439875118
  0
SEQEND
  5
434D1
  8
ASHADE
  0
POLYLINE
  5
43467
  8
ASHADE
 66
     1
 10
0.0
 20
0.0
 30
0.0
  0
VERTEX
  5
434D2
  8
ASHADE
 10
0.9462455101454924
 20
0.0
 30
0.0
  0
VERTEX
  5
434D3
  8
ASHADE
 10
1.8773780219996641
 20
0.0
 30
0.0
  0
VERTEX
  5
434D4
  8
ASHADE
 10
1.8911255476916491
 20
0.0
 30
0.0
 42
0.4541754827713158
  0
VERTEX
  5
434D5
  8
ASHADE
 10
1.8911255476916491
 20
0.0787399981775749
 30
0.0
  0
VERTEX
  5
434D6
  8
ASHADE
 10
1.80285077600128
 20
0.0787399981775785
 30
0.0
  0
VERTEX
  5
434D7
  8
ASHADE
 10
1.7974887153351971
 20
0.0862468977765598
 30
0.0
  0
VERTEX
  5
434D8
  8
ASHADE
 10
1.7974887153351959
 20
0.1574799964176026
 30
0.0
 42
-0.0907880595832147
  0
VERTEX
  5
434D9
  8
ASHADE
 10
1.364367502375905
 20
1.4370049788178381
 30
0.0
 42
-0.0309568980485057
  0
VERTEX
  5
434DA
  8
ASHADE
 10
1.275653440638846
 20
2.232748685476313
 30
0.0
 42
-0.0245857084957597
  0
VERTEX
  5
434DB
  8
ASHADE
 10
1.2756553208565291
 20
2.299200926241415
 30
0.0
 42
0.12010690293452
  0
VERTEX
  5
434DC
  8
ASHADE
 10
1.241975006386107
 20
2.3622005631299152
 30
0.0
  0
VERTEX
  5
434DD
  8
ASHADE
 10
0.9455627738458248
 20
2.362400870852233
 30
0.0
  0
VERTEX
  5
434DE
  8
ASHADE
 10
0.6491505413055416
 20
2.3622005631299152
 30
0.0
 42
0.1201069029345201
  0
VERTEX
  5
434DF
  8
ASHADE
 10
0.6154702268351209
 20
2.299200926241415
 30
0.0
 42
-0.0245857084957597
  0
VERTEX
  5
434E0
  8
ASHADE
 10
0.6154721070528028
 20
2.2327486854763108
 30
0.0
 42
-0.0309568980485057
  0
VERTEX
  5
434E1
  8
ASHADE
 10
0.5267580453157433
 20
1.437004978817837
 30
0.0
 42
-0.0907880595832149
  0
VERTEX
  5
434E2
  8
ASHADE
 10
0.093636832356453
 20
0.1574799964176012
 30
0.0
  0
VERTEX
  5
434E3
  8
ASHADE
 10
0.093636832356453
 20
0.0862468977765598
 30
0.0
  0
VERTEX
  5
434E4
  8
ASHADE
 10
0.0882747716903689
 20
0.0787399981775785
 30
0.0
  0
VERTEX
  5
434E5
  8
ASHADE
 10
0.0000000000000007
 20
0.0787399981775749
 30
0.0
 42
0.4541754827713158
  0
VERTEX
  5
434E6
  8
ASHADE
 10
0.0000000000000007
 20
0.0
 30
0.0
  0
VERTEX
  5
434E7
  8
ASHADE
 10
0.0137475256919868
 20
0.0
 30
0.0
  0
VERTEX
  5
434E8
  8
ASHADE
 10
0.9448800375461575
 20
0.0
 30
0.0
  0
SEQEND
  5
434E9
  8
ASHADE
  0
POLYLINE
  5
4347D
  8
ASHADE
 66
     1
 10
0.0
 20
0.0
 30
0.0016651134341954
  0
VERTEX
  5
434EA
  8
ASHADE
 10
0.0119771617522311
 20
0.0787399981775754
 30
0.0016651134341954
 42
0.0687257797819989
  0
VERTEX
  5
434EB
  8
ASHADE
 10
0.2583162410402977
 20
1.1811000891005949
 30
0.0016651134341954
 42
0.135008424211936
  0
VERTEX
  5
434EC
  8
ASHADE
 10
0.166603883936473
 20
2.0845096913254242
 30
0.0016651134341954
 42
0.2369308784644185
  0
VERTEX
  5
434ED
  8
ASHADE
 10
-0.6499391621803561
 20
2.5872081586992621
 30
0.0016651134341954
  0
VERTEX
  5
434EE
  8
ASHADE
 10
-2.7707582926010379
 20
2.5872081586992621
 30
0.0016651134341954
 42
0.2414409879165403
  0
VERTEX
  5
434EF
  8
ASHADE
 10
-3.168617562100815
 20
2.382807344762087
 30
0.0016651134341954
  0
VERTEX
  5
434F0
  8
ASHADE
 10
-3.2762957188343269
 20
2.1645285322344261
 30
0.0016651134341954
 42
-0.2919768078136335
  0
VERTEX
  5
434F1
  8
ASHADE
 10
-3.3499105931971429
 20
2.1423050690290339
 30
0.0016651134341954
  0
VERTEX
  5
434F2
  8
ASHADE
 10
-3.9584624740337642
 20
2.4810424081361262
 30
0.0016651134341954
 42
-0.2896369669777324
  0
VERTEX
  5
434F3
  8
ASHADE
 10
-3.9791734040235709
 20
2.5556358292376959
 30
0.0016651134341954
  0
VERTEX
  5
434F4
  8
ASHADE
 10
-3.9341927570546442
 20
2.6358249100084041
 30
0.0016651134341954
 42
-0.1953372058712072
  0
VERTEX
  5
434F5
  8
ASHADE
 10
-3.307370327041073
 20
3.151419083116056
 30
0.0016651134341954
 42
-0.0699883354283101
  0
VERTEX
  5
434F6
  8
ASHADE
 10
-2.7707582926010379
 20
3.267710445789096
 30
0.0016651134341954
  0
VERTEX
  5
434F7
  8
ASHADE
 10
1.5462983488286199
 20
3.267710445789096
 30
0.0016651134341954
 42
-0.285714361740707
  0
VERTEX
  5
434F8
  8
ASHADE
 10
1.6014163431966959
 20
3.212592451421024
 30
0.0016651134341954
  0
VERTEX
  5
434F9
  8
ASHADE
 10
1.6023447105915349
 20
2.084487848217246
 30
0.0016651134341954
 42
0.0599989643572366
  0
VERTEX
  5
434FA
  8
ASHADE
 10
1.7264950321162409
 20
0.5905500509677877
 30
0.0016651134341954
 42
0.0257555764788276
  0
VERTEX
  5
434FB
  8
ASHADE
 10
1.88170826240128
 20
0.0787399981775781
 30
0.0016651134341954
  0
SEQEND
  5
434FC
  8
ASHADE
  0
POLYLINE
  5
4348E
  8
ASHADE
 66
     1
 10
0.0
 20
0.0
 30
-0.0115473721753807
  0
VERTEX
  5
434FD
  8
ASHADE
 10
0.6655301357651434
 20
3.267174239722495
 30
-0.0115473721753807
 42
0.2856857520006376
  0
VERTEX
  5
434FE
  8
ASHADE
 10
0.6379087180937018
 20
3.239561152604816
 30
-0.0115473721753807
  0
VERTEX
  5
434FF
  8
ASHADE
 10
0.6376193854660361
 20
3.212124040689345
 30
-0.0115473721753807
  0
VERTEX
  5
43500
  8
ASHADE
 10
0.6379088354254446
 20
2.7085679006850638
 30
-0.0115473721753807
 42
0.2857006191075006
  0
VERTEX
  5
43501
  8
ASHADE
 10
0.6655310744190892
 20
2.6809548135673942
 30
-0.0115473721753807
  0
VERTEX
  5
43502
  8
ASHADE
 10
0.9525821869368039
 20
2.6809548135673942
 30
-0.0115473721753807
  0
VERTEX
  5
43503
  8
ASHADE
 10
1.2396332994545169
 20
2.6809548135673942
 30
-0.0115473721753807
 42
0.2857006191075026
  0
VERTEX
  5
43504
  8
ASHADE
 10
1.2672555384481621
 20
2.7085679006850629
 30
-0.0115473721753807
  0
VERTEX
  5
43505
  8
ASHADE
 10
1.267544988407572
 20
3.212124040689345
 30
-0.0115473721753807
  0
VERTEX
  5
43506
  8
ASHADE
 10
1.2672556557799051
 20
3.2395611526048138
 30
-0.0115473721753807
 42
0.2856857520006391
  0
VERTEX
  5
43507
  8
ASHADE
 10
1.2396342381084631
 20
3.267174239722495
 30
-0.0115473721753807
  0
SEQEND
  5
43508
  8
ASHADE
  0
POLYLINE
  5
43498
  8
ASHADE
 66
     1
 10
0.0
 20
0.0
 30
-0.0094067718517035
  0
VERTEX
  5
43509
  8
ASHADE
 10
1.391032184038524
 20
3.267710445789096
 30
-0.0094067718517035
  0
VERTEX
  5
4350A
  8
ASHADE
 10
1.4268885577502031
 20
3.2957344286715951
 30
-0.0094067718517035
  0
VERTEX
  5
4350B
  8
ASHADE
 10
1.5901721635790831
 20
4.2451603672778564
 30
-0.0094067718517035
  0
VERTEX
  5
4350C
  8
ASHADE
 10
1.5847365652429231
 20
4.2671173603808947
 30
-0.0094067718517035
  0
VERTEX
  5
4350D
  8
ASHADE
 10
1.4527273542465931
 20
4.3891573918139981
 30
-0.0094067718517035
  0
VERTEX
  5
4350E
  8
ASHADE
 10
1.42459714061158
 20
4.3971382847853953
 30
-0.0094067718517035
  0
VERTEX
  5
4350F
  8
ASHADE
 10
1.203339489312313
 20
4.397135950354337
 30
-0.0094067718517035
  0
VERTEX
  5
43510
  8
ASHADE
 10
0.9820818380130463
 20
4.3971382847853953
 30
-0.0094067718517035
  0
VERTEX
  5
43511
  8
ASHADE
 10
0.9539516243780331
 20
4.3891573918139981
 30
-0.0094067718517035
  0
VERTEX
  5
43512
  8
ASHADE
 10
0.8219424133817035
 20
4.2671173603808947
 30
-0.0094067718517035
  0
VERTEX
  5
43513
  8
ASHADE
 10
0.8165068150455439
 20
4.2451603672778564
 30
-0.0094067718517035
  0
VERTEX
  5
43514
  8
ASHADE
 10
0.9797904208744244
 20
3.2957344286715951
 30
-0.0094067718517035
  0
VERTEX
  5
43515
  8
ASHADE
 10
1.0156467945861021
 20
3.267710445789096
 30
-0.0094067718517035
  0
SEQEND
  5
43516
  8
ASHADE
  0
POLYLINE
  5
434A4
  8
ASHADE
 66
     1
 10
0.0
 20
0.0
 30
-0.0094067718517036
  0
VERTEX
  5
43517
  8
ASHADE
 10
1.1886564264353401
 20
2.6809548135673928
 30
-0.0094067718517036
 42
0.0105953863189666
  0
VERTEX
  5
43518
  8
ASHADE
 10
1.1898669232273771
 20
2.6780966123020562
 30
-0.0094067718517036
 42
0.2460009945280167
  0
VERTEX
  5
43519
  8
ASHADE
 10
1.253706420733995
 20
2.6476929070031541
 30
-0.0094067718517036
 42
-0.2230185117024969
  0
VERTEX
  5
4351A
  8
ASHADE
 10
1.281347784801788
 20
2.6157099164402471
 30
-0.0094067718517036
  0
VERTEX
  5
4351B
  8
ASHADE
 10
1.2813084786678031
 20
2.4169745830571561
 30
-0.0094067718517036
  0
VERTEX
  5
4351C
  8
ASHADE
 10
1.2711694907391731
 20
2.4070323604619439
 30
-0.0094067718517036
  0
VERTEX
  5
4351D
  8
ASHADE
 10
1.2256956963384811
 20
2.4070323604619439
 30
-0.0094067718517036
  0
VERTEX
  5
4351E
  8
ASHADE
 10
1.215559910439117
 20
2.397090137866734
 30
-0.0094067718517036
  0
VERTEX
  5
4351F
  8
ASHADE
 10
1.215558340650984
 20
2.3622184148295542
 30
-0.0094067718517036
  0
SEQEND
  5
43520
  8
ASHADE
  0
POLYLINE
  5
434AC
  8
ASHADE
 66
     1
 10
0.0
 20
0.0
 30
-0.0094067718517036
  0
VERTEX
  5
43521
  8
ASHADE
 10
0.6895756438749765
 20
2.3622278813689461
 30
-0.0094067718517036
  0
VERTEX
  5
43522
  8
ASHADE
 10
0.6895740745129909
 20
2.397090137866734
 30
-0.0094067718517036
  0
VERTEX
  5
43523
  8
ASHADE
 10
0.6794382886136259
 20
2.4070323604619439
 30
-0.0094067718517036
  0
VERTEX
  5
43524
  8
ASHADE
 10
0.6339644942129339
 20
2.4070323604619439
 30
-0.0094067718517036
  0
VERTEX
  5
43525
  8
ASHADE
 10
0.6238255062843061
 20
2.4169745830571561
 30
-0.0094067718517036
  0
VERTEX
  5
43526
  8
ASHADE
 10
0.6237862001503199
 20
2.615709916440248
 30
-0.0094067718517036
 42
-0.223018511702495
  0
VERTEX
  5
43527
  8
ASHADE
 10
0.6514275642181122
 20
2.6476929070031541
 30
-0.0094067718517036
 42
0.2460009945280169
  0
VERTEX
  5
43528
  8
ASHADE
 10
0.7152670617247309
 20
2.6780966123020549
 30
-0.0094067718517036
 42
0.0105953863189672
  0
VERTEX
  5
43529
  8
ASHADE
 10
0.7164775585167681
 20
2.6809548135673928
 30
-0.0094067718517036
  0
SEQEND
  5
4352A
  8
ASHADE
  0
POLYLINE
  5
434B4
  8
ASHADE
 66
     1
 10
0.0
 20
0.0
 30
0.0
  0
VERTEX
  5
4352B
  8
ASHADE
 10
1.80285077600128
 20
0.0787399981775785
 30
0.0
  0
VERTEX
  5
4352C
  8
ASHADE
 10
0.0882747716903689
 20
0.0787399981775785
 30
0.0
  0
SEQEND
  5
4352D
  8
ASHADE
  0
ENDSEC
  0
EOF
