  0
SECTION
  2
HEADER
  9
$ACADVER
  1
AC1009
  9
$INSBASE
 10
3.6453234699000001
 20
-4.9118028412000001
 30
0.0
  9
$EXTMIN
 10
2.5794245658295898
 20
-4.9219876029997769
 30
-0.0000000349181948
  9
$EXTMAX
 10
6.6507233401319894
 20
11.22061025537846
 30
0.0000000814935746
  9
$LIMMIN
 10
0.0
 20
0.0
  9
$LIMMAX
 10
11.692913385800001
 20
8.2677165353999982
  9
$ORTHOMODE
 70
     0
  9
$REGENMODE
 70
     1
  9
$FILLMODE
 70
     1
  9
$QTEXTMODE
 70
     0
  9
$MIRRTEXT
 70
     0
  9
$DRAGMODE
 70
     2
  9
$LTSCALE
 40
0.6431102362
  9
$OSMODE
 70
   231
  9
$ATTMODE
 70
     1
  9
$TEXTSIZE
 40
0.2
  9
$TRACEWID
 40
0.05
  9
$TEXTSTYLE
  7
STANDARD
  9
$CLAYER
  8
0
  9
$CELTYPE
  6
BYLAYER
  9
$CECOLOR
 62
   256
  9
$DIMSCALE
 40
1.0
  9
$DIMASZ
 40
0.1875
  9
$DIMEXO
 40
0.0625
  9
$DIMDLI
 40
0.4443307087
  9
$DIMRND
 40
0.0
  9
$DIMDLE
 40
0.0
  9
$DIMEXE
 40
0.125
  9
$DIMTP
 40
0.0
  9
$DIMTM
 40
0.0
  9
$DIMTXT
 40
1.0
  9
$DIMCEN
 40
0.1052362205
  9
$DIMTSZ
 40
0.0
  9
$DIMTOL
 70
     0
  9
$DIMLIM
 70
     0
  9
$DIMTIH
 70
     1
  9
$DIMTOH
 70
     1
  9
$DIMSE1
 70
     0
  9
$DIMSE2
 70
     0
  9
$DIMTAD
 70
     0
  9
$DIMZIN
 70
     0
  9
$DIMBLK
  1

  9
$DIMASO
 70
     1
  9
$DIMSHO
 70
     1
  9
$DIMPOST
  1
\X
  9
$DIMAPOST
  1

  9
$DIMALT
 70
     1
  9
$DIMALTD
 70
     2
  9
$DIMALTF
 40
25.399999999999999
  9
$DIMLFAC
 40
1.0
  9
$DIMTOFL
 70
     0
  9
$DIMTVP
 40
0.0
  9
$DIMTIX
 70
     0
  9
$DIMSOXD
 70
     0
  9
$DIMSAH
 70
     0
  9
$DIMBLK1
  1

  9
$DIMBLK2
  1

  9
$DIMSTYLE
  2
STANDARD
  9
$DIMCLRD
 70
     0
  9
$DIMCLRE
 70
     0
  9
$DIMCLRT
 70
     0
  9
$DIMTFAC
 40
1.0
  9
$DIMGAP
 40
0.09
  9
$LUNITS
 70
     2
  9
$LUPREC
 70
     4
  9
$SKETCHINC
 40
0.1
  9
$FILLETRAD
 40
0.0
  9
$AUNITS
 70
     0
  9
$AUPREC
 70
     0
  9
$MENU
  1
.
  9
$ELEVATION
 40
0.0
  9
$PELEVATION
 40
0.0
  9
$THICKNESS
 40
0.0
  9
$LIMCHECK
 70
     0
  9
$BLIPMODE
 70
     0
  9
$CHAMFERA
 40
0.0
  9
$CHAMFERB
 40
0.0
  9
$SKPOLY
 70
     0
  9
$TDCREATE
 40
2457954.5844966322
  9
$TDUPDATE
 40
2457954.675388264
  9
$TDINDWG
 40
0.0849228935
  9
$TDUSRTIMER
 40
0.0849228935
  9
$USRTIMER
 70
     1
  9
$ANGBASE
 50
0.0
  9
$ANGDIR
 70
     0
  9
$PDMODE
 70
     0
  9
$PDSIZE
 40
0.3125
  9
$PLINEWID
 40
0.0
  9
$COORDS
 70
     1
  9
$SPLFRAME
 70
     0
  9
$SPLINETYPE
 70
     6
  9
$SPLINESEGS
 70
     8
  9
$ATTDIA
 70
     1
  9
$ATTREQ
 70
     1
  9
$HANDLING
 70
     1
  9
$HANDSEED
  5
1EA5
  9
$SURFTAB1
 70
     6
  9
$SURFTAB2
 70
     6
  9
$SURFTYPE
 70
     6
  9
$SURFU
 70
     6
  9
$SURFV
 70
     6
  9
$UCSNAME
  2

  9
$UCSORG
 10
0.0
 20
0.0
 30
0.0
  9
$UCSXDIR
 10
1.0
 20
0.0
 30
0.0
  9
$UCSYDIR
 10
0.0
 20
1.0
 30
0.0
  9
$PUCSNAME
  2

  9
$PUCSORG
 10
0.0
 20
0.0
 30
0.0
  9
$PUCSXDIR
 10
1.0
 20
0.0
 30
0.0
  9
$PUCSYDIR
 10
0.0
 20
1.0
 30
0.0
  9
$USERI1
 70
     0
  9
$USERI2
 70
     0
  9
$USERI3
 70
     0
  9
$USERI4
 70
     0
  9
$USERI5
 70
     0
  9
$USERR1
 40
0.0
  9
$USERR2
 40
0.0
  9
$USERR3
 40
0.0
  9
$USERR4
 40
0.0
  9
$USERR5
 40
0.0
  9
$WORLDVIEW
 70
     1
  9
$SHADEDGE
 70
     3
  9
$SHADEDIF
 70
    70
  9
$TILEMODE
 70
     1
  9
$MAXACTVP
 70
    48
  9
$PLIMCHECK
 70
     0
  9
$PEXTMIN
 10
1.0000000000000000E+020
 20
1.0000000000000000E+020
 30
1.0000000000000000E+020
  9
$PEXTMAX
 10
-1.0000000000000000E+020
 20
-1.0000000000000000E+020
 30
-1.0000000000000000E+020
  9
$PLIMMIN
 10
0.0
 20
0.0
  9
$PLIMMAX
 10
12.0
 20
9.0
  9
$UNITMODE
 70
     0
  9
$VISRETAIN
 70
     1
  9
$PLINEGEN
 70
     0
  9
$PSLTSCALE
 70
     1
  0
ENDSEC
  0
SECTION
  2
TABLES
  0
TABLE
  2
VPORT
 70
     1
  0
VPORT
  2
*ACTIVE
 70
     0
 10
0.0
 20
0.0
 11
1.0
 21
1.0
 12
4.61507395298079
 22
3.149311326189344
 13
0.0
 23
0.0
 14
1.0
 24
1.0
 15
0.0
 25
0.0
 16
0.0
 26
0.0
 36
1.0
 17
0.0
 27
0.0
 37
0.0
 40
16.250533857173181
 41
1.786624203821656
 42
50.0
 43
0.0
 44
0.0
 50
0.0
 51
0.0
 71
     0
 72
   100
 73
     1
 74
     1
 75
     0
 76
     0
 77
     0
 78
     0
  0
ENDTAB
  0
TABLE
  2
LTYPE
 70
     2
  0
LTYPE
  2
CONTINUOUS
 70
     0
  3
Solid line
 72
    65
 73
     0
 40
0.0
  0
LTYPE
  2
PHANTOM2
 70
     0
  3
___ _ _ ___ _ _ ___ _ _ ___ _ _
 72
    65
 73
     6
 40
1.25
 49
0.625
 49
-0.125
 49
0.125
 49
-0.125
 49
0.125
 49
-0.125
  0
ENDTAB
  0
TABLE
  2
LAYER
 70
     2
  0
LAYER
  2
0
 70
     0
 62
     7
  6
CONTINUOUS
  0
LAYER
  2
DEFPOINTS
 70
     0
 62
     7
  6
CONTINUOUS
  0
ENDTAB
  0
TABLE
  2
STYLE
 70
     1
  0
STYLE
  2
STANDARD
 70
     0
 40
0.0
 41
0.8
 50
0.0
 71
     0
 42
0.2
  3
txt
  4

  0
ENDTAB
  0
TABLE
  2
VIEW
 70
     0
  0
ENDTAB
  0
TABLE
  2
UCS
 70
     0
  0
ENDTAB
  0
TABLE
  2
APPID
 70
     7
  0
APPID
  2
ACAD
 70
     0
  0
APPID
  2
ACAD_MLEADERVER
 70
     0
  0
APPID
  2
ACAD_NAV_VCDISPLAY
 70
     0
  0
APPID
  2
ACAD_DSTYLE_DIMJAG
 70
     0
  0
APPID
  2
ACAD_DSTYLE_DIMTALN
 70
     0
  0
APPID
  2
ACAD_EXEMPT_FROM_CAD_STANDARDS
 70
     0
  0
APPID
  2
ACDBATTR
 70
     0
  0
ENDTAB
  0
TABLE
  2
DIMSTYLE
 70
     1
  0
DIMSTYLE
  2
STANDARD
 70
     0
  3

  4

  5

  6

  7

 40
1.0
 41
0.1875
 42
0.0625
 43
0.38
 44
0.125
 45
0.0
 46
0.0
 47
1.5
 48
1.5
140
0.15625
141
0.09
142
0.0
143
25.399999999999999
144
1.0
145
0.0
146
1.0
147
0.09
 71
     0
 72
     0
 73
     1
 74
     1
 75
     0
 76
     0
 77
     0
 78
     4
170
     0
171
     2
172
     0
173
     0
174
     0
175
     0
176
     0
177
     0
178
     0
  0
ENDTAB
  0
ENDSEC
  0
SECTION
  2
BLOCKS
  0
BLOCK
  8
0
  2
$MODEL_SPACE
 70
     0
 10
0.0
 20
0.0
 30
0.0
  3
$MODEL_SPACE
  1

  0
ENDBLK
  5
21
  8
0
  0
BLOCK
 67
     1
  8
0
  2
$PAPER_SPACE
 70
     0
 10
0.0
 20
0.0
 30
0.0
  3
$PAPER_SPACE
  1

  0
ENDBLK
  5
1D
 67
     1
  8
0
  0
ENDSEC
  0
SECTION
  2
ENTITIES
  0
LINE
  5
22E
  8
0
 10
2.655331646
 20
-4.9118028412000001
 30
0.0
 11
4.6353152937999988
 21
-4.9118028412000001
 31
0.0
  0
LINE
  5
230
  8
0
 10
2.6453234849
 20
-4.8518028411999987
 30
0.0
 11
4.6453234548999989
 21
-4.8518028411999987
 31
0.0
  0
LINE
  5
234
  8
0
 10
4.6583117855999987
 20
-4.4256966125000003
 30
0.0
 11
2.6323351543000002
 21
-4.4256966125000003
 31
0.0
  0
LINE
  5
235
  8
0
 10
2.6293415685000001
 20
-4.2623563406000002
 30
0.0
 11
4.6612965008999989
 21
-4.2623563406000002
 31
0.0
  0
LINE
  5
23A
  8
0
 10
5.7910735269
 20
-3.1036412810999998
 30
0.0
 11
5.9911896116999994
 21
-3.1036412810999998
 31
0.0
  0
LINE
  5
23B
  8
0
 10
6.1911886210000002
 20
-3.1036412809999998
 30
0.0
 11
6.3603520378999994
 21
-3.1036412809999998
 31
0.0
  0
LINE
  5
241
  8
0
 10
6.3373108122000001
 20
-2.6035273429000001
 30
0.0
 11
6.1331292248000002
 21
-2.6035052466999988
 31
0.0
  0
LINE
  5
24C
  8
0
 10
5.9480494895999998
 20
-1.6036336926999999
 30
0.0
 11
5.4961896116999993
 21
-1.6036336926999999
 31
0.0
  0
LINE
  5
2BB
  8
0
 10
2.655323469899999
 20
-4.8718028412000001
 30
0.0
 11
2.655323469899999
 21
-4.9118028412000001
 31
0.0
  0
LINE
  5
4FC
  8
0
 10
3.0828234699000001
 20
4.3074666351999991
 30
0.0
 11
3.0828234699000001
 21
4.546227031672939
 31
0.0
  0
LINE
  5
4FD
  8
0
 10
3.0828234699000001
 20
7.5772748940999994
 30
0.0
 11
3.0828234699000001
 21
10.6573039557
 31
0.0
  0
LINE
  5
505
  8
0
 10
3.092823469899999
 20
4.2574666352000001
 30
0.0
 11
3.092823469899999
 21
4.2474666351999986
 31
0.0
  0
LINE
  5
6BD
  8
0
 10
5.5440056971000002
 20
-2.5338636228000002
 30
0.0
 11
5.7678905710999997
 21
-3.0879981308999991
 31
0.0
  0
LINE
  5
8AF
  8
0
 10
4.1978234699000003
 20
4.2574666352000001
 30
0.0
 11
4.1978234699000003
 21
4.2474666351999986
 31
0.0
  0
LINE
  5
8B9
  8
0
 10
4.2078234699000001
 20
4.3074666351999991
 30
0.0
 11
4.2078234699000001
 21
4.5456830030999988
 31
0.0
  0
LINE
  5
8BA
  8
0
 10
4.2078234699000001
 20
7.5815900438000003
 30
0.0
 11
4.2078234699000001
 21
10.6573039557
 31
0.0
  0
LINE
  5
93D
  8
0
 10
4.6353234699000003
 20
-4.8718028412000001
 30
0.0
 11
4.6353234699000003
 21
-4.9118028412000001
 31
0.0
  0
LINE
  5
951
  8
0
 10
2.8527318329
 20
3.082214046799999
 30
0.0
 11
4.4379151070000002
 21
3.082214046799999
 31
0.0
  0
LINE
  5
A64
  8
0
 10
2.8215251325000001
 20
3.2771423185000002
 30
0.0
 11
4.4691218073999996
 21
3.2771423185000002
 31
0.0
  0
LINE
  5
A67
  8
0
 10
4.496063380199999
 20
3.5748185874999989
 30
0.0
 11
2.7945835596999999
 21
3.5748185874999989
 31
0.0
  0
LINE
  5
B02
  8
0
 10
5.4153234698999988
 20
-3.081564736799999
 30
0.0
 11
5.4153234698999988
 21
-1.6220204906999991
 31
0.0
  0
LINE
  5
B03
  8
0
 10
5.471189611699999
 20
-1.628639058199999
 30
0.0
 11
5.471189611699999
 21
-2.1592571555000002
 31
0.0
  0
LINE
  5
B06
  8
0
 10
4.2415796701000001
 20
4.0926430637999989
 30
0.0
 11
3.0490672698000001
 21
4.0926430637999989
 31
0.0
  0
LINE
  5
B07
  8
0
 10
4.2078950575
 20
4.2474666351999986
 30
0.0
 11
3.0827518824000002
 21
4.2474666351999986
 31
0.0
  0
LINE
  5
B09
  8
0
 10
4.1778224165999998
 20
4.2774666351999988
 30
0.0
 11
3.1128241494000002
 21
4.2774666351999988
 31
0.0
  0
LINE
  5
B0A
  8
0
 10
3.112823469899999
 20
4.2774666351999988
 30
0.0
 11
4.1778213475000001
 21
4.2774666351999988
 31
0.0
  0
LINE
  5
C32
  8
0
 10
5.9331899112000004
 20
-2.3887770847000001
 30
0.0
 11
5.9331893872999997
 21
-1.6315510327
 31
0.0
  0
LINE
  5
D0C
  8
0
 10
3.8786273319000002
 20
4.4913692027999987
 30
0.0
 11
3.829505205599999
 21
4.4882595283999986
 31
0.0
  0
LINE
  5
D84
  8
0
 10
3.7987531674000001
 20
4.4846894274000002
 30
0.0
 11
3.4918937724000001
 21
4.4846894274000002
 31
0.0
  0
LINE
  5
D8C
  8
0
 10
3.7987521830999991
 20
4.6966820073999989
 30
0.0
 11
3.4918947423
 21
4.6966820073999989
 31
0.0
  0
ARC
  5
1365
  8
0
 10
5.3266281780999991
 20
-2.431593219699999
 30
0.0
 40
0.75
 50
78.884036663499998
 51
83.19777852819999
  0
ARC
  5
1366
  8
0
 10
5.3266281780999991
 20
-2.2720124626999998
 30
0.0
 40
0.75
 50
276.80222147180001
 51
299.93509287339998
  0
ARC
  5
1367
  8
0
 10
3.645323469900001
 20
10.65746661168439
 30
0.0
 40
0.5625000235173038
 50
359.98343199794022
 51
180.01656800205981
  0
ARC
  5
1368
  8
0
 10
3.112823469899999
 20
4.3074666351999991
 30
0.0
 40
0.03
 50
180.0
 51
270.0
  0
ARC
  5
1369
  8
0
 10
4.177823469899999
 20
4.3074666351999991
 30
0.0
 40
0.03
 50
270.0
 51
360.0
  0
ARC
  5
136A
  8
0
 10
4.6675787235000001
 20
-4.4542294683999986
 30
0.0
 40
0.03
 50
107.9928270979
 51
178.17440650649999
  0
ARC
  5
136B
  8
0
 10
2.6230682163999992
 20
-4.4542294683999986
 30
0.0
 40
0.03
 50
1.8255934934999991
 51
72.007172902099995
  0
ARC
  5
136C
  8
0
 10
4.6716259565999998
 20
-4.2341874655999989
 30
0.0
 40
0.03
 50
177.79793284390001
 51
249.87804569319999
  0
ARC
  5
136D
  8
0
 10
2.6190209832999991
 20
-4.2341874655999989
 30
0.0
 40
0.03
 50
290.12195430679998
 51
2.2020671561
  0
ARC
  5
136F
  8
0
 10
4.4084525956
 20
3.0878674017000001
 30
0.0
 40
0.03
 50
349.13794041649999
 51
47.105358363699999
  0
ARC
  5
1370
  8
0
 10
4.2567198558000001
 20
4.0667437438
 30
0.0
 40
0.03
 50
120.3096382304
 51
180.67390839949999
  0
ARC
  5
1371
  8
0
 10
3.0339270841000001
 20
4.0667437438
 30
0.0
 40
0.03
 50
359.32609160050009
 51
59.690361769600003
  0
ARC
  5
1373
  8
0
 10
4.4589446297000004
 20
3.3053633222999999
 30
0.0
 40
0.03
 50
289.83053222820001
 51
312.85092069630002
  0
ARC
  5
1374
  8
0
 10
2.8006760419000001
 20
3.5454437401000001
 30
0.0
 40
0.03
 50
101.7172874651
 51
158.3837157502
  0
ARC
  5
1375
  8
0
 10
4.4899708980000002
 20
3.5454437401000001
 30
0.0
 40
0.03
 50
21.6162842498
 51
78.2827125349
  0
ARC
  5
1376
  8
0
 10
5.385323110599999
 20
-1.622019939099999
 30
0.0
 40
0.0299999623
 50
359.99894558919999
 51
86.572734040599997
  0
ARC
  5
1377
  8
0
 10
5.3853241078999989
 20
-3.0815653221999999
 30
0.0
 40
0.0299999609
 50
273.42780041280002
 51
0.0011160054
  0
ARC
  5
1378
  8
0
 10
5.4961896116999993
 20
-1.6286336927
 30
0.0
 40
0.025
 50
90.0
 51
180.0
  0
ARC
  5
1379
  8
0
 10
4.177823469899999
 20
4.2574666352000001
 30
0.0
 40
0.02
 50
0.0
 51
90.0
  0
ARC
  5
137A
  8
0
 10
3.112823469899999
 20
4.2574666352000001
 30
0.0
 40
0.02
 50
90.0
 51
180.0
  0
ARC
  5
137B
  8
0
 10
2.675323469899999
 20
-4.8718028412000001
 30
0.0
 40
0.02
 50
90.0
 51
180.0
  0
ARC
  5
137C
  8
0
 10
4.615323469899999
 20
-4.8718028412000001
 30
0.0
 40
0.02
 50
0.0
 51
90.0
  0
ARC
  5
16E6
  8
0
 10
-11.50574559581654
 20
8.0910031363151234
 30
0.0
 40
14.59761158861377
 50
351.25537627238901
 51
357.9831947733062
  0
ARC
  5
16E7
  8
0
 10
9.2472258820592899
 20
4.8723659463625193
 30
0.0
 40
6.4035076113740006
 50
171.02152727843969
 51
177.1580334740155
  0
ARC
  5
16E8
  8
0
 10
2.9664120843488191
 20
5.0677354816511491
 30
0.0
 40
0.1676236484570084
 50
133.23367013537231
 51
195.31109273144179
  0
ARC
  5
16E9
  8
0
 10
2.9712882060501409
 20
5.0715558700558221
 30
0.0
 40
0.1733520852263071
 50
196.10343325548359
 51
229.8295832048434
  0
ARC
  5
16EA
  8
0
 10
2.6744445889030439
 20
4.9320190870171396
 30
0.0
 40
0.1851557198897223
 50
328.04900451126861
 51
2.189369444686954
  0
ARC
  5
16EB
  8
0
 10
2.9508401200169732
 20
4.7594532071909219
 30
0.0
 40
0.1406870402558422
 50
147.9856599959347
 51
217.77430332774031
  0
ARC
  5
16EC
  8
0
 10
3.122751144060175
 20
4.940161570350563
 30
0.0
 40
0.3890785584178325
 50
223.3099855564185
 51
253.04592414863879
  0
ARC
  5
16ED
  8
0
 10
3.480551543642159
 20
6.0249213934930097
 30
0.0
 40
1.5312493710435
 50
252.07569533581761
 51
260.12160347592402
  0
ARC
  5
16EE
  8
0
 10
3.6072400258922648
 20
6.7748967079753246
 30
0.0
 40
2.2918432317701289
 50
260.21794786220261
 51
265.1148363114014
  0
ARC
  5
16EF
  8
0
 10
3.3095175888042001
 20
2.7880228447869451
 30
0.0
 40
1.706440319758892
 50
83.864783242786018
 51
86.554633311089844
  0
ARC
  5
16F0
  8
0
 10
3.5496326674913341
 20
7.8175073387716951
 30
0.0
 40
3.342333553963297
 50
275.6314797169955
 51
279.00524675791058
  0
ARC
  5
16F1
  8
0
 10
3.9472272362781289
 20
5.420504601806539
 30
0.0
 40
0.9128106192093577
 50
277.90653028120011
 51
286.58800488357861
  0
ARC
  5
16F2
  8
0
 10
3.9339951152141941
 20
5.4582429520929718
 30
0.0
 40
0.95275790644849
 50
286.70272101444021
 51
300.11712611780109
  0
LINE
  5
16F3
  8
0
 10
4.4120597970000146
 20
4.6341059560000089
 30
0.0
 11
4.4510100530000001
 21
4.673274995299999
 31
0.0
  0
ARC
  5
16F4
  8
0
 10
4.3309344467384641
 20
4.7633413666282722
 30
0.0
 40
0.1501003102003053
 50
323.12715057503908
 51
353.98088421447272
  0
ARC
  5
16F5
  8
0
 10
4.316534384192324
 20
4.7541518278765658
 30
0.0
 40
0.163803874683739
 50
357.70830485711298
 51
31.609891708947909
  0
ARC
  5
16F6
  8
0
 10
4.6120126428220161
 20
4.9316540381723044
 30
0.0
 40
0.1809088316166276
 50
180.6724979261183
 51
210.43717691573809
  0
ARC
  5
16F7
  8
0
 10
4.713510263770881
 20
4.9315984262352091
 30
0.0
 40
0.2824015612644947
 50
177.6436098778421
 51
180.41951874997369
  0
LINE
  5
16F8
  8
0
 10
4.4313474974
 20
4.9432094154000001
 30
0.0
 11
4.4320549211999989
 21
4.9574400702999988
 31
0.0
  0
ARC
  5
16F9
  8
0
 10
4.3405400477568943
 20
4.9488483451719256
 30
0.0
 40
0.091917298709133
 50
5.3634001610255346
 51
55.182577654336647
  0
ARC
  5
16FA
  8
0
 10
3.8333404353856468
 20
3.9762267830591949
 30
0.0
 40
1.1881589531322461
 50
61.897593204744901
 51
87.361780061744696
  0
ARC
  5
16FB
  8
0
 10
3.6490469303713011
 20
2.4707790678128259
 30
0.0
 40
2.7029330955603368
 50
84.927487982247257
 51
96.528468321424285
  0
ARC
  5
16FC
  8
0
 10
3.4859755369897041
 20
3.6825866366868558
 30
0.0
 40
1.4806411573748379
 50
95.590605622283235
 51
108.87074346965061
  0
ARC
  5
16FD
  8
0
 10
3.098716561591158
 20
4.7969441306247713
 30
0.0
 40
0.3009871031798745
 50
107.7242008383982
 51
140.0701663029497
  0
LINE
  5
16FE
  8
0
 10
2.8679103059999358
 20
4.990132403199925
 30
0.0
 11
2.8585920186999991
 21
4.9562602158999987
 31
0.0
  0
ARC
  5
16FF
  8
0
 10
2.1934591610379499
 20
4.9138262858267359
 30
0.0
 40
0.6664850761743634
 50
2.1725817731465371
 51
3.6503903630028121
  0
ARC
  5
1700
  8
0
 10
2.8943870119596129
 20
4.7171604283731181
 30
0.0
 40
0.0701677094863306
 50
165.23521718855639
 51
218.71422088852049
  0
ARC
  5
1701
  8
0
 10
2.9587733436494958
 20
4.6828353445854543
 30
0.0
 40
0.1421698662860215
 50
110.73895482622321
 51
158.4558139987962
  0
ARC
  5
1702
  8
0
 10
3.264689523477851
 20
4.149684454226656
 30
0.0
 40
0.7553952327195767
 50
99.825813817346315
 51
118.1395538653545
  0
ARC
  5
1703
  8
0
 10
3.630054653758028
 20
2.4602299944905299
 30
0.0
 40
2.4834531763723762
 50
89.647730731110244
 51
101.4801062663976
  0
ARC
  5
1704
  8
0
 10
3.6669102408360721
 20
2.534972256661201
 30
0.0
 40
2.4087607055706641
 50
77.025909038050003
 51
90.513478745055224
  0
ARC
  5
1705
  8
0
 10
4.0918883536779429
 20
4.3086926008328899
 30
0.0
 40
0.5851247870037487
 50
56.905034139340763
 51
78.584060565191706
  0
ARC
  5
1706
  8
0
 10
4.346696791271639
 20
4.6920674678510199
 30
0.0
 40
0.1248819848010929
 50
19.230666219011241
 51
58.803193429934879
  0
ARC
  5
1707
  8
0
 10
4.395658355074004
 20
4.7173432610484047
 30
0.0
 40
0.0707518364555859
 50
321.47495539134138
 51
12.95108751521998
  0
ARC
  5
1708
  8
0
 10
3.576610819035853
 20
3.868838234198777
 30
0.0
 40
0.8321671265350198
 50
95.842933196664049
 51
109.211729358616
  0
ARC
  5
1709
  8
0
 10
3.332020539664255
 20
4.5430741970321318
 30
0.0
 40
0.1153550223995844
 50
104.68477831230931
 51
145.92297562022631
  0
ARC
  5
170A
  8
0
 10
3.2822250663490919
 20
4.5908925361268951
 30
0.0
 40
0.0487438368751599
 50
159.81914116458231
 51
200.30699993271691
  0
ARC
  5
170B
  8
0
 10
3.313605409712026
 20
4.6236197785146453
 30
0.0
 40
0.0916955926678206
 50
212.77885149428221
 51
243.3667142130459
  0
ARC
  5
170C
  8
0
 10
3.464619489130039
 20
4.9037987668280696
 30
0.0
 40
0.4099498671685306
 50
242.053895086258
 51
262.52975217433089
  0
ARC
  5
170D
  8
0
 10
3.596808997819144
 20
5.4166600656306816
 30
0.0
 40
0.937857385239811
 50
258.59294226477118
 51
263.5770529493339
  0
ARC
  5
170E
  8
0
 10
3.6921913889222839
 20
5.4663744383038688
 30
0.0
 40
0.9874517068017373
 50
276.19519249594521
 51
285.39544890080498
  0
ARC
  5
170F
  8
0
 10
3.850564961284848
 20
4.8357290865202751
 30
0.0
 40
0.3377126949515067
 50
287.89579561562539
 51
301.44178636958299
  0
ARC
  5
1712
  8
0
 10
3.7172005693071482
 20
3.8827446688763452
 30
0.0
 40
0.8180126262810302
 50
70.701232190852807
 51
84.278403411976853
  0
ARC
  5
1713
  8
0
 10
3.940337831417001
 20
4.5172651327918851
 30
0.0
 40
0.145404296170135
 50
38.497666011038731
 51
71.053305208915745
  0
ARC
  5
1714
  8
0
 10
4.0243289986570963
 20
4.5906434296745982
 30
0.0
 40
0.0343804605509691
 50
329.45357793601772
 51
29.89064230339876
  0
ARC
  5
1715
  8
0
 10
3.9883586963278419
 20
4.6155571945866214
 30
0.0
 40
0.0780853656945265
 50
298.5930668901176
 51
327.1234287719015
  0
ARC
  5
1716
  8
0
 10
4.3264980958663211
 20
5.0691211332402286
 30
0.0
 40
0.166929783352357
 50
308.85079954047723
 51
351.1528113549744
  0
ARC
  5
1717
  8
0
 10
4.319687755141965
 20
5.064357135486607
 30
0.0
 40
0.1730221219568217
 50
353.05882992378662
 51
46.323608004254439
  0
ARC
  5
1718
  8
0
 10
-9.3756733417612175
 20
4.3109733031608419
 30
0.0
 40
13.842753073185991
 50
3.6386891948154521
 51
9.7563778738813323
  0
ARC
  5
1719
  8
0
 10
15.379738380323399
 20
7.8216997049378616
 30
0.0
 40
11.17375642717397
 50
181.25123535994919
 51
185.9843715730677
  0
LINE
  5
171A
  8
0
 10
4.2078234699000001
 20
7.5815900438000003
 30
0.0
 11
4.208646262799987
 21
7.5777046320004224
 31
0.0
  0
ARC
  5
171B
  8
0
 10
3.1686035243602362
 20
7.5767748339528866
 30
0.0
 40
0.0859157254618309
 50
134.2404531689964
 51
176.77965810685669
  0
ARC
  5
171C
  8
0
 10
3.28627792127743
 20
7.4641640083371801
 30
0.0
 40
0.2487564011477299
 50
103.5359786188168
 51
135.56237288211989
  0
ARC
  5
171D
  8
0
 10
3.6480040428032341
 20
6.1111284234465364
 30
0.0
 40
1.6492443060166839
 50
76.993480978703431
 51
104.75173209597141
  0
ARC
  5
171E
  8
0
 10
3.9158303572764281
 20
7.2753679232781581
 30
0.0
 40
0.4545678312202096
 50
59.445432722718678
 51
76.760033384575891
  0
ARC
  5
171F
  8
0
 10
4.0809637650260493
 20
7.5498217959920684
 30
0.0
 40
0.1343029306830021
 50
25.321077855974
 51
60.590056668477331
  0
LINE
  5
1729
  8
0
 10
4.2023635783
 20
7.6072618736999971
 30
0.0
 11
4.2078234580838121
 21
7.5815900995986736
 31
0.0
  0
ARC
  5
172A
  8
0
 10
3.0756018098564351
 20
4.1891238549267698
 30
0.0
 40
0.0587792782142525
 50
83.013080653909753
 51
154.0637627445669
  0
ARC
  5
172B
  8
0
 10
3.1205717820277359
 20
4.1658761685088814
 30
0.0
 40
0.1093947919398836
 50
153.41551879725969
 51
198.991949905187
  0
ARC
  5
172C
  8
0
 10
3.0849400591461849
 20
4.1554518206669
 30
0.0
 40
0.0723311617122343
 50
200.36954305453619
 51
240.267449504859
  0
ARC
  5
172D
  8
0
 10
1.2447822915346409
 20
4.1182927637394231
 30
0.0
 40
1.8198829716568881
 50
351.53584697127809
 51
358.36574031836079
  0
ARC
  5
172E
  8
0
 10
2.6904932608728651
 20
3.9033669833037661
 30
0.0
 40
0.3582834801899323
 50
312.3766830821429
 51
351.50222680755201
  0
ARC
  5
172F
  8
0
 10
2.6760993528678441
 20
4.0093844760861703
 30
0.0
 40
0.4504287055524047
 50
285.25097532992589
 51
304.61615038411372
  0
ARC
  5
1730
  8
0
 10
3.0521289722294358
 20
3.4592260217765478
 30
0.0
 40
0.295793664299023
 50
160.8014949683245
 51
186.99208181109651
  0
ARC
  5
1731
  8
0
 10
3.0011632220529392
 20
3.4293461098976641
 30
0.0
 40
0.2427054586561458
 50
181.4467260467579
 51
208.89031661084161
  0
ARC
  5
1732
  8
0
 10
2.852044096899895
 20
3.3387661736719898
 30
0.0
 40
0.0687670466869946
 50
202.828130782269
 51
243.65327281152321
  0
ARC
  5
1733
  8
0
 10
2.7952357210989272
 20
3.1897030876550301
 30
0.0
 40
0.0913058171214259
 50
16.81028655213543
 51
73.266109887079793
  0
ARC
  5
1734
  8
0
 10
2.7969597866296181
 20
3.1773764830792861
 30
0.0
 40
0.0940280867709951
 50
332.8159337308789
 51
24.32585909618863
  0
LINE
  5
1735
  8
0
 10
2.8806018558999988
 20
3.134419698399999
 30
0.0
 11
2.8617747735668262
 21
3.109845598420224
 31
0.0
  0
ARC
  5
1736
  8
0
 10
2.9027810231013551
 20
3.0811300271383062
 30
0.0
 40
0.0500609282699998
 50
144.9974816105086
 51
178.7592198349225
  0
ARC
  5
1737
  8
0
 10
-5.1027387077852762
 20
1.5775925268520761
 30
0.0
 40
8.0965052610307655
 50
0.6759963883970155
 51
10.709872363755521
  0
ARC
  5
1738
  8
0
 10
-84.524738021347275
 20
7.2710284485591536
 30
0.0
 40
87.696788042762165
 50
353.89634634760603
 51
356.34017405093948
  0
ARC
  5
1739
  8
0
 10
21.683150386795401
 20
-3.369441837796153
 30
0.0
 40
19.05373239640873
 50
176.03987729747729
 51
182.59776849186511
  0
ARC
  5
173A
  8
0
 10
2.6755698252233691
 20
-4.3422888565743669
 30
0.0
 40
0.0923377431990069
 50
120.042558150516
 51
196.73124421278251
  0
ARC
  5
173B
  8
0
 10
2.658917010446094
 20
-4.3581712762194451
 30
0.0
 40
0.0725690438514852
 50
188.47895729035051
 51
248.5125477677372
  0
ARC
  5
173C
  8
0
 10
1.9342987023007741
 20
-4.5022611814811517
 30
0.0
 40
0.7204217468493951
 50
346.9936974837467
 51
3.8990222867321029
  0
LINE
  5
173D
  8
0
 10
2.6362382556999999
 20
-4.6643980270999972
 30
0.0
 11
2.606390352
 21
-4.7168738351999986
 31
0.0
  0
ARC
  5
173E
  8
0
 10
2.6560905569379161
 20
-4.774129364522107
 30
0.0
 40
0.0758175837706911
 50
130.9593534850741
 51
197.16880702697779
  0
ARC
  5
173F
  8
0
 10
2.6547173719225898
 20
-4.779285230348143
 30
0.0
 40
0.0731235187682758
 50
193.6243077915384
 51
262.61904185117692
  0
ARC
  5
1740
  8
0
 10
4.6385080162116124
 20
-4.7799939844584731
 30
0.0
 40
0.0721315611299259
 50
275.42174947871308
 51
7.5120053658302162
  0
ARC
  5
1741
  8
0
 10
4.6225227858821176
 20
-4.7795242651012888
 30
0.0
 40
0.0879553220584156
 50
5.8470694930641596
 51
45.422223601898111
  0
ARC
  5
1742
  8
0
 10
4.8641452675975421
 20
-4.5804460732056818
 30
0.0
 40
0.2257708380772468
 50
176.48508503028771
 51
217.17671774229049
  0
ARC
  5
1743
  8
0
 10
6.1958728948776951
 20
-4.4933744294444811
 30
0.0
 40
1.558794833370573
 50
178.52587842420439
 51
182.6926666981413
  0
ARC
  5
1744
  8
0
 10
4.6354764312210586
 20
-4.3610382677233677
 30
0.0
 40
0.0685722609206137
 50
289.45166618822839
 51
350.0270064087112
  0
ARC
  5
1745
  8
0
 10
4.5798849686353202
 20
-4.345341659415884
 30
0.0
 40
0.1261769553415264
 50
347.37786276764558
 51
25.625119063437069
  0
ARC
  5
1746
  8
0
 10
4.6388758647351027
 20
-4.320505806110849
 30
0.0
 40
0.062325300672925
 50
28.493963744381201
 51
68.907293959235574
  0
ARC
  5
1747
  8
0
 10
-25.643444315148589
 20
-3.089047400810466
 30
0.0
 40
30.30669118027587
 50
357.83674100796998
 51
358.80981809258242
  0
ARC
  5
1748
  8
0
 10
5.1805264615145443
 20
-3.6340676053400029
 30
0.0
 40
0.530587127657957
 50
136.3129271938864
 51
189.16194806978851
  0
ARC
  5
1749
  8
0
 10
5.151687894247873
 20
-3.6962656930900888
 30
0.0
 40
0.5564916593918275
 50
101.5178086497484
 51
129.61604440729161
  0
ARC
  5
174A
  8
0
 10
5.4777959522133868
 20
-5.4268864211336227
 30
0.0
 40
2.3175231861354222
 50
92.242394515342056
 51
100.87459912028871
  0
ARC
  5
174B
  8
0
 10
5.4799578970585117
 20
1.2248148004289749
 30
0.0
 40
2.8184364024425239
 50
261.0827039620724
 51
268.11227357636989
  0
ARC
  5
174C
  8
0
 10
5.1395379815950042
 20
-0.9500525717718362
 30
0.0
 40
0.6170889173159631
 50
194.7053306127807
 51
261.00676459590079
  0
ARC
  5
174D
  8
0
 10
6.4655144259011488
 20
-0.561101219812048
 30
0.0
 40
1.998758970011691
 50
185.27600188243241
 51
195.84098240799531
  0
ARC
  5
174E
  8
0
 10
17.720112474626092
 20
1.398836228185552
 30
0.0
 40
13.41725235637502
 50
176.98840259691369
 51
189.19378876243951
  0
ARC
  5
174F
  8
0
 10
15.80498459991521
 20
1.232343339500886
 30
0.0
 40
11.51660933133042
 50
170.75674740505181
 51
175.66054016353121
  0
ARC
  5
1750
  8
0
 10
4.4899806308964108
 20
3.176164351705681
 30
0.0
 40
0.0901799394840715
 50
188.68218076183291
 51
227.34142563525799
  0
ARC
  5
1751
  8
0
 10
4.5071675209734989
 20
3.178480684365808
 30
0.0
 40
0.1075199727616548
 50
133.572225418523
 51
188.51984792950299
  0
LINE
  5
1752
  8
0
 10
4.4330573998
 20
3.256379557799999
 30
0.0
 11
4.4691218073999996
 21
3.2771423185000002
 31
0.0
  0
ARC
  5
1753
  8
0
 10
4.2689903770113284
 20
3.4450137073017602
 30
0.0
 40
0.2652902570529495
 50
322.46033084362892
 51
0.9185117398344059
  0
ARC
  5
1754
  8
0
 10
4.2581857090061552
 20
3.4619484073750679
 30
0.0
 40
0.2763519833010097
 50
357.36972994771787
 51
20.006409925022162
  0
LINE
  5
1755
  8
0
 10
4.496063380052008
 20
3.5748185875454919
 30
0.0
 11
4.4261569149999991
 21
3.5963078731999989
 31
0.0
  0
ARC
  5
1756
  8
0
 10
4.5892460723815782
 20
3.9045563644993249
 30
0.0
 40
0.3487337173887027
 50
186.04695537735111
 51
242.11742650925601
  0
ARC
  5
1757
  8
0
 10
5.449893657732078
 20
4.0633817382541544
 30
0.0
 40
1.223175428277349
 50
179.85904547193371
 51
189.1999739736635
  0
ARC
  5
1758
  8
0
 10
4.1945890853731287
 20
4.1632131569786424
 30
0.0
 40
0.0847835662336309
 50
303.65849830401129
 51
355.57891913863358
  0
ARC
  5
1759
  8
0
 10
4.173874454845226
 20
4.1651657884734883
 30
0.0
 40
0.105587659934653
 50
355.38898709686708
 51
39.455718936290367
  0
ARC
  5
175A
  8
0
 10
4.2120521558111523
 20
4.1786300990352201
 30
0.0
 40
0.0689619473154115
 50
51.054443022478331
 51
93.455944711321266
  0
ARC
  5
175B
  8
0
 10
6.4711896144678089
 20
-2.1592571774334921
 30
0.0
 40
1.0000000027678091
 50
180.00000004391759
 51
201.99999996251441
  0
ARC
  5
175C
  8
0
 10
5.7928448262924164
 20
-3.0760162347442401
 30
0.0
 40
0.0276817753710923
 50
205.6481966590878
 51
266.3312554084103
  0
ARC
  5
175D
  8
0
 10
6.0911891167219316
 20
-3.8475024062994989
 30
0.0
 40
0.7505526461133139
 50
82.343458223778157
 51
97.656541833517934
  0
ARC
  5
175E
  8
0
 10
6.3584584995192888
 20
-3.0494331093574369
 30
0.0
 40
0.0542412330282856
 50
272.0005777835359
 51
342.01712488912352
  0
ARC
  5
175F
  8
0
 10
6.5051692386994491
 20
-3.0912676234711181
 30
0.0
 40
0.0983722712882297
 50
125.62432164153439
 51
165.22428170588481
  0
ARC
  5
1760
  8
0
 10
6.4269120651986844
 20
-2.9802666875790211
 30
0.0
 40
0.0374520646023783
 50
304.02867648253277
 51
347.65550988717428
  0
ARC
  5
1761
  8
0
 10
3.887220437733669
 20
-2.353637520955675
 30
0.0
 40
2.6532942049286672
 50
346.16138242186821
 51
13.83863688026582
  0
ARC
  5
1762
  8
0
 10
6.4258406241152608
 20
-1.727749282404756
 30
0.0
 40
0.0386602899204374
 50
13.079048108672479
 51
55.428490474354959
  0
ARC
  5
1763
  8
0
 10
6.4978769955294329
 20
-1.621441004374645
 30
0.0
 40
0.0897574871387667
 50
193.7265747930212
 51
236.07123583784599
  0
ARC
  5
1764
  8
0
 10
6.349607050568105
 20
-1.6631901957832329
 30
0.0
 40
0.0644089415915297
 50
18.51265749451446
 51
49.984598605071469
  0
ARC
  5
1765
  8
0
 10
6.8379371780522744
 20
-1.5612844018586101
 30
0.0
 40
0.4499976351472915
 50
177.99392930103679
 51
186.709648053764
  0
ARC
  5
1766
  8
0
 10
9.7202662538248372
 20
-1.525438529066284
 30
0.0
 40
3.3321115032873321
 50
172.29164591701601
 51
180.3455111143617
  0
ARC
  5
1767
  8
0
 10
542.01023530739064
 20
-92.525762130192078
 30
0.0
 40
543.34276522555945
 50
170.18490730462861
 51
170.31072172843511
  0
ARC
  5
1768
  8
0
 10
4.3909666056635004
 20
0.4635560892810824
 30
0.0
 40
2.2592694236843518
 50
350.67230726151399
 51
14.779544935880759
  0
ARC
  5
1769
  8
0
 10
6.0660409792729491
 20
0.8973157726496731
 30
0.0
 40
0.5290223862773046
 50
15.63560915810732
 51
51.829250458027353
  0
ARC
  5
176A
  8
0
 10
6.2258332229704338
 20
1.0476985650006081
 30
0.0
 40
0.3137501253248294
 50
57.809201595263133
 51
88.656478763690359
  0
ARC
  5
176B
  8
0
 10
6.2349131559914586
 20
1.0257512688217381
 30
0.0
 40
0.3356152632515608
 50
90.296107915391474
 51
125.64965974011309
  0
ARC
  5
176C
  8
0
 10
6.3804043276064553
 20
0.9316244285534576
 30
0.0
 40
0.5009225978974167
 50
132.91694463551329
 51
165.35077852270129
  0
ARC
  5
176D
  8
0
 10
7.4884729580372156
 20
0.5566771215292217
 30
0.0
 40
1.6698354289581061
 50
162.51792535670461
 51
171.33680735719409
  0
ARC
  5
176E
  8
0
 10
8.5988967998941792
 20
0.4648260585347542
 30
0.0
 40
2.7824760173176619
 50
172.91134705745151
 51
191.58071812917959
  0
ARC
  5
1778
  8
0
 10
-8.68717262312542
 20
-3.139413046341327
 30
0.0
 40
14.87536714792558
 50
7.3614091393181331
 51
11.814591141174141
  0
ARC
  5
1779
  8
0
 10
-36.309283359917487
 20
-4.0680249268308826
 30
0.0
 40
42.46956983243598
 50
3.591792200493388
 51
3.826951683988379
  0
ARC
  5
177A
  8
0
 10
5.5878596551793853
 20
-1.4530472190619239
 30
0.0
 40
0.4911293238275801
 50
346.96711316890361
 51
5.331730828843515
  0
ARC
  5
177B
  8
0
 10
6.0349742801000144
 20
-1.5621114359029651
 30
0.0
 40
0.0313464449174164
 50
281.83861625002908
 51
356.42158354055402
  0
ARC
  5
177C
  8
0
 10
5.9535346147193762
 20
-1.24353869047821
 30
0.0
 40
0.3601367757154024
 50
269.12731303089248
 51
284.12228442968569
  0
ARC
  5
177E
  8
0
 10
5.9393988598271612
 20
-1.6106272668429431
 30
0.0
 40
0.0064376784454677
 50
90.511968368251544
 51
188.12086425994701
  0
ARC
  5
177F
  8
0
 10
5.9960356145929437
 20
-2.4234465628588651
 30
0.0
 40
0.8212160557794495
 50
93.349872944710512
 51
93.958676535945088
  0
ARC
  5
1780
  8
0
 10
5.3265532204680293
 20
-1.626503437710193
 30
0.0
 40
0.6066571660532566
 50
359.5232740289635
 51
1.4136813997801041
  0
ARC
  5
1781
  8
0
 10
6.1658652566425856
 20
-2.3930611373168338
 30
0.0
 40
0.2327147576325983
 50
178.94526163555679
 51
216.14668393600559
  0
ARC
  5
1782
  8
0
 10
6.1317706925685176
 20
-2.4053190028050739
 30
0.0
 40
0.198215973430711
 50
219.0999862205887
 51
270.39254611020078
  0
ARC
  5
1783
  8
0
 10
5.8218805969871861
 20
-2.186620424120493
 30
0.0
 40
0.2307752490162025
 50
298.83754889127857
 51
344.10508993618328
  0
ARC
  5
1784
  8
0
 10
5.3547082638231593
 20
-1.998163082849858
 30
0.0
 40
0.7336382039816876
 50
339.93835436059982
 51
1.8964596705524659
  0
ARC
  5
1785
  8
0
 10
-6.7716128141181473
 20
-1.9300417431551391
 30
0.0
 40
12.85963217834087
 50
359.80465935116928
 51
2.151336286221738
  0
ARC
  5
1788
  8
0
 10
6.5374915307960411
 20
-3.0202139231297891
 30
0.0
 40
0.1366789248030076
 50
184.55478569472641
 51
200.4549475917741
  0
ARC
  5
1789
  8
0
 10
9.5227244884498994
 20
-2.7584744779680181
 30
0.0
 40
3.1333601789226471
 50
181.18992636201941
 51
184.990879169734
  0
ARC
  5
178A
  8
0
 10
20.61240706949129
 20
-2.4035470764547622
 30
0.0
 40
14.228567103469819
 50
180.75629129689531
 51
181.69149414069861
  0
ARC
  5
178B
  8
0
 10
-401.87302923252611
 20
-5.447427229546129
 30
0.0
 40
408.268098790755
 50
0.4008204225586943
 51
0.4986770012525581
  0
ARC
  5
178C
  8
0
 10
17.008209494777809
 20
-1.869622309008184
 30
0.0
 40
10.62863153530237
 50
177.7075842436698
 51
180.13188737577951
  0
ARC
  5
178D
  8
0
 10
6.4703784324717351
 20
-1.7137482435406051
 30
0.0
 40
0.0287667226701235
 50
141.80414518925551
 51
177.69696534067199
  0
ARC
  5
178E
  8
0
 10
11.71053491016708
 20
-2.1706073870221472
 30
0.0
 40
5.2887807893797616
 50
175.03205785798471
 51
181.9528875447113
  0
ARC
  5
178F
  8
0
 10
16.949791654952332
 20
-2.445909095997667
 30
0.0
 40
10.525395119917819
 50
179.4824611993638
 51
182.3791714320609
  0
ARC
  5
1790
  8
0
 10
7.8868696202297617
 20
-2.8271965139317921
 30
0.0
 40
1.454464976019044
 50
182.19265649739691
 51
186.74658996502581
  0
ARC
  5
1791
  8
0
 10
6.4806069716748604
 20
-2.9902491179330211
 30
0.0
 40
0.0389235185209592
 50
191.5831688659095
 51
212.74933966181399
  0
ARC
  5
1792
  8
0
 10
6.3396348208289153
 20
-2.5136565246236771
 30
0.0
 40
0.0900130359902039
 50
268.53007448263168
 51
300.32257254286651
  0
ARC
  5
19C6
  8
0
 10
3.2465013056217402
 20
4.6242144850728
 30
0.0
 40
0.689860190082097
 50
99.902636534393764
 51
124.9209275164343
  0
ARC
  5
19C7
  8
0
 10
3.63990542568405
 20
2.94766300093589
 30
0.0
 40
2.4111311908981579
 50
75.921259783638448
 51
102.2610456132044
  0
ARC
  5
19C8
  8
0
 10
4.1048130877545344
 20
4.7372410426368514
 30
0.0
 40
0.5624336236299589
 50
53.523729837161937
 51
77.512580426463572
  0
ATTDEF
  5
1ADD
  8
DEFPOINTS
 10
3.641196844573229
 20
-4.9205241341091082
 30
0.0
 40
0.001
  1
METAL
  3

  2
MATERIAL
 70
     0
1001
ACDBATTR
1070
     0
1070
     1
  0
ATTDEF
  5
1ADE
  8
DEFPOINTS
 10
3.641196844573229
 20
-4.918857467442443
 30
0.0
 40
0.001
  1
KITCHEN SINK FAUCET
  3

  2
PRODUCT
 70
     0
1001
ACDBATTR
1070
     0
1070
     1
  0
ATTDEF
  5
1ADF
  8
DEFPOINTS
 10
3.641196844573229
 20
-4.917190800775777
 30
0.0
 40
0.001
  1
BELLERA
  3

  2
TRADENAME
 70
     0
1001
ACDBATTR
1070
     0
1070
     1
  0
ATTDEF
  5
1AE0
  8
DEFPOINTS
 10
3.641196844573229
 20
-4.9155241341091118
 30
0.0
 40
0.001
  1
K-560
  3

  2
MODELNUMBER
 70
     0
1001
ACDBATTR
1070
     0
1070
     1
  0
ENDSEC
  0
EOF
