  0
SECTION
  2
HEADER
  9
$ACADVER
  1
AC1009
  9
$INSBASE
 10
0.0
 20
0.0
 30
0.0
  9
$EXTMIN
 10
-0.2690680430714222
 20
-22.27382564219997
 30
0.0
  9
$EXTMAX
 10
31.27355172043732
 20
0.2687941213087832
 30
8.759999999999999
  9
$LIMMIN
 10
0.0
 20
0.0
  9
$LIMMAX
 10
12.0
 20
9.0
  9
$ORTHOMODE
 70
     1
  9
$REGENMODE
 70
     1
  9
$FILLMODE
 70
     1
  9
$QTEXTMODE
 70
     0
  9
$MIRRTEXT
 70
     1
  9
$DRAGMODE
 70
     2
  9
$LTSCALE
 40
1.0
  9
$OSMODE
 70
     0
  9
$ATTMODE
 70
     1
  9
$TEXTSIZE
 40
0.2
  9
$TRACEWID
 40
0.05
  9
$TEXTSTYLE
  7
STANDARD
  9
$CLAYER
  8
0
  9
$CELTYPE
  6
BYLAYER
  9
$CECOLOR
 62
   256
  9
$DIMSCALE
 40
1.0
  9
$DIMASZ
 40
0.18
  9
$DIMEXO
 40
0.0625
  9
$DIMDLI
 40
0.38
  9
$DIMRND
 40
0.0
  9
$DIMDLE
 40
0.0
  9
$DIMEXE
 40
0.18
  9
$DIMTP
 40
0.0
  9
$DIMTM
 40
0.0
  9
$DIMTXT
 40
0.18
  9
$DIMCEN
 40
0.09
  9
$DIMTSZ
 40
0.0
  9
$DIMTOL
 70
     0
  9
$DIMLIM
 70
     0
  9
$DIMTIH
 70
     1
  9
$DIMTOH
 70
     1
  9
$DIMSE1
 70
     0
  9
$DIMSE2
 70
     0
  9
$DIMTAD
 70
     0
  9
$DIMZIN
 70
     0
  9
$DIMBLK
  1

  9
$DIMASO
 70
     1
  9
$DIMSHO
 70
     1
  9
$DIMPOST
  1

  9
$DIMAPOST
  1

  9
$DIMALT
 70
     0
  9
$DIMALTD
 70
     2
  9
$DIMALTF
 40
25.4
  9
$DIMLFAC
 40
1.0
  9
$DIMTOFL
 70
     0
  9
$DIMTVP
 40
0.0
  9
$DIMTIX
 70
     0
  9
$DIMSOXD
 70
     0
  9
$DIMSAH
 70
     0
  9
$DIMBLK1
  1

  9
$DIMBLK2
  1

  9
$DIMSTYLE
  2
*UNNAMED
  9
$DIMCLRD
 70
     0
  9
$DIMCLRE
 70
     0
  9
$DIMCLRT
 70
     0
  9
$DIMTFAC
 40
1.0
  9
$DIMGAP
 40
0.09
  9
$LUNITS
 70
     2
  9
$LUPREC
 70
     4
  9
$SKETCHINC
 40
0.1
  9
$FILLETRAD
 40
0.0
  9
$AUNITS
 70
     0
  9
$AUPREC
 70
     0
  9
$MENU
  1
acad
  9
$ELEVATION
 40
0.0
  9
$PELEVATION
 40
0.0
  9
$THICKNESS
 40
0.0
  9
$LIMCHECK
 70
     0
  9
$BLIPMODE
 70
     0
  9
$CHAMFERA
 40
0.0
  9
$CHAMFERB
 40
0.0
  9
$SKPOLY
 70
     0
  9
$TDCREATE
 40
2449708.425528819
  9
$TDUPDATE
 40
2449757.606392013
  9
$TDINDWG
 40
0.0001481481
  9
$TDUSRTIMER
 40
0.0001481481
  9
$USRTIMER
 70
     1
  9
$ANGBASE
 50
0.0
  9
$ANGDIR
 70
     0
  9
$PDMODE
 70
     0
  9
$PDSIZE
 40
0.0
  9
$PLINEWID
 40
0.0
  9
$COORDS
 70
     1
  9
$SPLFRAME
 70
     0
  9
$SPLINETYPE
 70
     6
  9
$SPLINESEGS
 70
     8
  9
$ATTDIA
 70
     0
  9
$ATTREQ
 70
     1
  9
$HANDLING
 70
     0
  9
$HANDSEED
  5
0
  9
$SURFTAB1
 70
     6
  9
$SURFTAB2
 70
     6
  9
$SURFTYPE
 70
     6
  9
$SURFU
 70
     6
  9
$SURFV
 70
     6
  9
$UCSNAME
  2

  9
$UCSORG
 10
0.0
 20
0.0
 30
0.0
  9
$UCSXDIR
 10
1.0
 20
0.0
 30
0.0
  9
$UCSYDIR
 10
0.0
 20
1.0
 30
0.0
  9
$PUCSNAME
  2

  9
$PUCSORG
 10
0.0
 20
0.0
 30
0.0
  9
$PUCSXDIR
 10
1.0
 20
0.0
 30
0.0
  9
$PUCSYDIR
 10
0.0
 20
1.0
 30
0.0
  9
$USERI1
 70
     0
  9
$USERI2
 70
     0
  9
$USERI3
 70
     0
  9
$USERI4
 70
     0
  9
$USERI5
 70
     0
  9
$USERR1
 40
0.0
  9
$USERR2
 40
0.0
  9
$USERR3
 40
0.0
  9
$USERR4
 40
0.0
  9
$USERR5
 40
0.0
  9
$WORLDVIEW
 70
     1
  9
$SHADEDGE
 70
     3
  9
$SHADEDIF
 70
    70
  9
$TILEMODE
 70
     1
  9
$MAXACTVP
 70
    16
  9
$PINSBASE
 10
0.0
 20
0.0
 30
2.0589656915011
  9
$PLIMCHECK
 70
     0
  9
$PEXTMIN
 10
1.000000000000000E+20
 20
1.000000000000000E+20
 30
1.000000000000000E+20
  9
$PEXTMAX
 10
-1.000000000000000E+20
 20
-1.000000000000000E+20
 30
-1.000000000000000E+20
  9
$PLIMMIN
 10
0.0
 20
0.0
  9
$PLIMMAX
 10
12.0
 20
9.0
  9
$UNITMODE
 70
     0
  9
$VISRETAIN
 70
     0
  9
$PLINEGEN
 70
     0
  9
$PSLTSCALE
 70
     1
  9
$TREEDEPTH
 70
  3020
  9
$DWGCODEPAGE
  3
ascii
  0
ENDSEC
  0
SECTION
  2
TABLES
  0
TABLE
  2
VPORT
 70
     1
  0
VPORT
  2
*ACTIVE
 70
     0
 10
0.0
 20
0.0
 11
1.0
 21
1.0
 12
23.51010139451587
 22
-0.4674720056276432
 13
0.0
 23
0.0
 14
1.0
 24
1.0
 15
0.0
 25
0.0
 16
-0.241844762647975
 26
-0.6644630243886748
 36
0.7071067811865475
 17
0.0
 27
0.0
 37
0.0
 40
28.30477231930876
 41
1.661211129296235
 42
50.0
 43
0.0
 44
0.0
 50
0.0
 51
0.0
 71
     0
 72
   100
 73
     1
 74
     0
 75
     0
 76
     0
 77
     0
 78
     0
  0
ENDTAB
  0
TABLE
  2
LTYPE
 70
     1
  0
LTYPE
  2
CONTINUOUS
 70
    64
  3
Solid line
 72
    65
 73
     0
 40
0.0
  0
ENDTAB
  0
TABLE
  2
LAYER
 70
     5
  0
LAYER
  2
0
 70
    64
 62
     7
  6
CONTINUOUS
  0
LAYER
  2
RK-SINKB
 70
    64
 62
     7
  6
CONTINUOUS
  0
LAYER
  2
RK-DRAIN
 70
    64
 62
     7
  6
CONTINUOUS
  0
LAYER
  2
CNTRCUTR
 70
    64
 62
     7
  6
CONTINUOUS
  0
LAYER
  2
FK-FOOTP
 70
    64
 62
     7
  6
CONTINUOUS
  0
ENDTAB
  0
TABLE
  2
STYLE
 70
     1
  0
STYLE
  2
STANDARD
 70
     0
 40
0.0
 41
1.0
 50
0.0
 71
     0
 42
0.2
  3
txt
  4

  0
ENDTAB
  0
TABLE
  2
VIEW
 70
     0
  0
ENDTAB
  0
TABLE
  2
UCS
 70
     0
  0
ENDTAB
  0
TABLE
  2
APPID
 70
     3
  0
APPID
  2
ACAD
 70
    64
  0
APPID
  2
CDKT-SIZ
 70
    64
  0
APPID
  2
CDKT-STR2
 70
    64
  0
ENDTAB
  0
TABLE
  2
DIMSTYLE
 70
     0
  0
ENDTAB
  0
ENDSEC
  0
SECTION
  2
BLOCKS
  0
BLOCK
  8
0
  2
05832PLN
 70
    64
 10
0.0
 20
0.0
 30
0.0
  3
05832PLN
  0
ARC
  8
FK-FOOTP
 10
-570.3643926364511
 20
9.499999998399976
 30
0.0
 40
600.1798656991859
 50
359.509999814419
 51
0.4900001855809466
  0
ARC
  8
FK-FOOTP
 10
-570.3643928138951
 20
9.499999998299978
 30
0.0
 40
599.4298658766427
 50
359.5099998145839
 51
0.4900001854352657
  0
ARC
  8
FK-FOOTP
 10
15.49999999839999
 20
-582.837892320618
 30
0.0
 40
600.4933653837879
 50
88.91130330780953
 51
91.08869669219046
  0
ARC
  8
FK-FOOTP
 10
15.49999999839985
 20
-582.8378923532486
 30
0.0
 40
599.743365416312
 50
88.9113033078669
 51
91.08869669213321
  0
ARC
  8
FK-FOOTP
 10
601.3643926332544
 20
9.499999998400005
 30
0.0
 40
600.1798656991892
 50
179.509999814419
 51
180.4900001855809
  0
ARC
  8
FK-FOOTP
 10
601.3643928106987
 20
9.499999998500006
 30
0.0
 40
599.4298658766463
 50
179.5099998145839
 51
180.4900001854353
  0
LINE
  8
FK-FOOTP
 10
30.9999999968
 20
1.310000000000003
 30
0.0
 11
30.9999999968
 21
20.6899999968
 31
0.0
  0
LINE
  8
FK-FOOTP
 10
1.310000000000002
 20
0.0000000000000013
 30
0.0
 11
29.68999999679999
 21
0.0000000000000049
 31
0.0
  0
LINE
  8
FK-FOOTP
 10
0.0
 20
20.6899999968
 30
0.0
 11
0.0
 21
1.31
 31
0.0
  0
LINE
  8
FK-FOOTP
 10
1.310000000000002
 20
21.9999999968
 30
0.0
 11
29.68999999679999
 21
21.9999999968
 31
0.0
  0
CIRCLE
  8
FK-FOOTP
 10
15.49999999679999
 20
9.499999996800008
 30
0.0
 40
1.81
  0
ARC
  8
FK-FOOTP
 10
4.146367473982792
 20
4.392397305637969
 30
0.0
 40
2.189999999999999
 50
180.4900001854372
 51
268.9113033078691
  0
ARC
  8
FK-FOOTP
 10
4.146367474002232
 20
4.392397305536993
 30
0.0
 40
2.939999999999999
 50
180.4900001855834
 51
268.911303307804
  0
ARC
  8
FK-FOOTP
 10
26.85363252279776
 20
4.392397305536947
 30
0.0
 40
2.939999999999999
 50
271.0886966921959
 51
359.5099998144175
  0
ARC
  8
FK-FOOTP
 10
26.85363252281891
 20
4.392397305638057
 30
0.0
 40
2.189999999999999
 50
271.088696692128
 51
359.5099998145788
  0
ARC
  8
FK-FOOTP
 10
15.49999999839846
 20
602.0945732499684
 30
0.0
 40
600.0
 50
268.911769025919
 51
271.0882309740814
  0
ARC
  8
FK-FOOTP
 10
15.49999999840122
 20
601.344437781932
 30
0.0
 40
600.0
 50
268.9104079911532
 51
271.0895920088465
  0
ARC
  8
FK-FOOTP
 10
26.85363252281721
 20
14.60760269116208
 30
0.0
 40
2.189999999999999
 50
0.4900001854353159
 51
88.91130330786397
  0
ARC
  8
FK-FOOTP
 10
26.85363252279776
 20
14.60760269126296
 30
0.0
 40
2.939999999999999
 50
0.4900001855809011
 51
88.91130330780923
  0
ARC
  8
FK-FOOTP
 10
4.146367474002119
 20
14.60760269126308
 30
0.0
 40
2.939999999999999
 50
91.08869669218853
 51
179.5099998144178
  0
ARC
  8
FK-FOOTP
 10
4.146367473981086
 20
14.607602691162
 30
0.0
 40
2.189999999999999
 50
91.0886966921333
 51
179.5099998145869
  0
ARC
  8
FK-FOOTP
 10
1.310000000000002
 20
20.6899999968
 30
0.0
 40
1.31
 50
90.0
 51
180.0
  0
ARC
  8
FK-FOOTP
 10
1.310000000000002
 20
1.31
 30
0.0
 40
1.31
 50
180.0
 51
270.0
  0
ARC
  8
FK-FOOTP
 10
29.68999999679999
 20
1.310000000000003
 30
0.0
 40
1.31
 50
270.0
 51
0.0
  0
ARC
  8
FK-FOOTP
 10
29.68999999679999
 20
20.6899999968
 30
0.0
 40
1.31
 50
0.0
 51
90.0
  0
LINE
  8
FK-FOOTP
 10
11.4999999984
 20
19.542644266
 30
0.0
 11
11.4999999984
 21
19.542644266
 31
0.0
  0
LINE
  8
FK-FOOTP
 10
15.49999999839999
 20
19.542644266
 30
0.0
 11
15.49999999839999
 21
19.542644266
 31
0.0
  0
LINE
  8
FK-FOOTP
 10
19.4999999984
 20
19.542644266
 30
0.0
 11
19.4999999984
 21
19.542644266
 31
0.0
  0
LINE
  8
FK-FOOTP
 10
23.4999999984
 20
19.542644266
 30
0.0
 11
23.4999999984
 21
19.542644266
 31
0.0
  0
ENDBLK
  8
0
  0
ENDSEC
  0
SECTION
  2
ENTITIES
  0
POLYLINE
  8
CNTRCUTR
 66
     1
 10
0.0
 20
0.0
 30
8.190000000000001
 70
     1
1001
CDKT-SIZ
1002
{
1010
30.99999899999999
1020
-22.000001
1030
8.750000000000001
1002
}
1001
CDKT-STR2
1070
     2
1010
23.49519849969384
1020
-2.478086201677705
1030
8.759999999999999
1040
4.712388980384689
1070
     2
1010
19.46457109022617
1020
-2.444510166847718
1030
8.759999999999999
1040
4.712388980384689
1070
     2
1010
11.50408208283039
1020
-2.478086201677705
1030
8.759999999999999
1040
4.712388980384689
1070
    30
1010
15.50112088845154
1020
-2.444510166847718
1030
8.759999999999999
1040
4.712388980384689
  0
VERTEX
  8
CNTRCUTR
 10
0.9045450038499343
 20
-20.99155116113407
 30
8.190000000000001
  0
VERTEX
  8
CNTRCUTR
 10
29.84666783483943
 20
-20.99155116113407
 30
8.190000000000001
  0
VERTEX
  8
CNTRCUTR
 10
29.84666783483943
 20
-3.831738684419278
 30
8.190000000000001
  0
VERTEX
  8
CNTRCUTR
 10
0.9460093159500392
 20
-3.831738684419278
 30
8.190000000000001
  0
SEQEND
  8
CNTRCUTR
  0
POLYLINE
  8
RK-SINKB
 66
     1
 10
0.0
 20
0.0
 30
0.0
 70
    64
 71
     6
 72
     3
  0
VERTEX
  8
RK-SINKB
 10
1.31
 20
-0.042628999999998
 30
8.404303
 70
   192
  0
VERTEX
  8
RK-SINKB
 10
1.31
 20
0.0
 30
8.190000000000001
 70
   192
  0
VERTEX
  8
RK-SINKB
 10
0.8086850000000001
 20
-0.0997179999999993
 30
8.190000000000001
 70
   192
  0
VERTEX
  8
RK-SINKB
 10
0.8249980000000004
 20
-0.1391010000000001
 30
8.404303
 70
   192
  0
VERTEX
  8
RK-SINKB
 10
0.1391
 20
-0.8249989999999982
 30
8.404303
 70
   192
  0
VERTEX
  8
RK-SINKB
 10
0.0997170000000001
 20
-0.8086850000000005
 30
8.190000000000001
 70
   192
  0
VERTEX
  8
RK-SINKB
 10
0.0
 20
-1.310000999999999
 30
8.190000000000001
 70
   192
  0
VERTEX
  8
RK-SINKB
 10
0.0426280000000001
 20
-1.310000999999999
 30
8.404303
 70
   192
  0
VERTEX
  8
RK-SINKB
 10
0.0426280000000001
 20
-20.69000099999999
 30
8.404303
 70
   192
  0
VERTEX
  8
RK-SINKB
 10
0.0
 20
-20.69000099999999
 30
8.190000000000001
 70
   192
  0
VERTEX
  8
RK-SINKB
 10
0.0997170000000001
 20
-21.191317
 30
8.190000000000001
 70
   192
  0
VERTEX
  8
RK-SINKB
 10
0.1391
 20
-21.175004
 30
8.404303
 70
   192
  0
VERTEX
  8
RK-SINKB
 10
2.659999
 20
-7.850000999999998
 30
2.440000000000001
 70
   192
  0
VERTEX
  8
RK-SINKB
 10
2.788643999999999
 20
-7.850000999999998
 30
1.793265000000001
 70
   192
  0
VERTEX
  8
RK-SINKB
 10
2.945554999999999
 20
-7.061154000000001
 30
1.793265000000001
 70
   192
  0
VERTEX
  8
RK-SINKB
 10
2.826704
 20
-7.011922999999999
 30
2.440000000000001
 70
   192
  0
VERTEX
  8
RK-SINKB
 10
26.810001
 20
-20.00000099999999
 30
8.090000000000001
 70
   192
  0
VERTEX
  8
RK-SINKB
 10
26.810001
 20
-20.660001
 30
8.750000000000001
 70
   192
  0
VERTEX
  8
RK-SINKB
 10
27.90064799999999
 20
-20.443058
 30
8.750000000000001
 70
   192
  0
VERTEX
  8
RK-SINKB
 10
27.648076
 20
-19.833297
 30
8.090000000000001
 70
   192
  0
VERTEX
  8
RK-SINKB
 10
28.825254
 20
-19.825254
 30
8.750000000000001
 70
   192
  0
VERTEX
  8
RK-SINKB
 10
28.35856399999999
 20
-19.358564
 30
8.090000000000001
 70
   192
  0
VERTEX
  8
RK-SINKB
 10
29.443057
 20
-18.90064899999999
 30
8.750000000000001
 70
   192
  0
VERTEX
  8
RK-SINKB
 10
28.833295
 20
-18.64807799999999
 30
8.090000000000001
 70
   192
  0
VERTEX
  8
RK-SINKB
 10
29.65999899999999
 20
-17.81000099999999
 30
8.750000000000001
 70
   192
  0
VERTEX
  8
RK-SINKB
 10
28.999999
 20
-17.81000099999999
 30
8.090000000000001
 70
   192
  0
VERTEX
  8
RK-SINKB
 10
4.19
 20
-5.0
 30
8.090000000000001
 70
   192
  0
VERTEX
  8
RK-SINKB
 10
4.19
 20
-4.339999999999999
 30
8.750000000000001
 70
   192
  0
VERTEX
  8
RK-SINKB
 10
3.099351999999999
 20
-4.556944000000001
 30
8.750000000000001
 70
   192
  0
VERTEX
  8
RK-SINKB
 10
3.351922
 20
-5.166703999999999
 30
8.090000000000001
 70
   192
  0
VERTEX
  8
RK-SINKB
 10
2.174745999999999
 20
-5.174748000000001
 30
8.750000000000001
 70
   192
  0
VERTEX
  8
RK-SINKB
 10
2.641436
 20
-5.641438
 30
8.090000000000001
 70
   192
  0
VERTEX
  8
RK-SINKB
 10
1.556943
 20
-6.099354000000001
 30
8.750000000000001
 70
   192
  0
VERTEX
  8
RK-SINKB
 10
2.166704
 20
-6.351922999999999
 30
8.090000000000001
 70
   192
  0
VERTEX
  8
RK-SINKB
 10
1.34
 20
-7.190000999999998
 30
8.750000000000001
 70
   192
  0
VERTEX
  8
RK-SINKB
 10
1.999998999999999
 20
-7.190000999999998
 30
8.090000000000001
 70
   192
  0
VERTEX
  8
RK-SINKB
 10
28.999999
 20
-7.190000999999998
 30
8.090000000000001
 70
   192
  0
VERTEX
  8
RK-SINKB
 10
29.65999899999999
 20
-7.190000999999998
 30
8.750000000000001
 70
   192
  0
VERTEX
  8
RK-SINKB
 10
29.443057
 20
-6.099354000000001
 30
8.750000000000001
 70
   192
  0
VERTEX
  8
RK-SINKB
 10
28.833295
 20
-6.351922999999999
 30
8.090000000000001
 70
   192
  0
VERTEX
  8
RK-SINKB
 10
28.825254
 20
-5.174748000000001
 30
8.750000000000001
 70
   192
  0
VERTEX
  8
RK-SINKB
 10
28.35856399999999
 20
-5.641438
 30
8.090000000000001
 70
   192
  0
VERTEX
  8
RK-SINKB
 10
27.90064799999999
 20
-4.556944000000001
 30
8.750000000000001
 70
   192
  0
VERTEX
  8
RK-SINKB
 10
27.648076
 20
-5.166703999999999
 30
8.090000000000001
 70
   192
  0
VERTEX
  8
RK-SINKB
 10
26.810001
 20
-4.339999999999999
 30
8.750000000000001
 70
   192
  0
VERTEX
  8
RK-SINKB
 10
26.810001
 20
-5.0
 30
8.090000000000001
 70
   192
  0
VERTEX
  8
RK-SINKB
 10
1.999998999999999
 20
-17.81000099999999
 30
8.090000000000001
 70
   192
  0
VERTEX
  8
RK-SINKB
 10
1.34
 20
-17.81000099999999
 30
8.750000000000001
 70
   192
  0
VERTEX
  8
RK-SINKB
 10
1.556943
 20
-18.90064899999999
 30
8.750000000000001
 70
   192
  0
VERTEX
  8
RK-SINKB
 10
2.166704
 20
-18.64807799999999
 30
8.090000000000001
 70
   192
  0
VERTEX
  8
RK-SINKB
 10
2.174745999999999
 20
-19.825254
 30
8.750000000000001
 70
   192
  0
VERTEX
  8
RK-SINKB
 10
2.641436
 20
-19.358564
 30
8.090000000000001
 70
   192
  0
VERTEX
  8
RK-SINKB
 10
3.099351999999999
 20
-20.443058
 30
8.750000000000001
 70
   192
  0
VERTEX
  8
RK-SINKB
 10
3.351922
 20
-19.833297
 30
8.090000000000001
 70
   192
  0
VERTEX
  8
RK-SINKB
 10
4.19
 20
-20.660001
 30
8.750000000000001
 70
   192
  0
VERTEX
  8
RK-SINKB
 10
4.19
 20
-20.00000099999999
 30
8.090000000000001
 70
   192
  0
VERTEX
  8
RK-SINKB
 10
27.607598
 20
-18.60759999999999
 30
1.793265000000001
 70
   192
  0
VERTEX
  8
RK-SINKB
 10
26.938848
 20
-19.054446
 30
1.793265000000001
 70
   192
  0
VERTEX
  8
RK-SINKB
 10
26.988076
 20
-19.17329699999999
 30
2.440000000000001
 70
   192
  0
VERTEX
  8
RK-SINKB
 10
27.698564
 20
-18.69856399999999
 30
2.440000000000001
 70
   192
  0
VERTEX
  8
RK-SINKB
 10
28.054445
 20
-17.938848
 30
1.793265000000001
 70
   192
  0
VERTEX
  8
RK-SINKB
 10
28.173295
 20
-17.98807799999999
 30
2.440000000000001
 70
   192
  0
VERTEX
  8
RK-SINKB
 10
26.798654
 20
-18.71598699999999
 30
1.24499
 70
   192
  0
VERTEX
  8
RK-SINKB
 10
26.150001
 20
-18.845013
 30
1.24499
 70
   192
  0
VERTEX
  8
RK-SINKB
 10
26.150001
 20
-19.21135799999999
 30
1.793265000000001
 70
   192
  0
VERTEX
  8
RK-SINKB
 10
27.348554
 20
-18.34855499999999
 30
1.24499
 70
   192
  0
VERTEX
  8
RK-SINKB
 10
27.71598499999999
 20
-17.798654
 30
1.24499
 70
   192
  0
VERTEX
  8
RK-SINKB
 10
27.845012
 20
-17.150001
 30
1.24499
 70
   192
  0
VERTEX
  8
RK-SINKB
 10
28.211356
 20
-17.150001
 30
1.793265000000001
 70
   192
  0
VERTEX
  8
RK-SINKB
 10
26.588838
 20
-18.20944599999999
 30
0.8786440000000013
 70
   192
  0
VERTEX
  8
RK-SINKB
 10
26.150001
 20
-18.29673599999999
 30
0.8786440000000013
 70
   192
  0
VERTEX
  8
RK-SINKB
 10
26.96086399999999
 20
-17.96086499999999
 30
0.8786440000000013
 70
   192
  0
VERTEX
  8
RK-SINKB
 10
27.209445
 20
-17.58883799999999
 30
0.8786440000000013
 70
   192
  0
VERTEX
  8
RK-SINKB
 10
27.296735
 20
-17.150001
 30
0.8786440000000013
 70
   192
  0
VERTEX
  8
RK-SINKB
 10
26.50355499999999
 20
-17.50355499999999
 30
0.7500000000000009
 70
   192
  0
VERTEX
  8
RK-SINKB
 10
26.341342
 20
-17.611941
 30
0.7500000000000009
 70
   192
  0
VERTEX
  8
RK-SINKB
 10
26.61194
 20
-17.341343
 30
0.7500000000000009
 70
   192
  0
VERTEX
  8
RK-SINKB
 10
26.150001
 20
-19.307527
 30
2.110297
 70
   192
  0
VERTEX
  8
RK-SINKB
 10
26.150001
 20
-19.340001
 30
2.440000000000001
 70
   192
  0
VERTEX
  8
RK-SINKB
 10
28.339999
 20
-17.150001
 30
2.440000000000001
 70
   192
  0
VERTEX
  8
RK-SINKB
 10
26.150001
 20
-19.05518499999999
 30
1.501086000000001
 70
   192
  0
VERTEX
  8
RK-SINKB
 10
28.055185
 20
-17.150001
 30
1.501086000000001
 70
   192
  0
VERTEX
  8
RK-SINKB
 10
26.150001
 20
-18.588915
 30
1.034816000000001
 70
   192
  0
VERTEX
  8
RK-SINKB
 10
27.58891399999999
 20
-17.150001
 30
1.034816000000001
 70
   192
  0
VERTEX
  8
RK-SINKB
 10
26.150001
 20
-17.97970399999999
 30
0.7824730000000013
 70
   192
  0
VERTEX
  8
RK-SINKB
 10
26.150001
 20
-17.65000099999999
 30
0.7500000000000009
 70
   192
  0
VERTEX
  8
RK-SINKB
 10
26.650001
 20
-17.150001
 30
0.7500000000000009
 70
   192
  0
VERTEX
  8
RK-SINKB
 10
26.979703
 20
-17.150001
 30
0.7824730000000013
 70
   192
  0
VERTEX
  8
RK-SINKB
 10
26.247544
 20
-17.640394
 30
0.7500000000000009
 70
   192
  0
VERTEX
  8
RK-SINKB
 10
26.427785
 20
-17.565736
 30
0.7500000000000009
 70
   192
  0
VERTEX
  8
RK-SINKB
 10
26.565734
 20
-17.42778599999999
 30
0.7500000000000009
 70
   192
  0
VERTEX
  8
RK-SINKB
 10
26.640393
 20
-17.24754599999999
 30
0.7500000000000009
 70
   192
  0
VERTEX
  8
RK-SINKB
 10
27.607598
 20
-6.392402999999998
 30
1.793265000000001
 70
   192
  0
VERTEX
  8
RK-SINKB
 10
28.054445
 20
-7.061154000000001
 30
1.793265000000001
 70
   192
  0
VERTEX
  8
RK-SINKB
 10
28.173295
 20
-7.011922999999999
 30
2.440000000000001
 70
   192
  0
VERTEX
  8
RK-SINKB
 10
27.698564
 20
-6.301438
 30
2.440000000000001
 70
   192
  0
VERTEX
  8
RK-SINKB
 10
26.938848
 20
-5.945557
 30
1.793265000000001
 70
   192
  0
VERTEX
  8
RK-SINKB
 10
26.988076
 20
-5.826703999999999
 30
2.440000000000001
 70
   192
  0
VERTEX
  8
RK-SINKB
 10
27.71598499999999
 20
-7.201349
 30
1.24499
 70
   192
  0
VERTEX
  8
RK-SINKB
 10
27.845012
 20
-7.850000999999998
 30
1.24499
 70
   192
  0
VERTEX
  8
RK-SINKB
 10
28.211356
 20
-7.850000999999998
 30
1.793265000000001
 70
   192
  0
VERTEX
  8
RK-SINKB
 10
27.348554
 20
-6.651448000000002
 30
1.24499
 70
   192
  0
VERTEX
  8
RK-SINKB
 10
26.798654
 20
-6.284016000000001
 30
1.24499
 70
   192
  0
VERTEX
  8
RK-SINKB
 10
26.150001
 20
-6.154990999999998
 30
1.24499
 70
   192
  0
VERTEX
  8
RK-SINKB
 10
26.150001
 20
-5.788645000000002
 30
1.793265000000001
 70
   192
  0
VERTEX
  8
RK-SINKB
 10
27.209445
 20
-7.411165
 30
0.8786440000000013
 70
   192
  0
VERTEX
  8
RK-SINKB
 10
27.296735
 20
-7.850000999999998
 30
0.8786440000000013
 70
   192
  0
VERTEX
  8
RK-SINKB
 10
26.96086399999999
 20
-7.039137
 30
0.8786440000000013
 70
   192
  0
VERTEX
  8
RK-SINKB
 10
26.588838
 20
-6.790555999999998
 30
0.8786440000000013
 70
   192
  0
VERTEX
  8
RK-SINKB
 10
26.150001
 20
-6.703265999999999
 30
0.8786440000000013
 70
   192
  0
VERTEX
  8
RK-SINKB
 10
26.50355499999999
 20
-7.496448999999998
 30
0.7500000000000009
 70
   192
  0
VERTEX
  8
RK-SINKB
 10
26.61194
 20
-7.658659
 30
0.7500000000000009
 70
   192
  0
VERTEX
  8
RK-SINKB
 10
26.341342
 20
-7.388061999999997
 30
0.7500000000000009
 70
   192
  0
VERTEX
  8
RK-SINKB
 10
28.339999
 20
-7.850000999999998
 30
2.440000000000001
 70
   192
  0
VERTEX
  8
RK-SINKB
 10
26.150001
 20
-5.66
 30
2.440000000000001
 70
   192
  0
VERTEX
  8
RK-SINKB
 10
26.150001
 20
-5.692474999999998
 30
2.110297
 70
   192
  0
VERTEX
  8
RK-SINKB
 10
28.055185
 20
-7.850000999999998
 30
1.501086000000001
 70
   192
  0
VERTEX
  8
RK-SINKB
 10
26.150001
 20
-5.944818999999998
 30
1.501086000000001
 70
   192
  0
VERTEX
  8
RK-SINKB
 10
27.58891399999999
 20
-7.850000999999998
 30
1.034816000000001
 70
   192
  0
VERTEX
  8
RK-SINKB
 10
26.150001
 20
-6.411086999999998
 30
1.034816000000001
 70
   192
  0
VERTEX
  8
RK-SINKB
 10
26.650001
 20
-7.850000999999998
 30
0.7500000000000009
 70
   192
  0
VERTEX
  8
RK-SINKB
 10
26.979703
 20
-7.850000999999998
 30
0.7824730000000013
 70
   192
  0
VERTEX
  8
RK-SINKB
 10
26.150001
 20
-7.350000999999998
 30
0.7500000000000009
 70
   192
  0
VERTEX
  8
RK-SINKB
 10
26.150001
 20
-7.020298
 30
0.7824730000000013
 70
   192
  0
VERTEX
  8
RK-SINKB
 10
26.640393
 20
-7.752456999999999
 30
0.7500000000000009
 70
   192
  0
VERTEX
  8
RK-SINKB
 10
26.565734
 20
-7.572216
 30
0.7500000000000009
 70
   192
  0
VERTEX
  8
RK-SINKB
 10
26.427785
 20
-7.434264999999999
 30
0.7500000000000009
 70
   192
  0
VERTEX
  8
RK-SINKB
 10
26.247544
 20
-7.359609999999999
 30
0.7500000000000009
 70
   192
  0
VERTEX
  8
RK-SINKB
 10
4.85
 20
-5.788645000000002
 30
1.793265000000001
 70
   192
  0
VERTEX
  8
RK-SINKB
 10
4.85
 20
-5.66
 30
2.440000000000001
 70
   192
  0
VERTEX
  8
RK-SINKB
 10
4.85
 20
-6.154990999999998
 30
1.24499
 70
   192
  0
VERTEX
  8
RK-SINKB
 10
4.85
 20
-6.703265999999999
 30
0.8786440000000013
 70
   192
  0
VERTEX
  8
RK-SINKB
 10
4.85
 20
-7.350000999999998
 30
0.7500000000000009
 70
   192
  0
VERTEX
  8
RK-SINKB
 10
3.3924
 20
-6.392402999999998
 30
1.793265000000001
 70
   192
  0
VERTEX
  8
RK-SINKB
 10
4.061153
 20
-5.945557
 30
1.793265000000001
 70
   192
  0
VERTEX
  8
RK-SINKB
 10
4.011922
 20
-5.826703999999999
 30
2.440000000000001
 70
   192
  0
VERTEX
  8
RK-SINKB
 10
3.301436
 20
-6.301438
 30
2.440000000000001
 70
   192
  0
VERTEX
  8
RK-SINKB
 10
4.201348
 20
-6.284016000000001
 30
1.24499
 70
   192
  0
VERTEX
  8
RK-SINKB
 10
3.651447
 20
-6.651448000000002
 30
1.24499
 70
   192
  0
VERTEX
  8
RK-SINKB
 10
3.284015
 20
-7.201349
 30
1.24499
 70
   192
  0
VERTEX
  8
RK-SINKB
 10
3.154990999999999
 20
-7.850000999999998
 30
1.24499
 70
   192
  0
VERTEX
  8
RK-SINKB
 10
4.411164
 20
-6.790555999999998
 30
0.8786440000000013
 70
   192
  0
VERTEX
  8
RK-SINKB
 10
4.039136
 20
-7.039137
 30
0.8786440000000013
 70
   192
  0
VERTEX
  8
RK-SINKB
 10
3.790554999999999
 20
-7.411165
 30
0.8786440000000013
 70
   192
  0
VERTEX
  8
RK-SINKB
 10
3.703266
 20
-7.850000999999998
 30
0.8786440000000013
 70
   192
  0
VERTEX
  8
RK-SINKB
 10
4.496447
 20
-7.496448999999998
 30
0.7500000000000009
 70
   192
  0
VERTEX
  8
RK-SINKB
 10
4.658659
 20
-7.388061999999997
 30
0.7500000000000009
 70
   192
  0
VERTEX
  8
RK-SINKB
 10
4.38806
 20
-7.658659
 30
0.7500000000000009
 70
   192
  0
VERTEX
  8
RK-SINKB
 10
3.411087
 20
-7.850000999999998
 30
1.034816000000001
 70
   192
  0
VERTEX
  8
RK-SINKB
 10
4.85
 20
-7.020298
 30
0.7824730000000013
 70
   192
  0
VERTEX
  8
RK-SINKB
 10
4.35
 20
-7.850000999999998
 30
0.7500000000000009
 70
   192
  0
VERTEX
  8
RK-SINKB
 10
4.020297999999999
 20
-7.850000999999998
 30
0.7824730000000013
 70
   192
  0
VERTEX
  8
RK-SINKB
 10
4.752454
 20
-7.359609999999999
 30
0.7500000000000009
 70
   192
  0
VERTEX
  8
RK-SINKB
 10
4.572216
 20
-7.434264999999999
 30
0.7500000000000009
 70
   192
  0
VERTEX
  8
RK-SINKB
 10
4.434265
 20
-7.572216
 30
0.7500000000000009
 70
   192
  0
VERTEX
  8
RK-SINKB
 10
4.359607
 20
-7.752456999999999
 30
0.7500000000000009
 70
   192
  0
VERTEX
  8
RK-SINKB
 10
3.3924
 20
-18.60759999999999
 30
1.793265000000001
 70
   192
  0
VERTEX
  8
RK-SINKB
 10
2.945554999999999
 20
-17.938848
 30
1.793265000000001
 70
   192
  0
VERTEX
  8
RK-SINKB
 10
2.826704
 20
-17.98807799999999
 30
2.440000000000001
 70
   192
  0
VERTEX
  8
RK-SINKB
 10
3.301436
 20
-18.69856399999999
 30
2.440000000000001
 70
   192
  0
VERTEX
  8
RK-SINKB
 10
4.061153
 20
-19.054446
 30
1.793265000000001
 70
   192
  0
VERTEX
  8
RK-SINKB
 10
4.011922
 20
-19.17329699999999
 30
2.440000000000001
 70
   192
  0
VERTEX
  8
RK-SINKB
 10
3.284015
 20
-17.798654
 30
1.24499
 70
   192
  0
VERTEX
  8
RK-SINKB
 10
3.154990999999999
 20
-17.150001
 30
1.24499
 70
   192
  0
VERTEX
  8
RK-SINKB
 10
2.788643999999999
 20
-17.150001
 30
1.793265000000001
 70
   192
  0
VERTEX
  8
RK-SINKB
 10
3.651447
 20
-18.34855499999999
 30
1.24499
 70
   192
  0
VERTEX
  8
RK-SINKB
 10
4.201348
 20
-18.71598699999999
 30
1.24499
 70
   192
  0
VERTEX
  8
RK-SINKB
 10
4.85
 20
-18.845013
 30
1.24499
 70
   192
  0
VERTEX
  8
RK-SINKB
 10
4.85
 20
-19.21135799999999
 30
1.793265000000001
 70
   192
  0
VERTEX
  8
RK-SINKB
 10
3.790554999999999
 20
-17.58883799999999
 30
0.8786440000000013
 70
   192
  0
VERTEX
  8
RK-SINKB
 10
3.703266
 20
-17.150001
 30
0.8786440000000013
 70
   192
  0
VERTEX
  8
RK-SINKB
 10
4.039136
 20
-17.96086499999999
 30
0.8786440000000013
 70
   192
  0
VERTEX
  8
RK-SINKB
 10
4.411164
 20
-18.20944599999999
 30
0.8786440000000013
 70
   192
  0
VERTEX
  8
RK-SINKB
 10
4.85
 20
-18.29673599999999
 30
0.8786440000000013
 70
   192
  0
VERTEX
  8
RK-SINKB
 10
4.496447
 20
-17.50355499999999
 30
0.7500000000000009
 70
   192
  0
VERTEX
  8
RK-SINKB
 10
4.38806
 20
-17.341343
 30
0.7500000000000009
 70
   192
  0
VERTEX
  8
RK-SINKB
 10
4.658659
 20
-17.611941
 30
0.7500000000000009
 70
   192
  0
VERTEX
  8
RK-SINKB
 10
2.659999
 20
-17.150001
 30
2.440000000000001
 70
   192
  0
VERTEX
  8
RK-SINKB
 10
4.85
 20
-19.340001
 30
2.440000000000001
 70
   192
  0
VERTEX
  8
RK-SINKB
 10
4.85
 20
-18.588915
 30
1.034816000000001
 70
   192
  0
VERTEX
  8
RK-SINKB
 10
4.020297999999999
 20
-17.150001
 30
0.7824730000000013
 70
   192
  0
VERTEX
  8
RK-SINKB
 10
4.35
 20
-17.150001
 30
0.7500000000000009
 70
   192
  0
VERTEX
  8
RK-SINKB
 10
4.85
 20
-17.65000099999999
 30
0.7500000000000009
 70
   192
  0
VERTEX
  8
RK-SINKB
 10
4.85
 20
-17.97970399999999
 30
0.7824730000000013
 70
   192
  0
VERTEX
  8
RK-SINKB
 10
4.359607
 20
-17.24754599999999
 30
0.7500000000000009
 70
   192
  0
VERTEX
  8
RK-SINKB
 10
4.434265
 20
-17.42778599999999
 30
0.7500000000000009
 70
   192
  0
VERTEX
  8
RK-SINKB
 10
4.572216
 20
-17.565736
 30
0.7500000000000009
 70
   192
  0
VERTEX
  8
RK-SINKB
 10
4.752454
 20
-17.640394
 30
0.7500000000000009
 70
   192
  0
VERTEX
  8
RK-SINKB
 10
17.578729
 20
-13.361039
 30
0.7500000000000009
 70
   192
  0
VERTEX
  8
RK-SINKB
 10
17.749999
 20
-12.500001
 30
0.7500000000000009
 70
   192
  0
VERTEX
  8
RK-SINKB
 10
17.090989
 20
-14.090991
 30
0.7500000000000009
 70
   192
  0
VERTEX
  8
RK-SINKB
 10
16.361038
 20
-14.57873
 30
0.7500000000000009
 70
   192
  0
VERTEX
  8
RK-SINKB
 10
15.499999
 20
-14.75000099999999
 30
0.7500000000000009
 70
   192
  0
VERTEX
  8
RK-SINKB
 10
14.638961
 20
-14.57873
 30
0.7500000000000009
 70
   192
  0
VERTEX
  8
RK-SINKB
 10
13.909009
 20
-14.090991
 30
0.7500000000000009
 70
   192
  0
VERTEX
  8
RK-SINKB
 10
13.421271
 20
-13.361039
 30
0.7500000000000009
 70
   192
  0
VERTEX
  8
RK-SINKB
 10
13.24999999999999
 20
-12.500001
 30
0.7500000000000009
 70
   192
  0
VERTEX
  8
RK-SINKB
 10
13.421271
 20
-11.63896299999999
 30
0.7500000000000009
 70
   192
  0
VERTEX
  8
RK-SINKB
 10
13.909009
 20
-10.90901099999999
 30
0.7500000000000009
 70
   192
  0
VERTEX
  8
RK-SINKB
 10
17.578729
 20
-11.63896299999999
 30
0.7500000000000009
 70
   192
  0
VERTEX
  8
RK-SINKB
 10
14.638961
 20
-10.421272
 30
0.7500000000000009
 70
   192
  0
VERTEX
  8
RK-SINKB
 10
15.499999
 20
-10.25
 30
0.7500000000000009
 70
   192
  0
VERTEX
  8
RK-SINKB
 10
17.090989
 20
-10.90901099999999
 30
0.7500000000000009
 70
   192
  0
VERTEX
  8
RK-SINKB
 10
16.361038
 20
-10.421272
 30
0.7500000000000009
 70
   192
  0
VERTEX
  8
RK-SINKB
 10
30.58617
 20
-21.586168
 30
8.404303
 70
   192
  0
VERTEX
  8
RK-SINKB
 10
30.90028299999999
 20
-21.191317
 30
8.190000000000001
 70
   192
  0
VERTEX
  8
RK-SINKB
 10
30.8609
 20
-21.175004
 30
8.404303
 70
   192
  0
VERTEX
  8
RK-SINKB
 10
30.61631
 20
-21.616311
 30
8.190000000000001
 70
   192
  0
VERTEX
  8
RK-SINKB
 10
30.175002
 20
-21.86090099999999
 30
8.404303
 70
   192
  0
VERTEX
  8
RK-SINKB
 10
30.191314
 20
-21.90028299999999
 30
8.190000000000001
 70
   192
  0
VERTEX
  8
RK-SINKB
 10
30.74874799999999
 20
-21.12855
 30
8.585980000000001
 70
   192
  0
VERTEX
  8
RK-SINKB
 10
30.957374
 20
-20.69000099999999
 30
8.404303
 70
   192
  0
VERTEX
  8
RK-SINKB
 10
30.83597899999999
 20
-20.69000099999999
 30
8.585980000000001
 70
   192
  0
VERTEX
  8
RK-SINKB
 10
30.500331
 20
-21.50033099999999
 30
8.585980000000001
 70
   192
  0
VERTEX
  8
RK-SINKB
 10
30.128547
 20
-21.74874799999999
 30
8.585980000000001
 70
   192
  0
VERTEX
  8
RK-SINKB
 10
29.69000199999999
 20
-21.835981
 30
8.585980000000001
 70
   192
  0
VERTEX
  8
RK-SINKB
 10
29.69000199999999
 20
-21.95737499999999
 30
8.404303
 70
   192
  0
VERTEX
  8
RK-SINKB
 10
30.580901
 20
-21.059024
 30
8.707373
 70
   192
  0
VERTEX
  8
RK-SINKB
 10
30.65430399999999
 20
-20.69000099999999
 30
8.707373
 70
   192
  0
VERTEX
  8
RK-SINKB
 10
30.37186399999999
 20
-21.37186599999999
 30
8.707373
 70
   192
  0
VERTEX
  8
RK-SINKB
 10
30.059024
 20
-21.58090099999999
 30
8.707373
 70
   192
  0
VERTEX
  8
RK-SINKB
 10
29.69000199999999
 20
-21.654305
 30
8.707373
 70
   192
  0
VERTEX
  8
RK-SINKB
 10
30.220329
 20
-21.22033099999999
 30
8.750000000000001
 70
   192
  0
VERTEX
  8
RK-SINKB
 10
30.382911
 20
-20.97701499999999
 30
8.750000000000001
 70
   192
  0
VERTEX
  8
RK-SINKB
 10
29.977012
 20
-21.382911
 30
8.750000000000001
 70
   192
  0
VERTEX
  8
RK-SINKB
 10
30.99999899999999
 20
-20.69000099999999
 30
8.190000000000001
 70
   192
  0
VERTEX
  8
RK-SINKB
 10
29.69000199999999
 20
-22.000001
 30
8.190000000000001
 70
   192
  0
VERTEX
  8
RK-SINKB
 10
30.44000199999999
 20
-20.69000099999999
 30
8.750000000000001
 70
   192
  0
VERTEX
  8
RK-SINKB
 10
29.69000199999999
 20
-21.44000099999999
 30
8.750000000000001
 70
   192
  0
VERTEX
  8
RK-SINKB
 10
30.58617
 20
-0.4138339999999979
 30
8.404303
 70
   192
  0
VERTEX
  8
RK-SINKB
 10
30.191314
 20
-0.0997179999999993
 30
8.190000000000001
 70
   192
  0
VERTEX
  8
RK-SINKB
 10
30.175002
 20
-0.1391010000000001
 30
8.404303
 70
   192
  0
VERTEX
  8
RK-SINKB
 10
30.61631
 20
-0.3836919999999964
 30
8.190000000000001
 70
   192
  0
VERTEX
  8
RK-SINKB
 10
30.8609
 20
-0.8249989999999982
 30
8.404303
 70
   192
  0
VERTEX
  8
RK-SINKB
 10
30.90028299999999
 20
-0.8086850000000005
 30
8.190000000000001
 70
   192
  0
VERTEX
  8
RK-SINKB
 10
30.128547
 20
-0.2512529999999984
 30
8.585980000000001
 70
   192
  0
VERTEX
  8
RK-SINKB
 10
29.69000199999999
 20
-0.042628999999998
 30
8.404303
 70
   192
  0
VERTEX
  8
RK-SINKB
 10
29.69000199999999
 20
-0.1640209999999982
 30
8.585980000000001
 70
   192
  0
VERTEX
  8
RK-SINKB
 10
30.500331
 20
-0.4996700000000019
 30
8.585980000000001
 70
   192
  0
VERTEX
  8
RK-SINKB
 10
30.74874799999999
 20
-0.8714539999999999
 30
8.585980000000001
 70
   192
  0
VERTEX
  8
RK-SINKB
 10
30.83597899999999
 20
-1.310000999999999
 30
8.585980000000001
 70
   192
  0
VERTEX
  8
RK-SINKB
 10
30.957374
 20
-1.310000999999999
 30
8.404303
 70
   192
  0
VERTEX
  8
RK-SINKB
 10
30.059024
 20
-0.4191019999999988
 30
8.707373
 70
   192
  0
VERTEX
  8
RK-SINKB
 10
29.69000199999999
 20
-0.3456970000000012
 30
8.707373
 70
   192
  0
VERTEX
  8
RK-SINKB
 10
30.37186399999999
 20
-0.6281359999999978
 30
8.707373
 70
   192
  0
VERTEX
  8
RK-SINKB
 10
30.580901
 20
-0.9409770000000001
 30
8.707373
 70
   192
  0
VERTEX
  8
RK-SINKB
 10
30.65430399999999
 20
-1.310000999999999
 30
8.707373
 70
   192
  0
VERTEX
  8
RK-SINKB
 10
30.220329
 20
-0.7796710000000005
 30
8.750000000000001
 70
   192
  0
VERTEX
  8
RK-SINKB
 10
29.977012
 20
-0.6170919999999996
 30
8.750000000000001
 70
   192
  0
VERTEX
  8
RK-SINKB
 10
30.382911
 20
-1.022988999999999
 30
8.750000000000001
 70
   192
  0
VERTEX
  8
RK-SINKB
 10
29.69000199999999
 20
0.0
 30
8.190000000000001
 70
   192
  0
VERTEX
  8
RK-SINKB
 10
30.99999899999999
 20
-1.310000999999999
 30
8.190000000000001
 70
   192
  0
VERTEX
  8
RK-SINKB
 10
29.69000199999999
 20
-0.5600009999999998
 30
8.750000000000001
 70
   192
  0
VERTEX
  8
RK-SINKB
 10
30.44000199999999
 20
-1.310000999999999
 30
8.750000000000001
 70
   192
  0
VERTEX
  8
RK-SINKB
 10
1.31
 20
-0.1640209999999982
 30
8.585980000000001
 70
   192
  0
VERTEX
  8
RK-SINKB
 10
1.31
 20
-0.3456970000000012
 30
8.707373
 70
   192
  0
VERTEX
  8
RK-SINKB
 10
1.31
 20
-0.5600009999999998
 30
8.750000000000001
 70
   192
  0
VERTEX
  8
RK-SINKB
 10
0.4138320000000002
 20
-0.4138339999999979
 30
8.404303
 70
   192
  0
VERTEX
  8
RK-SINKB
 10
0.3836900000000001
 20
-0.3836919999999964
 30
8.190000000000001
 70
   192
  0
VERTEX
  8
RK-SINKB
 10
0.2512530000000002
 20
-0.8714539999999999
 30
8.585980000000001
 70
   192
  0
VERTEX
  8
RK-SINKB
 10
0.1640199999999998
 20
-1.310000999999999
 30
8.585980000000001
 70
   192
  0
VERTEX
  8
RK-SINKB
 10
0.499669
 20
-0.4996700000000019
 30
8.585980000000001
 70
   192
  0
VERTEX
  8
RK-SINKB
 10
0.8714530000000003
 20
-0.2512529999999984
 30
8.585980000000001
 70
   192
  0
VERTEX
  8
RK-SINKB
 10
0.419101
 20
-0.9409770000000001
 30
8.707373
 70
   192
  0
VERTEX
  8
RK-SINKB
 10
0.3456969999999999
 20
-1.310000999999999
 30
8.707373
 70
   192
  0
VERTEX
  8
RK-SINKB
 10
0.6281349999999999
 20
-0.6281359999999978
 30
8.707373
 70
   192
  0
VERTEX
  8
RK-SINKB
 10
0.9409759999999995
 20
-0.4191019999999988
 30
8.707373
 70
   192
  0
VERTEX
  8
RK-SINKB
 10
0.7796699999999999
 20
-0.7796710000000005
 30
8.750000000000001
 70
   192
  0
VERTEX
  8
RK-SINKB
 10
0.6170900000000002
 20
-1.022988999999999
 30
8.750000000000001
 70
   192
  0
VERTEX
  8
RK-SINKB
 10
1.022987999999999
 20
-0.6170919999999996
 30
8.750000000000001
 70
   192
  0
VERTEX
  8
RK-SINKB
 10
0.5600000000000001
 20
-1.310000999999999
 30
8.750000000000001
 70
   192
  0
VERTEX
  8
RK-SINKB
 10
0.4138320000000002
 20
-21.586168
 30
8.404303
 70
   192
  0
VERTEX
  8
RK-SINKB
 10
0.8086850000000001
 20
-21.90028299999999
 30
8.190000000000001
 70
   192
  0
VERTEX
  8
RK-SINKB
 10
0.8249980000000004
 20
-21.86090099999999
 30
8.404303
 70
   192
  0
VERTEX
  8
RK-SINKB
 10
0.3836900000000001
 20
-21.616311
 30
8.190000000000001
 70
   192
  0
VERTEX
  8
RK-SINKB
 10
0.8714530000000003
 20
-21.74874799999999
 30
8.585980000000001
 70
   192
  0
VERTEX
  8
RK-SINKB
 10
1.31
 20
-21.95737499999999
 30
8.404303
 70
   192
  0
VERTEX
  8
RK-SINKB
 10
1.31
 20
-21.835981
 30
8.585980000000001
 70
   192
  0
VERTEX
  8
RK-SINKB
 10
0.499669
 20
-21.50033099999999
 30
8.585980000000001
 70
   192
  0
VERTEX
  8
RK-SINKB
 10
0.2512530000000002
 20
-21.12855
 30
8.585980000000001
 70
   192
  0
VERTEX
  8
RK-SINKB
 10
0.1640199999999998
 20
-20.69000099999999
 30
8.585980000000001
 70
   192
  0
VERTEX
  8
RK-SINKB
 10
0.9409759999999995
 20
-21.58090099999999
 30
8.707373
 70
   192
  0
VERTEX
  8
RK-SINKB
 10
1.31
 20
-21.654305
 30
8.707373
 70
   192
  0
VERTEX
  8
RK-SINKB
 10
0.6281349999999999
 20
-21.37186599999999
 30
8.707373
 70
   192
  0
VERTEX
  8
RK-SINKB
 10
0.419101
 20
-21.059024
 30
8.707373
 70
   192
  0
VERTEX
  8
RK-SINKB
 10
0.3456969999999999
 20
-20.69000099999999
 30
8.707373
 70
   192
  0
VERTEX
  8
RK-SINKB
 10
0.7796699999999999
 20
-21.22033099999999
 30
8.750000000000001
 70
   192
  0
VERTEX
  8
RK-SINKB
 10
1.022987999999999
 20
-21.382911
 30
8.750000000000001
 70
   192
  0
VERTEX
  8
RK-SINKB
 10
0.6170900000000002
 20
-20.97701499999999
 30
8.750000000000001
 70
   192
  0
VERTEX
  8
RK-SINKB
 10
1.31
 20
-22.000001
 30
8.190000000000001
 70
   192
  0
VERTEX
  8
RK-SINKB
 10
1.31
 20
-21.44000099999999
 30
8.750000000000001
 70
   192
  0
VERTEX
  8
RK-SINKB
 10
0.5600000000000001
 20
-20.69000099999999
 30
8.750000000000001
 70
   192
  0
VERTEX
  8
RK-SINKB
 10
0.0
 20
0.0
 30
0.0
 70
   128
 71
     2
 72
     3
 73
     4
 74
     1
  0
VERTEX
  8
RK-SINKB
 10
0.0
 20
0.0
 30
0.0
 70
   128
 71
     6
 72
     7
 73
     8
 74
     5
  0
VERTEX
  8
RK-SINKB
 10
0.0
 20
0.0
 30
0.0
 70
   128
 71
    10
 72
    11
 73
    12
 74
     9
  0
VERTEX
  8
RK-SINKB
 10
0.0
 20
0.0
 30
0.0
 70
   128
 71
    14
 72
    15
 73
    16
 74
    13
  0
VERTEX
  8
RK-SINKB
 10
0.0
 20
0.0
 30
0.0
 70
   128
 71
   -19
 72
    17
 73
    18
  0
VERTEX
  8
RK-SINKB
 10
0.0
 20
0.0
 30
0.0
 70
   128
 71
   -17
 72
    19
 73
    20
  0
VERTEX
  8
RK-SINKB
 10
0.0
 20
0.0
 30
0.0
 70
   128
 71
   -21
 72
    20
 73
    19
  0
VERTEX
  8
RK-SINKB
 10
0.0
 20
0.0
 30
0.0
 70
   128
 71
   -20
 72
    21
 73
    22
  0
VERTEX
  8
RK-SINKB
 10
0.0
 20
0.0
 30
0.0
 70
   128
 71
   -22
 72
    23
 73
    24
  0
VERTEX
  8
RK-SINKB
 10
0.0
 20
0.0
 30
0.0
 70
   128
 71
    22
 72
    21
 73
   -23
  0
VERTEX
  8
RK-SINKB
 10
0.0
 20
0.0
 30
0.0
 70
   128
 71
   -24
 72
    25
 73
    26
  0
VERTEX
  8
RK-SINKB
 10
0.0
 20
0.0
 30
0.0
 70
   128
 71
    24
 72
    23
 73
   -25
  0
VERTEX
  8
RK-SINKB
 10
0.0
 20
0.0
 30
0.0
 70
   128
 71
   -29
 72
    27
 73
    28
  0
VERTEX
  8
RK-SINKB
 10
0.0
 20
0.0
 30
0.0
 70
   128
 71
   -27
 72
    29
 73
    30
  0
VERTEX
  8
RK-SINKB
 10
0.0
 20
0.0
 30
0.0
 70
   128
 71
   -31
 72
    30
 73
    29
  0
VERTEX
  8
RK-SINKB
 10
0.0
 20
0.0
 30
0.0
 70
   128
 71
   -30
 72
    31
 73
    32
  0
VERTEX
  8
RK-SINKB
 10
0.0
 20
0.0
 30
0.0
 70
   128
 71
   -32
 72
    33
 73
    34
  0
VERTEX
  8
RK-SINKB
 10
0.0
 20
0.0
 30
0.0
 70
   128
 71
    32
 72
    31
 73
   -33
  0
VERTEX
  8
RK-SINKB
 10
0.0
 20
0.0
 30
0.0
 70
   128
 71
   -34
 72
    35
 73
    36
  0
VERTEX
  8
RK-SINKB
 10
0.0
 20
0.0
 30
0.0
 70
   128
 71
    34
 72
    33
 73
   -35
  0
VERTEX
  8
RK-SINKB
 10
0.0
 20
0.0
 30
0.0
 70
   128
 71
   -39
 72
    37
 73
    38
  0
VERTEX
  8
RK-SINKB
 10
0.0
 20
0.0
 30
0.0
 70
   128
 71
   -37
 72
    39
 73
    40
  0
VERTEX
  8
RK-SINKB
 10
0.0
 20
0.0
 30
0.0
 70
   128
 71
   -41
 72
    40
 73
    39
  0
VERTEX
  8
RK-SINKB
 10
0.0
 20
0.0
 30
0.0
 70
   128
 71
   -40
 72
    41
 73
    42
  0
VERTEX
  8
RK-SINKB
 10
0.0
 20
0.0
 30
0.0
 70
   128
 71
   -42
 72
    43
 73
    44
  0
VERTEX
  8
RK-SINKB
 10
0.0
 20
0.0
 30
0.0
 70
   128
 71
    42
 72
    41
 73
   -43
  0
VERTEX
  8
RK-SINKB
 10
0.0
 20
0.0
 30
0.0
 70
   128
 71
   -44
 72
    45
 73
    46
  0
VERTEX
  8
RK-SINKB
 10
0.0
 20
0.0
 30
0.0
 70
   128
 71
    44
 72
    43
 73
   -45
  0
VERTEX
  8
RK-SINKB
 10
0.0
 20
0.0
 30
0.0
 70
   128
 71
   -49
 72
    47
 73
    48
  0
VERTEX
  8
RK-SINKB
 10
0.0
 20
0.0
 30
0.0
 70
   128
 71
   -47
 72
    49
 73
    50
  0
VERTEX
  8
RK-SINKB
 10
0.0
 20
0.0
 30
0.0
 70
   128
 71
   -51
 72
    50
 73
    49
  0
VERTEX
  8
RK-SINKB
 10
0.0
 20
0.0
 30
0.0
 70
   128
 71
   -50
 72
    51
 73
    52
  0
VERTEX
  8
RK-SINKB
 10
0.0
 20
0.0
 30
0.0
 70
   128
 71
   -52
 72
    53
 73
    54
  0
VERTEX
  8
RK-SINKB
 10
0.0
 20
0.0
 30
0.0
 70
   128
 71
    52
 72
    51
 73
   -53
  0
VERTEX
  8
RK-SINKB
 10
0.0
 20
0.0
 30
0.0
 70
   128
 71
   -54
 72
    55
 73
    56
  0
VERTEX
  8
RK-SINKB
 10
0.0
 20
0.0
 30
0.0
 70
   128
 71
    54
 72
    53
 73
   -55
  0
VERTEX
  8
RK-SINKB
 10
0.0
 20
0.0
 30
0.0
 70
   128
 71
    38
 72
   -37
 73
    25
  0
VERTEX
  8
RK-SINKB
 10
0.0
 20
0.0
 30
0.0
 70
   128
 71
   -25
 72
    37
 73
    26
  0
VERTEX
  8
RK-SINKB
 10
0.0
 20
0.0
 30
0.0
 70
   128
 71
    45
 72
   -28
 73
    46
  0
VERTEX
  8
RK-SINKB
 10
0.0
 20
0.0
 30
0.0
 70
   128
 71
    28
 72
    27
 73
   -46
  0
VERTEX
  8
RK-SINKB
 10
0.0
 20
0.0
 30
0.0
 70
   128
 71
    36
 72
   -35
 73
    47
  0
VERTEX
  8
RK-SINKB
 10
0.0
 20
0.0
 30
0.0
 70
   128
 71
    48
 72
   -47
 73
    35
  0
VERTEX
  8
RK-SINKB
 10
0.0
 20
0.0
 30
0.0
 70
   128
 71
    18
 72
   -17
 73
    55
  0
VERTEX
  8
RK-SINKB
 10
0.0
 20
0.0
 30
0.0
 70
   128
 71
    56
 72
   -55
 73
    17
  0
VERTEX
  8
RK-SINKB
 10
0.0
 20
0.0
 30
0.0
 70
   128
 71
   -59
 72
    57
 73
    58
  0
VERTEX
  8
RK-SINKB
 10
0.0
 20
0.0
 30
0.0
 70
   128
 71
    60
 72
   -57
 73
    59
  0
VERTEX
  8
RK-SINKB
 10
0.0
 20
0.0
 30
0.0
 70
   128
 71
   -60
 72
    61
 73
    57
  0
VERTEX
  8
RK-SINKB
 10
0.0
 20
0.0
 30
0.0
 70
   128
 71
    62
 72
   -61
 73
    60
  0
VERTEX
  8
RK-SINKB
 10
0.0
 20
0.0
 30
0.0
 70
   128
 71
   -65
 72
    63
 73
    64
  0
VERTEX
  8
RK-SINKB
 10
0.0
 20
0.0
 30
0.0
 70
   128
 71
    58
 72
   -63
 73
    65
  0
VERTEX
  8
RK-SINKB
 10
0.0
 20
0.0
 30
0.0
 70
   128
 71
   -58
 72
    66
 73
    63
  0
VERTEX
  8
RK-SINKB
 10
0.0
 20
0.0
 30
0.0
 70
   128
 71
    57
 72
   -66
 73
    58
  0
VERTEX
  8
RK-SINKB
 10
0.0
 20
0.0
 30
0.0
 70
   128
 71
   -57
 72
    67
 73
    66
  0
VERTEX
  8
RK-SINKB
 10
0.0
 20
0.0
 30
0.0
 70
   128
 71
    61
 72
   -67
 73
    57
  0
VERTEX
  8
RK-SINKB
 10
0.0
 20
0.0
 30
0.0
 70
   128
 71
   -61
 72
    68
 73
    67
  0
VERTEX
  8
RK-SINKB
 10
0.0
 20
0.0
 30
0.0
 70
   128
 71
    69
 72
   -68
 73
    61
  0
VERTEX
  8
RK-SINKB
 10
0.0
 20
0.0
 30
0.0
 70
   128
 71
   -64
 72
    70
 73
    71
  0
VERTEX
  8
RK-SINKB
 10
0.0
 20
0.0
 30
0.0
 70
   128
 71
    63
 72
   -70
 73
    64
  0
VERTEX
  8
RK-SINKB
 10
0.0
 20
0.0
 30
0.0
 70
   128
 71
   -63
 72
    72
 73
    70
  0
VERTEX
  8
RK-SINKB
 10
0.0
 20
0.0
 30
0.0
 70
   128
 71
    66
 72
   -72
 73
    63
  0
VERTEX
  8
RK-SINKB
 10
0.0
 20
0.0
 30
0.0
 70
   128
 71
   -66
 72
    73
 73
    72
  0
VERTEX
  8
RK-SINKB
 10
0.0
 20
0.0
 30
0.0
 70
   128
 71
    67
 72
   -73
 73
    66
  0
VERTEX
  8
RK-SINKB
 10
0.0
 20
0.0
 30
0.0
 70
   128
 71
   -67
 72
    74
 73
    73
  0
VERTEX
  8
RK-SINKB
 10
0.0
 20
0.0
 30
0.0
 70
   128
 71
    68
 72
   -74
 73
    67
  0
VERTEX
  8
RK-SINKB
 10
0.0
 20
0.0
 30
0.0
 70
   128
 71
   -70
 72
    75
 73
    76
  0
VERTEX
  8
RK-SINKB
 10
0.0
 20
0.0
 30
0.0
 70
   128
 71
    72
 72
   -75
 73
    70
  0
VERTEX
  8
RK-SINKB
 10
0.0
 20
0.0
 30
0.0
 70
   128
 71
   -72
 72
    77
 73
    75
  0
VERTEX
  8
RK-SINKB
 10
0.0
 20
0.0
 30
0.0
 70
   128
 71
    73
 72
   -77
 73
    72
  0
VERTEX
  8
RK-SINKB
 10
0.0
 20
0.0
 30
0.0
 70
   128
 71
    79
 72
    78
 73
    65
  0
VERTEX
  8
RK-SINKB
 10
0.0
 20
0.0
 30
0.0
 70
   128
 71
   -65
 72
    59
 73
    58
  0
VERTEX
  8
RK-SINKB
 10
0.0
 20
0.0
 30
0.0
 70
   128
 71
    79
 72
   -59
 73
    65
  0
VERTEX
  8
RK-SINKB
 10
0.0
 20
0.0
 30
0.0
 70
   128
 71
   -61
 72
    80
 73
    69
  0
VERTEX
  8
RK-SINKB
 10
0.0
 20
0.0
 30
0.0
 70
   128
 71
   -80
 72
    61
 73
   -62
  0
VERTEX
  8
RK-SINKB
 10
0.0
 20
0.0
 30
0.0
 70
   128
 71
    65
 72
    81
 73
    64
  0
VERTEX
  8
RK-SINKB
 10
0.0
 20
0.0
 30
0.0
 70
   128
 71
    82
 72
    69
 73
    68
  0
VERTEX
  8
RK-SINKB
 10
0.0
 20
0.0
 30
0.0
 70
   128
 71
    83
 72
    71
 73
    64
  0
VERTEX
  8
RK-SINKB
 10
0.0
 20
0.0
 30
0.0
 70
   128
 71
    84
 72
    68
 73
    74
  0
VERTEX
  8
RK-SINKB
 10
0.0
 20
0.0
 30
0.0
 70
   128
 71
    71
 72
    85
 73
    86
  0
VERTEX
  8
RK-SINKB
 10
0.0
 20
0.0
 30
0.0
 70
   128
 71
   -71
 72
    76
 73
    86
  0
VERTEX
  8
RK-SINKB
 10
0.0
 20
0.0
 30
0.0
 70
   128
 71
    71
 72
    70
 73
   -76
  0
VERTEX
  8
RK-SINKB
 10
0.0
 20
0.0
 30
0.0
 70
   128
 71
   -73
 72
    87
 73
    77
  0
VERTEX
  8
RK-SINKB
 10
0.0
 20
0.0
 30
0.0
 70
   128
 71
    74
 72
   -87
 73
    73
  0
VERTEX
  8
RK-SINKB
 10
0.0
 20
0.0
 30
0.0
 70
   128
 71
    88
 72
    74
 73
    87
  0
VERTEX
  8
RK-SINKB
 10
0.0
 20
0.0
 30
0.0
 70
   128
 71
    89
 72
    76
 73
    86
  0
VERTEX
  8
RK-SINKB
 10
0.0
 20
0.0
 30
0.0
 70
   128
 71
    90
 72
    75
 73
    76
  0
VERTEX
  8
RK-SINKB
 10
0.0
 20
0.0
 30
0.0
 70
   128
 71
    91
 72
    77
 73
    75
  0
VERTEX
  8
RK-SINKB
 10
0.0
 20
0.0
 30
0.0
 70
   128
 71
    92
 72
    87
 73
    77
  0
VERTEX
  8
RK-SINKB
 10
0.0
 20
0.0
 30
0.0
 70
   128
 71
   -95
 72
    93
 73
    94
  0
VERTEX
  8
RK-SINKB
 10
0.0
 20
0.0
 30
0.0
 70
   128
 71
    96
 72
   -93
 73
    95
  0
VERTEX
  8
RK-SINKB
 10
0.0
 20
0.0
 30
0.0
 70
   128
 71
   -96
 72
    97
 73
    93
  0
VERTEX
  8
RK-SINKB
 10
0.0
 20
0.0
 30
0.0
 70
   128
 71
    98
 72
   -97
 73
    96
  0
VERTEX
  8
RK-SINKB
 10
0.0
 20
0.0
 30
0.0
 70
   128
 71
  -101
 72
    99
 73
   100
  0
VERTEX
  8
RK-SINKB
 10
0.0
 20
0.0
 30
0.0
 70
   128
 71
    94
 72
   -99
 73
   101
  0
VERTEX
  8
RK-SINKB
 10
0.0
 20
0.0
 30
0.0
 70
   128
 71
   -94
 72
   102
 73
    99
  0
VERTEX
  8
RK-SINKB
 10
0.0
 20
0.0
 30
0.0
 70
   128
 71
    93
 72
  -102
 73
    94
  0
VERTEX
  8
RK-SINKB
 10
0.0
 20
0.0
 30
0.0
 70
   128
 71
   -93
 72
   103
 73
   102
  0
VERTEX
  8
RK-SINKB
 10
0.0
 20
0.0
 30
0.0
 70
   128
 71
    97
 72
  -103
 73
    93
  0
VERTEX
  8
RK-SINKB
 10
0.0
 20
0.0
 30
0.0
 70
   128
 71
   -97
 72
   104
 73
   103
  0
VERTEX
  8
RK-SINKB
 10
0.0
 20
0.0
 30
0.0
 70
   128
 71
   105
 72
  -104
 73
    97
  0
VERTEX
  8
RK-SINKB
 10
0.0
 20
0.0
 30
0.0
 70
   128
 71
  -100
 72
   106
 73
   107
  0
VERTEX
  8
RK-SINKB
 10
0.0
 20
0.0
 30
0.0
 70
   128
 71
    99
 72
  -106
 73
   100
  0
VERTEX
  8
RK-SINKB
 10
0.0
 20
0.0
 30
0.0
 70
   128
 71
   -99
 72
   108
 73
   106
  0
VERTEX
  8
RK-SINKB
 10
0.0
 20
0.0
 30
0.0
 70
   128
 71
   102
 72
  -108
 73
    99
  0
VERTEX
  8
RK-SINKB
 10
0.0
 20
0.0
 30
0.0
 70
   128
 71
  -102
 72
   109
 73
   108
  0
VERTEX
  8
RK-SINKB
 10
0.0
 20
0.0
 30
0.0
 70
   128
 71
   103
 72
  -109
 73
   102
  0
VERTEX
  8
RK-SINKB
 10
0.0
 20
0.0
 30
0.0
 70
   128
 71
  -103
 72
   110
 73
   109
  0
VERTEX
  8
RK-SINKB
 10
0.0
 20
0.0
 30
0.0
 70
   128
 71
   104
 72
  -110
 73
   103
  0
VERTEX
  8
RK-SINKB
 10
0.0
 20
0.0
 30
0.0
 70
   128
 71
  -106
 72
   111
 73
   112
  0
VERTEX
  8
RK-SINKB
 10
0.0
 20
0.0
 30
0.0
 70
   128
 71
   108
 72
  -111
 73
   106
  0
VERTEX
  8
RK-SINKB
 10
0.0
 20
0.0
 30
0.0
 70
   128
 71
  -108
 72
   113
 73
   111
  0
VERTEX
  8
RK-SINKB
 10
0.0
 20
0.0
 30
0.0
 70
   128
 71
   109
 72
  -113
 73
   108
  0
VERTEX
  8
RK-SINKB
 10
0.0
 20
0.0
 30
0.0
 70
   128
 71
  -114
 72
    94
 73
   101
  0
VERTEX
  8
RK-SINKB
 10
0.0
 20
0.0
 30
0.0
 70
   128
 71
   114
 72
    95
 73
   -94
  0
VERTEX
  8
RK-SINKB
 10
0.0
 20
0.0
 30
0.0
 70
   128
 71
   -98
 72
   105
 73
    97
  0
VERTEX
  8
RK-SINKB
 10
0.0
 20
0.0
 30
0.0
 70
   128
 71
   115
 72
  -105
 73
    98
  0
VERTEX
  8
RK-SINKB
 10
0.0
 20
0.0
 30
0.0
 70
   128
 71
   115
 72
   105
 73
   116
  0
VERTEX
  8
RK-SINKB
 10
0.0
 20
0.0
 30
0.0
 70
   128
 71
   117
 72
   101
 73
   100
  0
VERTEX
  8
RK-SINKB
 10
0.0
 20
0.0
 30
0.0
 70
   128
 71
   105
 72
   118
 73
   104
  0
VERTEX
  8
RK-SINKB
 10
0.0
 20
0.0
 30
0.0
 70
   128
 71
   119
 72
   100
 73
   107
  0
VERTEX
  8
RK-SINKB
 10
0.0
 20
0.0
 30
0.0
 70
   128
 71
   104
 72
   120
 73
   110
  0
VERTEX
  8
RK-SINKB
 10
0.0
 20
0.0
 30
0.0
 70
   128
 71
   122
 72
   107
 73
   121
  0
VERTEX
  8
RK-SINKB
 10
0.0
 20
0.0
 30
0.0
 70
   128
 71
  -121
 72
   106
 73
   112
  0
VERTEX
  8
RK-SINKB
 10
0.0
 20
0.0
 30
0.0
 70
   128
 71
  -106
 72
   121
 73
   107
  0
VERTEX
  8
RK-SINKB
 10
0.0
 20
0.0
 30
0.0
 70
   128
 71
  -123
 72
   109
 73
   110
  0
VERTEX
  8
RK-SINKB
 10
0.0
 20
0.0
 30
0.0
 70
   128
 71
  -109
 72
   123
 73
   113
  0
VERTEX
  8
RK-SINKB
 10
0.0
 20
0.0
 30
0.0
 70
   128
 71
   110
 72
   123
 73
   124
  0
VERTEX
  8
RK-SINKB
 10
0.0
 20
0.0
 30
0.0
 70
   128
 71
   125
 72
   112
 73
   121
  0
VERTEX
  8
RK-SINKB
 10
0.0
 20
0.0
 30
0.0
 70
   128
 71
   126
 72
   111
 73
   112
  0
VERTEX
  8
RK-SINKB
 10
0.0
 20
0.0
 30
0.0
 70
   128
 71
   127
 72
   113
 73
   111
  0
VERTEX
  8
RK-SINKB
 10
0.0
 20
0.0
 30
0.0
 70
   128
 71
   128
 72
   123
 73
   113
  0
VERTEX
  8
RK-SINKB
 10
0.0
 20
0.0
 30
0.0
 70
   128
 71
   114
 72
  -101
 73
    80
  0
VERTEX
  8
RK-SINKB
 10
0.0
 20
0.0
 30
0.0
 70
   128
 71
   101
 72
    69
 73
   -80
  0
VERTEX
  8
RK-SINKB
 10
0.0
 20
0.0
 30
0.0
 70
   128
 71
   100
 72
   -68
 73
   101
  0
VERTEX
  8
RK-SINKB
 10
0.0
 20
0.0
 30
0.0
 70
   128
 71
  -101
 72
    68
 73
    69
  0
VERTEX
  8
RK-SINKB
 10
0.0
 20
0.0
 30
0.0
 70
   128
 71
    74
 72
   -68
 73
   107
  0
VERTEX
  8
RK-SINKB
 10
0.0
 20
0.0
 30
0.0
 70
   128
 71
   100
 72
  -107
 73
    68
  0
VERTEX
  8
RK-SINKB
 10
0.0
 20
0.0
 30
0.0
 70
   128
 71
    74
 72
  -107
 73
    87
  0
VERTEX
  8
RK-SINKB
 10
0.0
 20
0.0
 30
0.0
 70
   128
 71
   121
 72
   -87
 73
   107
  0
VERTEX
  8
RK-SINKB
 10
0.0
 20
0.0
 30
0.0
 70
   128
 71
   130
 72
  -129
 73
   115
  0
VERTEX
  8
RK-SINKB
 10
0.0
 20
0.0
 30
0.0
 70
   128
 71
   129
 72
   105
 73
  -115
  0
VERTEX
  8
RK-SINKB
 10
0.0
 20
0.0
 30
0.0
 70
   128
 71
   131
 72
  -104
 73
   129
  0
VERTEX
  8
RK-SINKB
 10
0.0
 20
0.0
 30
0.0
 70
   128
 71
  -129
 72
   104
 73
   105
  0
VERTEX
  8
RK-SINKB
 10
0.0
 20
0.0
 30
0.0
 70
   128
 71
   110
 72
  -104
 73
   132
  0
VERTEX
  8
RK-SINKB
 10
0.0
 20
0.0
 30
0.0
 70
   128
 71
   131
 72
  -132
 73
   104
  0
VERTEX
  8
RK-SINKB
 10
0.0
 20
0.0
 30
0.0
 70
   128
 71
   110
 72
  -132
 73
   123
  0
VERTEX
  8
RK-SINKB
 10
0.0
 20
0.0
 30
0.0
 70
   128
 71
   133
 72
  -123
 73
   132
  0
VERTEX
  8
RK-SINKB
 10
0.0
 20
0.0
 30
0.0
 70
   128
 71
  -136
 72
   134
 73
   135
  0
VERTEX
  8
RK-SINKB
 10
0.0
 20
0.0
 30
0.0
 70
   128
 71
   137
 72
  -134
 73
   136
  0
VERTEX
  8
RK-SINKB
 10
0.0
 20
0.0
 30
0.0
 70
   128
 71
  -137
 72
    15
 73
   134
  0
VERTEX
  8
RK-SINKB
 10
0.0
 20
0.0
 30
0.0
 70
   128
 71
    16
 72
   -15
 73
   137
  0
VERTEX
  8
RK-SINKB
 10
0.0
 20
0.0
 30
0.0
 70
   128
 71
  -129
 72
   138
 73
   131
  0
VERTEX
  8
RK-SINKB
 10
0.0
 20
0.0
 30
0.0
 70
   128
 71
   135
 72
  -138
 73
   129
  0
VERTEX
  8
RK-SINKB
 10
0.0
 20
0.0
 30
0.0
 70
   128
 71
  -135
 72
   139
 73
   138
  0
VERTEX
  8
RK-SINKB
 10
0.0
 20
0.0
 30
0.0
 70
   128
 71
   134
 72
  -139
 73
   135
  0
VERTEX
  8
RK-SINKB
 10
0.0
 20
0.0
 30
0.0
 70
   128
 71
  -134
 72
   140
 73
   139
  0
VERTEX
  8
RK-SINKB
 10
0.0
 20
0.0
 30
0.0
 70
   128
 71
    15
 72
  -140
 73
   134
  0
VERTEX
  8
RK-SINKB
 10
0.0
 20
0.0
 30
0.0
 70
   128
 71
   -15
 72
   141
 73
   140
  0
VERTEX
  8
RK-SINKB
 10
0.0
 20
0.0
 30
0.0
 70
   128
 71
    14
 72
  -141
 73
    15
  0
VERTEX
  8
RK-SINKB
 10
0.0
 20
0.0
 30
0.0
 70
   128
 71
  -131
 72
   142
 73
   132
  0
VERTEX
  8
RK-SINKB
 10
0.0
 20
0.0
 30
0.0
 70
   128
 71
   138
 72
  -142
 73
   131
  0
VERTEX
  8
RK-SINKB
 10
0.0
 20
0.0
 30
0.0
 70
   128
 71
  -138
 72
   143
 73
   142
  0
VERTEX
  8
RK-SINKB
 10
0.0
 20
0.0
 30
0.0
 70
   128
 71
   139
 72
  -143
 73
   138
  0
VERTEX
  8
RK-SINKB
 10
0.0
 20
0.0
 30
0.0
 70
   128
 71
  -139
 72
   144
 73
   143
  0
VERTEX
  8
RK-SINKB
 10
0.0
 20
0.0
 30
0.0
 70
   128
 71
   140
 72
  -144
 73
   139
  0
VERTEX
  8
RK-SINKB
 10
0.0
 20
0.0
 30
0.0
 70
   128
 71
  -140
 72
   145
 73
   144
  0
VERTEX
  8
RK-SINKB
 10
0.0
 20
0.0
 30
0.0
 70
   128
 71
   141
 72
  -145
 73
   140
  0
VERTEX
  8
RK-SINKB
 10
0.0
 20
0.0
 30
0.0
 70
   128
 71
  -142
 72
   146
 73
   147
  0
VERTEX
  8
RK-SINKB
 10
0.0
 20
0.0
 30
0.0
 70
   128
 71
   143
 72
  -146
 73
   142
  0
VERTEX
  8
RK-SINKB
 10
0.0
 20
0.0
 30
0.0
 70
   128
 71
  -143
 72
   148
 73
   146
  0
VERTEX
  8
RK-SINKB
 10
0.0
 20
0.0
 30
0.0
 70
   128
 71
   144
 72
  -148
 73
   143
  0
VERTEX
  8
RK-SINKB
 10
0.0
 20
0.0
 30
0.0
 70
   128
 71
  -130
 72
   135
 73
   129
  0
VERTEX
  8
RK-SINKB
 10
0.0
 20
0.0
 30
0.0
 70
   128
 71
  -136
 72
  -135
 73
   130
  0
VERTEX
  8
RK-SINKB
 10
0.0
 20
0.0
 30
0.0
 70
   128
 71
   141
 72
   145
 73
   149
  0
VERTEX
  8
RK-SINKB
 10
0.0
 20
0.0
 30
0.0
 70
   128
 71
   150
 72
   132
 73
   133
  0
VERTEX
  8
RK-SINKB
 10
0.0
 20
0.0
 30
0.0
 70
   128
 71
  -147
 72
   132
 73
   142
  0
VERTEX
  8
RK-SINKB
 10
0.0
 20
0.0
 30
0.0
 70
   128
 71
  -132
 72
   147
 73
   133
  0
VERTEX
  8
RK-SINKB
 10
0.0
 20
0.0
 30
0.0
 70
   128
 71
  -145
 72
   148
 73
   144
  0
VERTEX
  8
RK-SINKB
 10
0.0
 20
0.0
 30
0.0
 70
   128
 71
  -148
 72
   145
 73
   151
  0
VERTEX
  8
RK-SINKB
 10
0.0
 20
0.0
 30
0.0
 70
   128
 71
   151
 72
   145
 73
   152
  0
VERTEX
  8
RK-SINKB
 10
0.0
 20
0.0
 30
0.0
 70
   128
 71
   153
 72
   147
 73
   133
  0
VERTEX
  8
RK-SINKB
 10
0.0
 20
0.0
 30
0.0
 70
   128
 71
   154
 72
   146
 73
   147
  0
VERTEX
  8
RK-SINKB
 10
0.0
 20
0.0
 30
0.0
 70
   128
 71
   155
 72
   148
 73
   146
  0
VERTEX
  8
RK-SINKB
 10
0.0
 20
0.0
 30
0.0
 70
   128
 71
   156
 72
   151
 73
   148
  0
VERTEX
  8
RK-SINKB
 10
0.0
 20
0.0
 30
0.0
 70
   128
 71
  -159
 72
   157
 73
   158
  0
VERTEX
  8
RK-SINKB
 10
0.0
 20
0.0
 30
0.0
 70
   128
 71
   160
 72
  -157
 73
   159
  0
VERTEX
  8
RK-SINKB
 10
0.0
 20
0.0
 30
0.0
 70
   128
 71
  -160
 72
   161
 73
   157
  0
VERTEX
  8
RK-SINKB
 10
0.0
 20
0.0
 30
0.0
 70
   128
 71
   162
 72
  -161
 73
   160
  0
VERTEX
  8
RK-SINKB
 10
0.0
 20
0.0
 30
0.0
 70
   128
 71
  -165
 72
   163
 73
   164
  0
VERTEX
  8
RK-SINKB
 10
0.0
 20
0.0
 30
0.0
 70
   128
 71
   158
 72
  -163
 73
   165
  0
VERTEX
  8
RK-SINKB
 10
0.0
 20
0.0
 30
0.0
 70
   128
 71
  -158
 72
   166
 73
   163
  0
VERTEX
  8
RK-SINKB
 10
0.0
 20
0.0
 30
0.0
 70
   128
 71
   157
 72
  -166
 73
   158
  0
VERTEX
  8
RK-SINKB
 10
0.0
 20
0.0
 30
0.0
 70
   128
 71
  -157
 72
   167
 73
   166
  0
VERTEX
  8
RK-SINKB
 10
0.0
 20
0.0
 30
0.0
 70
   128
 71
   161
 72
  -167
 73
   157
  0
VERTEX
  8
RK-SINKB
 10
0.0
 20
0.0
 30
0.0
 70
   128
 71
  -161
 72
   168
 73
   167
  0
VERTEX
  8
RK-SINKB
 10
0.0
 20
0.0
 30
0.0
 70
   128
 71
   169
 72
  -168
 73
   161
  0
VERTEX
  8
RK-SINKB
 10
0.0
 20
0.0
 30
0.0
 70
   128
 71
  -164
 72
   170
 73
   171
  0
VERTEX
  8
RK-SINKB
 10
0.0
 20
0.0
 30
0.0
 70
   128
 71
   163
 72
  -170
 73
   164
  0
VERTEX
  8
RK-SINKB
 10
0.0
 20
0.0
 30
0.0
 70
   128
 71
  -163
 72
   172
 73
   170
  0
VERTEX
  8
RK-SINKB
 10
0.0
 20
0.0
 30
0.0
 70
   128
 71
   166
 72
  -172
 73
   163
  0
VERTEX
  8
RK-SINKB
 10
0.0
 20
0.0
 30
0.0
 70
   128
 71
  -166
 72
   173
 73
   172
  0
VERTEX
  8
RK-SINKB
 10
0.0
 20
0.0
 30
0.0
 70
   128
 71
   167
 72
  -173
 73
   166
  0
VERTEX
  8
RK-SINKB
 10
0.0
 20
0.0
 30
0.0
 70
   128
 71
  -167
 72
   174
 73
   173
  0
VERTEX
  8
RK-SINKB
 10
0.0
 20
0.0
 30
0.0
 70
   128
 71
   168
 72
  -174
 73
   167
  0
VERTEX
  8
RK-SINKB
 10
0.0
 20
0.0
 30
0.0
 70
   128
 71
  -170
 72
   175
 73
   176
  0
VERTEX
  8
RK-SINKB
 10
0.0
 20
0.0
 30
0.0
 70
   128
 71
   172
 72
  -175
 73
   170
  0
VERTEX
  8
RK-SINKB
 10
0.0
 20
0.0
 30
0.0
 70
   128
 71
  -172
 72
   177
 73
   175
  0
VERTEX
  8
RK-SINKB
 10
0.0
 20
0.0
 30
0.0
 70
   128
 71
   173
 72
  -177
 73
   172
  0
VERTEX
  8
RK-SINKB
 10
0.0
 20
0.0
 30
0.0
 70
   128
 71
  -159
 72
   165
 73
   178
  0
VERTEX
  8
RK-SINKB
 10
0.0
 20
0.0
 30
0.0
 70
   128
 71
  -165
 72
   159
 73
   158
  0
VERTEX
  8
RK-SINKB
 10
0.0
 20
0.0
 30
0.0
 70
   128
 71
  -161
 72
   179
 73
   169
  0
VERTEX
  8
RK-SINKB
 10
0.0
 20
0.0
 30
0.0
 70
   128
 71
  -162
 72
  -179
 73
   161
  0
VERTEX
  8
RK-SINKB
 10
0.0
 20
0.0
 30
0.0
 70
   128
 71
   174
 72
   180
 73
   168
  0
VERTEX
  8
RK-SINKB
 10
0.0
 20
0.0
 30
0.0
 70
   128
 71
   182
 72
   171
 73
   181
  0
VERTEX
  8
RK-SINKB
 10
0.0
 20
0.0
 30
0.0
 70
   128
 71
  -182
 72
   170
 73
   176
  0
VERTEX
  8
RK-SINKB
 10
0.0
 20
0.0
 30
0.0
 70
   128
 71
  -170
 72
   182
 73
   171
  0
VERTEX
  8
RK-SINKB
 10
0.0
 20
0.0
 30
0.0
 70
   128
 71
  -183
 72
   173
 73
   174
  0
VERTEX
  8
RK-SINKB
 10
0.0
 20
0.0
 30
0.0
 70
   128
 71
  -173
 72
   183
 73
   177
  0
VERTEX
  8
RK-SINKB
 10
0.0
 20
0.0
 30
0.0
 70
   128
 71
   183
 72
   174
 73
   184
  0
VERTEX
  8
RK-SINKB
 10
0.0
 20
0.0
 30
0.0
 70
   128
 71
   185
 72
   176
 73
   182
  0
VERTEX
  8
RK-SINKB
 10
0.0
 20
0.0
 30
0.0
 70
   128
 71
   186
 72
   175
 73
   176
  0
VERTEX
  8
RK-SINKB
 10
0.0
 20
0.0
 30
0.0
 70
   128
 71
   187
 72
   177
 73
   175
  0
VERTEX
  8
RK-SINKB
 10
0.0
 20
0.0
 30
0.0
 70
   128
 71
   188
 72
   183
 73
   177
  0
VERTEX
  8
RK-SINKB
 10
0.0
 20
0.0
 30
0.0
 70
   128
 71
    14
 72
   -13
 73
   165
  0
VERTEX
  8
RK-SINKB
 10
0.0
 20
0.0
 30
0.0
 70
   128
 71
   178
 72
  -165
 73
    13
  0
VERTEX
  8
RK-SINKB
 10
0.0
 20
0.0
 30
0.0
 70
   128
 71
   165
 72
  -164
 73
    14
  0
VERTEX
  8
RK-SINKB
 10
0.0
 20
0.0
 30
0.0
 70
   128
 71
   164
 72
   141
 73
   -14
  0
VERTEX
  8
RK-SINKB
 10
0.0
 20
0.0
 30
0.0
 70
   128
 71
   171
 72
  -145
 73
   164
  0
VERTEX
  8
RK-SINKB
 10
0.0
 20
0.0
 30
0.0
 70
   128
 71
  -164
 72
   145
 73
   141
  0
VERTEX
  8
RK-SINKB
 10
0.0
 20
0.0
 30
0.0
 70
   128
 71
   151
 72
  -145
 73
   182
  0
VERTEX
  8
RK-SINKB
 10
0.0
 20
0.0
 30
0.0
 70
   128
 71
   171
 72
  -182
 73
   145
  0
VERTEX
  8
RK-SINKB
 10
0.0
 20
0.0
 30
0.0
 70
   128
 71
    65
 72
  -169
 73
    79
  0
VERTEX
  8
RK-SINKB
 10
0.0
 20
0.0
 30
0.0
 70
   128
 71
   179
 72
   -79
 73
   169
  0
VERTEX
  8
RK-SINKB
 10
0.0
 20
0.0
 30
0.0
 70
   128
 71
   169
 72
   -65
 73
   168
  0
VERTEX
  8
RK-SINKB
 10
0.0
 20
0.0
 30
0.0
 70
   128
 71
    65
 72
    64
 73
  -168
  0
VERTEX
  8
RK-SINKB
 10
0.0
 20
0.0
 30
0.0
 70
   128
 71
    64
 72
   -71
 73
   168
  0
VERTEX
  8
RK-SINKB
 10
0.0
 20
0.0
 30
0.0
 70
   128
 71
  -168
 72
    71
 73
   174
  0
VERTEX
  8
RK-SINKB
 10
0.0
 20
0.0
 30
0.0
 70
   128
 71
    86
 72
  -183
 73
    71
  0
VERTEX
  8
RK-SINKB
 10
0.0
 20
0.0
 30
0.0
 70
   128
 71
   174
 72
   -71
 73
   183
  0
VERTEX
  8
RK-SINKB
 10
0.0
 20
0.0
 30
0.0
 70
   128
 71
    95
 72
  -114
 73
    40
  0
VERTEX
  8
RK-SINKB
 10
0.0
 20
0.0
 30
0.0
 70
   128
 71
    37
 72
   -40
 73
   114
  0
VERTEX
  8
RK-SINKB
 10
0.0
 20
0.0
 30
0.0
 70
   128
 71
    95
 72
   -40
 73
    96
  0
VERTEX
  8
RK-SINKB
 10
0.0
 20
0.0
 30
0.0
 70
   128
 71
    40
 72
    42
 73
   -96
  0
VERTEX
  8
RK-SINKB
 10
0.0
 20
0.0
 30
0.0
 70
   128
 71
    44
 72
   -98
 73
    42
  0
VERTEX
  8
RK-SINKB
 10
0.0
 20
0.0
 30
0.0
 70
   128
 71
   -42
 72
    98
 73
    96
  0
VERTEX
  8
RK-SINKB
 10
0.0
 20
0.0
 30
0.0
 70
   128
 71
    44
 72
   -46
 73
    98
  0
VERTEX
  8
RK-SINKB
 10
0.0
 20
0.0
 30
0.0
 70
   128
 71
   115
 72
   -98
 73
    46
  0
VERTEX
  8
RK-SINKB
 10
0.0
 20
0.0
 30
0.0
 70
   128
 71
    59
 72
   -79
 73
    20
  0
VERTEX
  8
RK-SINKB
 10
0.0
 20
0.0
 30
0.0
 70
   128
 71
    17
 72
   -20
 73
    79
  0
VERTEX
  8
RK-SINKB
 10
0.0
 20
0.0
 30
0.0
 70
   128
 71
    59
 72
   -20
 73
    60
  0
VERTEX
  8
RK-SINKB
 10
0.0
 20
0.0
 30
0.0
 70
   128
 71
    20
 72
    22
 73
   -60
  0
VERTEX
  8
RK-SINKB
 10
0.0
 20
0.0
 30
0.0
 70
   128
 71
    22
 72
   -24
 73
    60
  0
VERTEX
  8
RK-SINKB
 10
0.0
 20
0.0
 30
0.0
 70
   128
 71
   -60
 72
    24
 73
    62
  0
VERTEX
  8
RK-SINKB
 10
0.0
 20
0.0
 30
0.0
 70
   128
 71
    80
 72
   -62
 73
    26
  0
VERTEX
  8
RK-SINKB
 10
0.0
 20
0.0
 30
0.0
 70
   128
 71
    24
 72
   -26
 73
    62
  0
VERTEX
  8
RK-SINKB
 10
0.0
 20
0.0
 30
0.0
 70
   128
 71
   159
 72
  -178
 73
    50
  0
VERTEX
  8
RK-SINKB
 10
0.0
 20
0.0
 30
0.0
 70
   128
 71
    47
 72
   -50
 73
   178
  0
VERTEX
  8
RK-SINKB
 10
0.0
 20
0.0
 30
0.0
 70
   128
 71
   159
 72
   -50
 73
   160
  0
VERTEX
  8
RK-SINKB
 10
0.0
 20
0.0
 30
0.0
 70
   128
 71
    50
 72
    52
 73
  -160
  0
VERTEX
  8
RK-SINKB
 10
0.0
 20
0.0
 30
0.0
 70
   128
 71
    52
 72
   -54
 73
   160
  0
VERTEX
  8
RK-SINKB
 10
0.0
 20
0.0
 30
0.0
 70
   128
 71
  -160
 72
    54
 73
   162
  0
VERTEX
  8
RK-SINKB
 10
0.0
 20
0.0
 30
0.0
 70
   128
 71
    56
 72
  -179
 73
    54
  0
VERTEX
  8
RK-SINKB
 10
0.0
 20
0.0
 30
0.0
 70
   128
 71
   162
 72
   -54
 73
   179
  0
VERTEX
  8
RK-SINKB
 10
0.0
 20
0.0
 30
0.0
 70
   128
 71
   136
 72
  -130
 73
    30
  0
VERTEX
  8
RK-SINKB
 10
0.0
 20
0.0
 30
0.0
 70
   128
 71
    27
 72
   -30
 73
   130
  0
VERTEX
  8
RK-SINKB
 10
0.0
 20
0.0
 30
0.0
 70
   128
 71
   136
 72
   -30
 73
   137
  0
VERTEX
  8
RK-SINKB
 10
0.0
 20
0.0
 30
0.0
 70
   128
 71
    30
 72
    32
 73
  -137
  0
VERTEX
  8
RK-SINKB
 10
0.0
 20
0.0
 30
0.0
 70
   128
 71
    32
 72
   -34
 73
   137
  0
VERTEX
  8
RK-SINKB
 10
0.0
 20
0.0
 30
0.0
 70
   128
 71
  -137
 72
    34
 73
    16
  0
VERTEX
  8
RK-SINKB
 10
0.0
 20
0.0
 30
0.0
 70
   128
 71
    36
 72
   -13
 73
    34
  0
VERTEX
  8
RK-SINKB
 10
0.0
 20
0.0
 30
0.0
 70
   128
 71
    16
 72
   -34
 73
    13
  0
VERTEX
  8
RK-SINKB
 10
0.0
 20
0.0
 30
0.0
 70
   128
 71
    37
 72
  -114
 73
    26
  0
VERTEX
  8
RK-SINKB
 10
0.0
 20
0.0
 30
0.0
 70
   128
 71
    80
 72
   -26
 73
   114
  0
VERTEX
  8
RK-SINKB
 10
0.0
 20
0.0
 30
0.0
 70
   128
 71
    46
 72
   -27
 73
   115
  0
VERTEX
  8
RK-SINKB
 10
0.0
 20
0.0
 30
0.0
 70
   128
 71
  -115
 72
    27
 73
   130
  0
VERTEX
  8
RK-SINKB
 10
0.0
 20
0.0
 30
0.0
 70
   128
 71
    13
 72
   -36
 73
   178
  0
VERTEX
  8
RK-SINKB
 10
0.0
 20
0.0
 30
0.0
 70
   128
 71
    36
 72
    47
 73
  -178
  0
VERTEX
  8
RK-SINKB
 10
0.0
 20
0.0
 30
0.0
 70
   128
 71
    17
 72
   -79
 73
    56
  0
VERTEX
  8
RK-SINKB
 10
0.0
 20
0.0
 30
0.0
 70
   128
 71
   179
 72
   -56
 73
    79
  0
VERTEX
  8
RK-SINKB
 10
0.0
 20
0.0
 30
0.0
 70
   128
 71
   190
 72
  -189
 73
   -87
  0
VERTEX
  8
RK-SINKB
 10
0.0
 20
0.0
 30
0.0
 70
   128
 71
   189
 72
  -191
 73
   -87
  0
VERTEX
  8
RK-SINKB
 10
0.0
 20
0.0
 30
0.0
 70
   128
 71
   191
 72
  -192
 73
   -87
  0
VERTEX
  8
RK-SINKB
 10
0.0
 20
0.0
 30
0.0
 70
   128
 71
   192
 72
  -193
 73
   -87
  0
VERTEX
  8
RK-SINKB
 10
0.0
 20
0.0
 30
0.0
 70
   128
 71
   193
 72
  -194
 73
   -87
  0
VERTEX
  8
RK-SINKB
 10
0.0
 20
0.0
 30
0.0
 70
   128
 71
   -87
 72
  -194
 73
    77
  0
VERTEX
  8
RK-SINKB
 10
0.0
 20
0.0
 30
0.0
 70
   128
 71
   -77
 72
  -194
 73
    75
  0
VERTEX
  8
RK-SINKB
 10
0.0
 20
0.0
 30
0.0
 70
   128
 71
   -75
 72
  -194
 73
    76
  0
VERTEX
  8
RK-SINKB
 10
0.0
 20
0.0
 30
0.0
 70
   128
 71
   -76
 72
  -194
 73
    86
  0
VERTEX
  8
RK-SINKB
 10
0.0
 20
0.0
 30
0.0
 70
   128
 71
   -86
 72
  -194
 73
   183
  0
VERTEX
  8
RK-SINKB
 10
0.0
 20
0.0
 30
0.0
 70
   128
 71
   177
 72
  -183
 73
   175
  0
VERTEX
  8
RK-SINKB
 10
0.0
 20
0.0
 30
0.0
 70
   128
 71
   176
 72
  -175
 73
   182
  0
VERTEX
  8
RK-SINKB
 10
0.0
 20
0.0
 30
0.0
 70
   128
 71
   151
 72
  -182
 73
   148
  0
VERTEX
  8
RK-SINKB
 10
0.0
 20
0.0
 30
0.0
 70
   128
 71
   146
 72
  -148
 73
   147
  0
VERTEX
  8
RK-SINKB
 10
0.0
 20
0.0
 30
0.0
 70
   128
 71
   133
 72
  -147
 73
   123
  0
VERTEX
  8
RK-SINKB
 10
0.0
 20
0.0
 30
0.0
 70
   128
 71
   113
 72
  -123
 73
   111
  0
VERTEX
  8
RK-SINKB
 10
0.0
 20
0.0
 30
0.0
 70
   128
 71
   112
 72
  -111
 73
   121
  0
VERTEX
  8
RK-SINKB
 10
0.0
 20
0.0
 30
0.0
 70
   128
 71
    87
 72
  -121
 73
  -190
  0
VERTEX
  8
RK-SINKB
 10
0.0
 20
0.0
 30
0.0
 70
   128
 71
   194
 72
  -195
 73
  -183
  0
VERTEX
  8
RK-SINKB
 10
0.0
 20
0.0
 30
0.0
 70
   128
 71
   195
 72
  -196
 73
  -183
  0
VERTEX
  8
RK-SINKB
 10
0.0
 20
0.0
 30
0.0
 70
   128
 71
   196
 72
  -197
 73
  -183
  0
VERTEX
  8
RK-SINKB
 10
0.0
 20
0.0
 30
0.0
 70
   128
 71
   197
 72
  -198
 73
  -183
  0
VERTEX
  8
RK-SINKB
 10
0.0
 20
0.0
 30
0.0
 70
   128
 71
   198
 72
  -199
 73
  -183
  0
VERTEX
  8
RK-SINKB
 10
0.0
 20
0.0
 30
0.0
 70
   128
 71
  -183
 72
  -199
 73
  -175
  0
VERTEX
  8
RK-SINKB
 10
0.0
 20
0.0
 30
0.0
 70
   128
 71
  -175
 72
  -199
 73
  -182
  0
VERTEX
  8
RK-SINKB
 10
0.0
 20
0.0
 30
0.0
 70
   128
 71
  -148
 72
  -182
 73
  -147
  0
VERTEX
  8
RK-SINKB
 10
0.0
 20
0.0
 30
0.0
 70
   128
 71
  -123
 72
  -147
 73
  -111
  0
VERTEX
  8
RK-SINKB
 10
0.0
 20
0.0
 30
0.0
 70
   128
 71
  -121
 72
  -111
 73
  -190
  0
VERTEX
  8
RK-SINKB
 10
0.0
 20
0.0
 30
0.0
 70
   128
 71
  -190
 72
  -111
 73
   200
  0
VERTEX
  8
RK-SINKB
 10
0.0
 20
0.0
 30
0.0
 70
   128
 71
  -182
 72
  -199
 73
  -147
  0
VERTEX
  8
RK-SINKB
 10
0.0
 20
0.0
 30
0.0
 70
   128
 71
   199
 72
  -201
 73
  -147
  0
VERTEX
  8
RK-SINKB
 10
0.0
 20
0.0
 30
0.0
 70
   128
 71
   201
 72
  -202
 73
  -147
  0
VERTEX
  8
RK-SINKB
 10
0.0
 20
0.0
 30
0.0
 70
   128
 71
  -147
 72
  -202
 73
  -111
  0
VERTEX
  8
RK-SINKB
 10
0.0
 20
0.0
 30
0.0
 70
   128
 71
  -200
 72
  -111
 73
   203
  0
VERTEX
  8
RK-SINKB
 10
0.0
 20
0.0
 30
0.0
 70
   128
 71
   202
 72
  -204
 73
  -111
  0
VERTEX
  8
RK-SINKB
 10
0.0
 20
0.0
 30
0.0
 70
   128
 71
   204
 72
  -203
 73
  -111
  0
VERTEX
  8
RK-SINKB
 10
0.0
 20
0.0
 30
0.0
 70
   128
 71
   207
 72
  -205
 73
   206
  0
VERTEX
  8
RK-SINKB
 10
0.0
 20
0.0
 30
0.0
 70
   128
 71
  -206
 72
   205
 73
   208
  0
VERTEX
  8
RK-SINKB
 10
0.0
 20
0.0
 30
0.0
 70
   128
 71
   205
 72
  -209
 73
   208
  0
VERTEX
  8
RK-SINKB
 10
0.0
 20
0.0
 30
0.0
 70
   128
 71
  -208
 72
   209
 73
   210
  0
VERTEX
  8
RK-SINKB
 10
0.0
 20
0.0
 30
0.0
 70
   128
 71
   213
 72
  -211
 73
   212
  0
VERTEX
  8
RK-SINKB
 10
0.0
 20
0.0
 30
0.0
 70
   128
 71
  -212
 72
   211
 73
   207
  0
VERTEX
  8
RK-SINKB
 10
0.0
 20
0.0
 30
0.0
 70
   128
 71
   211
 72
  -214
 73
   207
  0
VERTEX
  8
RK-SINKB
 10
0.0
 20
0.0
 30
0.0
 70
   128
 71
  -207
 72
   214
 73
   205
  0
VERTEX
  8
RK-SINKB
 10
0.0
 20
0.0
 30
0.0
 70
   128
 71
   214
 72
  -215
 73
   205
  0
VERTEX
  8
RK-SINKB
 10
0.0
 20
0.0
 30
0.0
 70
   128
 71
  -205
 72
   215
 73
   209
  0
VERTEX
  8
RK-SINKB
 10
0.0
 20
0.0
 30
0.0
 70
   128
 71
   215
 72
  -216
 73
   209
  0
VERTEX
  8
RK-SINKB
 10
0.0
 20
0.0
 30
0.0
 70
   128
 71
  -209
 72
   216
 73
   217
  0
VERTEX
  8
RK-SINKB
 10
0.0
 20
0.0
 30
0.0
 70
   128
 71
   219
 72
  -218
 73
   213
  0
VERTEX
  8
RK-SINKB
 10
0.0
 20
0.0
 30
0.0
 70
   128
 71
  -213
 72
   218
 73
   211
  0
VERTEX
  8
RK-SINKB
 10
0.0
 20
0.0
 30
0.0
 70
   128
 71
   218
 72
  -220
 73
   211
  0
VERTEX
  8
RK-SINKB
 10
0.0
 20
0.0
 30
0.0
 70
   128
 71
  -211
 72
   220
 73
   214
  0
VERTEX
  8
RK-SINKB
 10
0.0
 20
0.0
 30
0.0
 70
   128
 71
   220
 72
  -221
 73
   214
  0
VERTEX
  8
RK-SINKB
 10
0.0
 20
0.0
 30
0.0
 70
   128
 71
  -214
 72
   221
 73
   215
  0
VERTEX
  8
RK-SINKB
 10
0.0
 20
0.0
 30
0.0
 70
   128
 71
   221
 72
  -222
 73
   215
  0
VERTEX
  8
RK-SINKB
 10
0.0
 20
0.0
 30
0.0
 70
   128
 71
  -215
 72
   222
 73
   216
  0
VERTEX
  8
RK-SINKB
 10
0.0
 20
0.0
 30
0.0
 70
   128
 71
   224
 72
  -223
 73
   218
  0
VERTEX
  8
RK-SINKB
 10
0.0
 20
0.0
 30
0.0
 70
   128
 71
  -218
 72
   223
 73
   220
  0
VERTEX
  8
RK-SINKB
 10
0.0
 20
0.0
 30
0.0
 70
   128
 71
   223
 72
  -225
 73
   220
  0
VERTEX
  8
RK-SINKB
 10
0.0
 20
0.0
 30
0.0
 70
   128
 71
  -220
 72
   225
 73
   221
  0
VERTEX
  8
RK-SINKB
 10
0.0
 20
0.0
 30
0.0
 70
   128
 71
   212
 72
  -207
 73
   226
  0
VERTEX
  8
RK-SINKB
 10
0.0
 20
0.0
 30
0.0
 70
   128
 71
  -226
 72
  -207
 73
   206
  0
VERTEX
  8
RK-SINKB
 10
0.0
 20
0.0
 30
0.0
 70
   128
 71
   217
 72
  -227
 73
   209
  0
VERTEX
  8
RK-SINKB
 10
0.0
 20
0.0
 30
0.0
 70
   128
 71
   210
 72
  -209
 73
   227
  0
VERTEX
  8
RK-SINKB
 10
0.0
 20
0.0
 30
0.0
 70
   128
 71
   219
 72
  -228
 73
   218
  0
VERTEX
  8
RK-SINKB
 10
0.0
 20
0.0
 30
0.0
 70
   128
 71
   224
 72
  -218
 73
   228
  0
VERTEX
  8
RK-SINKB
 10
0.0
 20
0.0
 30
0.0
 70
   128
 71
   222
 72
  -221
 73
   229
  0
VERTEX
  8
RK-SINKB
 10
0.0
 20
0.0
 30
0.0
 70
   128
 71
   221
 72
   225
 73
  -229
  0
VERTEX
  8
RK-SINKB
 10
0.0
 20
0.0
 30
0.0
 70
   128
 71
   232
 72
  -230
 73
   231
  0
VERTEX
  8
RK-SINKB
 10
0.0
 20
0.0
 30
0.0
 70
   128
 71
  -231
 72
   230
 73
   233
  0
VERTEX
  8
RK-SINKB
 10
0.0
 20
0.0
 30
0.0
 70
   128
 71
   230
 72
  -234
 73
   233
  0
VERTEX
  8
RK-SINKB
 10
0.0
 20
0.0
 30
0.0
 70
   128
 71
  -233
 72
   234
 73
   235
  0
VERTEX
  8
RK-SINKB
 10
0.0
 20
0.0
 30
0.0
 70
   128
 71
   238
 72
  -236
 73
   237
  0
VERTEX
  8
RK-SINKB
 10
0.0
 20
0.0
 30
0.0
 70
   128
 71
  -237
 72
   236
 73
   232
  0
VERTEX
  8
RK-SINKB
 10
0.0
 20
0.0
 30
0.0
 70
   128
 71
   236
 72
  -239
 73
   232
  0
VERTEX
  8
RK-SINKB
 10
0.0
 20
0.0
 30
0.0
 70
   128
 71
  -232
 72
   239
 73
   230
  0
VERTEX
  8
RK-SINKB
 10
0.0
 20
0.0
 30
0.0
 70
   128
 71
   239
 72
  -240
 73
   230
  0
VERTEX
  8
RK-SINKB
 10
0.0
 20
0.0
 30
0.0
 70
   128
 71
  -230
 72
   240
 73
   234
  0
VERTEX
  8
RK-SINKB
 10
0.0
 20
0.0
 30
0.0
 70
   128
 71
   240
 72
  -241
 73
   234
  0
VERTEX
  8
RK-SINKB
 10
0.0
 20
0.0
 30
0.0
 70
   128
 71
  -234
 72
   241
 73
   242
  0
VERTEX
  8
RK-SINKB
 10
0.0
 20
0.0
 30
0.0
 70
   128
 71
   244
 72
  -243
 73
   238
  0
VERTEX
  8
RK-SINKB
 10
0.0
 20
0.0
 30
0.0
 70
   128
 71
  -238
 72
   243
 73
   236
  0
VERTEX
  8
RK-SINKB
 10
0.0
 20
0.0
 30
0.0
 70
   128
 71
   243
 72
  -245
 73
   236
  0
VERTEX
  8
RK-SINKB
 10
0.0
 20
0.0
 30
0.0
 70
   128
 71
  -236
 72
   245
 73
   239
  0
VERTEX
  8
RK-SINKB
 10
0.0
 20
0.0
 30
0.0
 70
   128
 71
   245
 72
  -246
 73
   239
  0
VERTEX
  8
RK-SINKB
 10
0.0
 20
0.0
 30
0.0
 70
   128
 71
  -239
 72
   246
 73
   240
  0
VERTEX
  8
RK-SINKB
 10
0.0
 20
0.0
 30
0.0
 70
   128
 71
   246
 72
  -247
 73
   240
  0
VERTEX
  8
RK-SINKB
 10
0.0
 20
0.0
 30
0.0
 70
   128
 71
  -240
 72
   247
 73
   241
  0
VERTEX
  8
RK-SINKB
 10
0.0
 20
0.0
 30
0.0
 70
   128
 71
   249
 72
  -248
 73
   243
  0
VERTEX
  8
RK-SINKB
 10
0.0
 20
0.0
 30
0.0
 70
   128
 71
  -243
 72
   248
 73
   245
  0
VERTEX
  8
RK-SINKB
 10
0.0
 20
0.0
 30
0.0
 70
   128
 71
   248
 72
  -250
 73
   245
  0
VERTEX
  8
RK-SINKB
 10
0.0
 20
0.0
 30
0.0
 70
   128
 71
  -245
 72
   250
 73
   246
  0
VERTEX
  8
RK-SINKB
 10
0.0
 20
0.0
 30
0.0
 70
   128
 71
   237
 72
  -232
 73
   251
  0
VERTEX
  8
RK-SINKB
 10
0.0
 20
0.0
 30
0.0
 70
   128
 71
  -251
 72
  -232
 73
   231
  0
VERTEX
  8
RK-SINKB
 10
0.0
 20
0.0
 30
0.0
 70
   128
 71
   234
 72
  -242
 73
   235
  0
VERTEX
  8
RK-SINKB
 10
0.0
 20
0.0
 30
0.0
 70
   128
 71
  -235
 72
   242
 73
   252
  0
VERTEX
  8
RK-SINKB
 10
0.0
 20
0.0
 30
0.0
 70
   128
 71
   249
 72
  -243
 73
   253
  0
VERTEX
  8
RK-SINKB
 10
0.0
 20
0.0
 30
0.0
 70
   128
 71
   244
 72
  -253
 73
   243
  0
VERTEX
  8
RK-SINKB
 10
0.0
 20
0.0
 30
0.0
 70
   128
 71
   247
 72
  -246
 73
   254
  0
VERTEX
  8
RK-SINKB
 10
0.0
 20
0.0
 30
0.0
 70
   128
 71
   250
 72
  -254
 73
   246
  0
VERTEX
  8
RK-SINKB
 10
0.0
 20
0.0
 30
0.0
 70
   128
 71
  -242
 72
   226
 73
   252
  0
VERTEX
  8
RK-SINKB
 10
0.0
 20
0.0
 30
0.0
 70
   128
 71
   242
 72
   212
 73
  -226
  0
VERTEX
  8
RK-SINKB
 10
0.0
 20
0.0
 30
0.0
 70
   128
 71
  -242
 72
   213
 73
   212
  0
VERTEX
  8
RK-SINKB
 10
0.0
 20
0.0
 30
0.0
 70
   128
 71
   241
 72
  -213
 73
   242
  0
VERTEX
  8
RK-SINKB
 10
0.0
 20
0.0
 30
0.0
 70
   128
 71
  -213
 72
   247
 73
   219
  0
VERTEX
  8
RK-SINKB
 10
0.0
 20
0.0
 30
0.0
 70
   128
 71
  -247
 72
   213
 73
   241
  0
VERTEX
  8
RK-SINKB
 10
0.0
 20
0.0
 30
0.0
 70
   128
 71
  -254
 72
   219
 73
   247
  0
VERTEX
  8
RK-SINKB
 10
0.0
 20
0.0
 30
0.0
 70
   128
 71
  -219
 72
   254
 73
   228
  0
VERTEX
  8
RK-SINKB
 10
0.0
 20
0.0
 30
0.0
 70
   128
 71
    -1
 72
   251
 73
     2
  0
VERTEX
  8
RK-SINKB
 10
0.0
 20
0.0
 30
0.0
 70
   128
 71
     1
 72
   237
 73
  -251
  0
VERTEX
  8
RK-SINKB
 10
0.0
 20
0.0
 30
0.0
 70
   128
 71
    -1
 72
   238
 73
   237
  0
VERTEX
  8
RK-SINKB
 10
0.0
 20
0.0
 30
0.0
 70
   128
 71
   255
 72
  -238
 73
     1
  0
VERTEX
  8
RK-SINKB
 10
0.0
 20
0.0
 30
0.0
 70
   128
 71
  -238
 72
   256
 73
   244
  0
VERTEX
  8
RK-SINKB
 10
0.0
 20
0.0
 30
0.0
 70
   128
 71
  -256
 72
   238
 73
   255
  0
VERTEX
  8
RK-SINKB
 10
0.0
 20
0.0
 30
0.0
 70
   128
 71
  -253
 72
   256
 73
   257
  0
VERTEX
  8
RK-SINKB
 10
0.0
 20
0.0
 30
0.0
 70
   128
 71
  -256
 72
   253
 73
   244
  0
VERTEX
  8
RK-SINKB
 10
0.0
 20
0.0
 30
0.0
 70
   128
 71
     5
 72
  -258
 73
     6
  0
VERTEX
  8
RK-SINKB
 10
0.0
 20
0.0
 30
0.0
 70
   128
 71
    -6
 72
   258
 73
   259
  0
VERTEX
  8
RK-SINKB
 10
0.0
 20
0.0
 30
0.0
 70
   128
 71
   258
 72
    -4
 73
   259
  0
VERTEX
  8
RK-SINKB
 10
0.0
 20
0.0
 30
0.0
 70
   128
 71
  -259
 72
     4
 73
     3
  0
VERTEX
  8
RK-SINKB
 10
0.0
 20
0.0
 30
0.0
 70
   128
 71
   261
 72
  -260
 73
     8
  0
VERTEX
  8
RK-SINKB
 10
0.0
 20
0.0
 30
0.0
 70
   128
 71
    -8
 72
   260
 73
     5
  0
VERTEX
  8
RK-SINKB
 10
0.0
 20
0.0
 30
0.0
 70
   128
 71
   260
 72
  -262
 73
     5
  0
VERTEX
  8
RK-SINKB
 10
0.0
 20
0.0
 30
0.0
 70
   128
 71
    -5
 72
   262
 73
   258
  0
VERTEX
  8
RK-SINKB
 10
0.0
 20
0.0
 30
0.0
 70
   128
 71
   262
 72
  -263
 73
   258
  0
VERTEX
  8
RK-SINKB
 10
0.0
 20
0.0
 30
0.0
 70
   128
 71
  -258
 72
   263
 73
     4
  0
VERTEX
  8
RK-SINKB
 10
0.0
 20
0.0
 30
0.0
 70
   128
 71
   263
 72
  -255
 73
     4
  0
VERTEX
  8
RK-SINKB
 10
0.0
 20
0.0
 30
0.0
 70
   128
 71
    -4
 72
   255
 73
     1
  0
VERTEX
  8
RK-SINKB
 10
0.0
 20
0.0
 30
0.0
 70
   128
 71
   265
 72
  -264
 73
   261
  0
VERTEX
  8
RK-SINKB
 10
0.0
 20
0.0
 30
0.0
 70
   128
 71
  -261
 72
   264
 73
   260
  0
VERTEX
  8
RK-SINKB
 10
0.0
 20
0.0
 30
0.0
 70
   128
 71
   264
 72
  -266
 73
   260
  0
VERTEX
  8
RK-SINKB
 10
0.0
 20
0.0
 30
0.0
 70
   128
 71
  -260
 72
   266
 73
   262
  0
VERTEX
  8
RK-SINKB
 10
0.0
 20
0.0
 30
0.0
 70
   128
 71
   266
 72
  -267
 73
   262
  0
VERTEX
  8
RK-SINKB
 10
0.0
 20
0.0
 30
0.0
 70
   128
 71
  -262
 72
   267
 73
   263
  0
VERTEX
  8
RK-SINKB
 10
0.0
 20
0.0
 30
0.0
 70
   128
 71
   267
 72
  -256
 73
   263
  0
VERTEX
  8
RK-SINKB
 10
0.0
 20
0.0
 30
0.0
 70
   128
 71
  -263
 72
   256
 73
   255
  0
VERTEX
  8
RK-SINKB
 10
0.0
 20
0.0
 30
0.0
 70
   128
 71
   269
 72
  -268
 73
   264
  0
VERTEX
  8
RK-SINKB
 10
0.0
 20
0.0
 30
0.0
 70
   128
 71
  -264
 72
   268
 73
   266
  0
VERTEX
  8
RK-SINKB
 10
0.0
 20
0.0
 30
0.0
 70
   128
 71
   268
 72
  -270
 73
   266
  0
VERTEX
  8
RK-SINKB
 10
0.0
 20
0.0
 30
0.0
 70
   128
 71
  -266
 72
   270
 73
   267
  0
VERTEX
  8
RK-SINKB
 10
0.0
 20
0.0
 30
0.0
 70
   128
 71
   269
 72
  -264
 73
   271
  0
VERTEX
  8
RK-SINKB
 10
0.0
 20
0.0
 30
0.0
 70
   128
 71
   265
 72
  -271
 73
   264
  0
VERTEX
  8
RK-SINKB
 10
0.0
 20
0.0
 30
0.0
 70
   128
 71
   256
 72
  -267
 73
   257
  0
VERTEX
  8
RK-SINKB
 10
0.0
 20
0.0
 30
0.0
 70
   128
 71
   270
 72
  -257
 73
   267
  0
VERTEX
  8
RK-SINKB
 10
0.0
 20
0.0
 30
0.0
 70
   128
 71
   274
 72
  -272
 73
   273
  0
VERTEX
  8
RK-SINKB
 10
0.0
 20
0.0
 30
0.0
 70
   128
 71
  -273
 72
   272
 73
   275
  0
VERTEX
  8
RK-SINKB
 10
0.0
 20
0.0
 30
0.0
 70
   128
 71
   272
 72
   -12
 73
   275
  0
VERTEX
  8
RK-SINKB
 10
0.0
 20
0.0
 30
0.0
 70
   128
 71
  -275
 72
    12
 73
    11
  0
VERTEX
  8
RK-SINKB
 10
0.0
 20
0.0
 30
0.0
 70
   128
 71
   278
 72
  -276
 73
   277
  0
VERTEX
  8
RK-SINKB
 10
0.0
 20
0.0
 30
0.0
 70
   128
 71
  -277
 72
   276
 73
   274
  0
VERTEX
  8
RK-SINKB
 10
0.0
 20
0.0
 30
0.0
 70
   128
 71
   276
 72
  -279
 73
   274
  0
VERTEX
  8
RK-SINKB
 10
0.0
 20
0.0
 30
0.0
 70
   128
 71
  -274
 72
   279
 73
   272
  0
VERTEX
  8
RK-SINKB
 10
0.0
 20
0.0
 30
0.0
 70
   128
 71
   279
 72
  -280
 73
   272
  0
VERTEX
  8
RK-SINKB
 10
0.0
 20
0.0
 30
0.0
 70
   128
 71
  -272
 72
   280
 73
    12
  0
VERTEX
  8
RK-SINKB
 10
0.0
 20
0.0
 30
0.0
 70
   128
 71
   280
 72
  -281
 73
    12
  0
VERTEX
  8
RK-SINKB
 10
0.0
 20
0.0
 30
0.0
 70
   128
 71
   -12
 72
   281
 73
     9
  0
VERTEX
  8
RK-SINKB
 10
0.0
 20
0.0
 30
0.0
 70
   128
 71
   283
 72
  -282
 73
   278
  0
VERTEX
  8
RK-SINKB
 10
0.0
 20
0.0
 30
0.0
 70
   128
 71
  -278
 72
   282
 73
   276
  0
VERTEX
  8
RK-SINKB
 10
0.0
 20
0.0
 30
0.0
 70
   128
 71
   282
 72
  -284
 73
   276
  0
VERTEX
  8
RK-SINKB
 10
0.0
 20
0.0
 30
0.0
 70
   128
 71
  -276
 72
   284
 73
   279
  0
VERTEX
  8
RK-SINKB
 10
0.0
 20
0.0
 30
0.0
 70
   128
 71
   284
 72
  -285
 73
   279
  0
VERTEX
  8
RK-SINKB
 10
0.0
 20
0.0
 30
0.0
 70
   128
 71
  -279
 72
   285
 73
   280
  0
VERTEX
  8
RK-SINKB
 10
0.0
 20
0.0
 30
0.0
 70
   128
 71
   285
 72
  -286
 73
   280
  0
VERTEX
  8
RK-SINKB
 10
0.0
 20
0.0
 30
0.0
 70
   128
 71
  -280
 72
   286
 73
   281
  0
VERTEX
  8
RK-SINKB
 10
0.0
 20
0.0
 30
0.0
 70
   128
 71
   288
 72
  -287
 73
   282
  0
VERTEX
  8
RK-SINKB
 10
0.0
 20
0.0
 30
0.0
 70
   128
 71
  -282
 72
   287
 73
   284
  0
VERTEX
  8
RK-SINKB
 10
0.0
 20
0.0
 30
0.0
 70
   128
 71
   287
 72
  -289
 73
   284
  0
VERTEX
  8
RK-SINKB
 10
0.0
 20
0.0
 30
0.0
 70
   128
 71
  -284
 72
   289
 73
   285
  0
VERTEX
  8
RK-SINKB
 10
0.0
 20
0.0
 30
0.0
 70
   128
 71
   290
 72
  -277
 73
   273
  0
VERTEX
  8
RK-SINKB
 10
0.0
 20
0.0
 30
0.0
 70
   128
 71
   277
 72
  -274
 73
  -273
  0
VERTEX
  8
RK-SINKB
 10
0.0
 20
0.0
 30
0.0
 70
   128
 71
   283
 72
  -291
 73
   282
  0
VERTEX
  8
RK-SINKB
 10
0.0
 20
0.0
 30
0.0
 70
   128
 71
   291
 72
   288
 73
  -282
  0
VERTEX
  8
RK-SINKB
 10
0.0
 20
0.0
 30
0.0
 70
   128
 71
   285
 72
  -289
 73
   286
  0
VERTEX
  8
RK-SINKB
 10
0.0
 20
0.0
 30
0.0
 70
   128
 71
  -286
 72
   289
 73
   292
  0
VERTEX
  8
RK-SINKB
 10
0.0
 20
0.0
 30
0.0
 70
   128
 71
    -7
 72
     9
 73
     8
  0
VERTEX
  8
RK-SINKB
 10
0.0
 20
0.0
 30
0.0
 70
   128
 71
    -9
 72
     7
 73
    10
  0
VERTEX
  8
RK-SINKB
 10
0.0
 20
0.0
 30
0.0
 70
   128
 71
  -261
 72
     9
 73
   281
  0
VERTEX
  8
RK-SINKB
 10
0.0
 20
0.0
 30
0.0
 70
   128
 71
    -9
 72
   261
 73
     8
  0
VERTEX
  8
RK-SINKB
 10
0.0
 20
0.0
 30
0.0
 70
   128
 71
  -286
 72
   261
 73
   281
  0
VERTEX
  8
RK-SINKB
 10
0.0
 20
0.0
 30
0.0
 70
   128
 71
   286
 72
   265
 73
  -261
  0
VERTEX
  8
RK-SINKB
 10
0.0
 20
0.0
 30
0.0
 70
   128
 71
  -286
 72
   271
 73
   265
  0
VERTEX
  8
RK-SINKB
 10
0.0
 20
0.0
 30
0.0
 70
   128
 71
   292
 72
  -271
 73
   286
  0
VERTEX
  8
RK-SINKB
 10
0.0
 20
0.0
 30
0.0
 70
   128
 71
  -290
 72
   217
 73
   277
  0
VERTEX
  8
RK-SINKB
 10
0.0
 20
0.0
 30
0.0
 70
   128
 71
  -217
 72
   290
 73
   227
  0
VERTEX
  8
RK-SINKB
 10
0.0
 20
0.0
 30
0.0
 70
   128
 71
  -278
 72
   217
 73
   216
  0
VERTEX
  8
RK-SINKB
 10
0.0
 20
0.0
 30
0.0
 70
   128
 71
  -217
 72
   278
 73
   277
  0
VERTEX
  8
RK-SINKB
 10
0.0
 20
0.0
 30
0.0
 70
   128
 71
  -222
 72
   278
 73
   216
  0
VERTEX
  8
RK-SINKB
 10
0.0
 20
0.0
 30
0.0
 70
   128
 71
   222
 72
   283
 73
  -278
  0
VERTEX
  8
RK-SINKB
 10
0.0
 20
0.0
 30
0.0
 70
   128
 71
  -222
 72
   291
 73
   283
  0
VERTEX
  8
RK-SINKB
 10
0.0
 20
0.0
 30
0.0
 70
   128
 71
   229
 72
  -291
 73
   222
  0
VERTEX
  8
RK-SINKB
 10
0.0
 20
0.0
 30
0.0
 70
   128
 71
   -35
 72
  -271
 73
    48
  0
VERTEX
  8
RK-SINKB
 10
0.0
 20
0.0
 30
0.0
 70
   128
 71
  -292
 72
   -48
 73
   271
  0
VERTEX
  8
RK-SINKB
 10
0.0
 20
0.0
 30
0.0
 70
   128
 71
  -292
 72
    49
 73
   -48
  0
VERTEX
  8
RK-SINKB
 10
0.0
 20
0.0
 30
0.0
 70
   128
 71
  -292
 72
    51
 73
   -49
  0
VERTEX
  8
RK-SINKB
 10
0.0
 20
0.0
 30
0.0
 70
   128
 71
  -292
 72
    53
 73
   -51
  0
VERTEX
  8
RK-SINKB
 10
0.0
 20
0.0
 30
0.0
 70
   128
 71
  -292
 72
    55
 73
   -53
  0
VERTEX
  8
RK-SINKB
 10
0.0
 20
0.0
 30
0.0
 70
   128
 71
  -292
 72
    18
 73
   -55
  0
VERTEX
  8
RK-SINKB
 10
0.0
 20
0.0
 30
0.0
 70
   128
 71
  -289
 72
   -18
 73
   292
  0
VERTEX
  8
RK-SINKB
 10
0.0
 20
0.0
 30
0.0
 70
   128
 71
  -287
 72
   -18
 73
   289
  0
VERTEX
  8
RK-SINKB
 10
0.0
 20
0.0
 30
0.0
 70
   128
 71
  -288
 72
   -18
 73
   287
  0
VERTEX
  8
RK-SINKB
 10
0.0
 20
0.0
 30
0.0
 70
   128
 71
  -291
 72
   -18
 73
   288
  0
VERTEX
  8
RK-SINKB
 10
0.0
 20
0.0
 30
0.0
 70
   128
 71
  -229
 72
   -18
 73
   291
  0
VERTEX
  8
RK-SINKB
 10
0.0
 20
0.0
 30
0.0
 70
   128
 71
  -229
 72
    19
 73
   -18
  0
VERTEX
  8
RK-SINKB
 10
0.0
 20
0.0
 30
0.0
 70
   128
 71
  -229
 72
    21
 73
   -19
  0
VERTEX
  8
RK-SINKB
 10
0.0
 20
0.0
 30
0.0
 70
   128
 71
  -223
 72
   229
 73
   225
  0
VERTEX
  8
RK-SINKB
 10
0.0
 20
0.0
 30
0.0
 70
   128
 71
  -228
 72
   223
 73
   224
  0
VERTEX
  8
RK-SINKB
 10
0.0
 20
0.0
 30
0.0
 70
   128
 71
  -250
 72
   228
 73
   254
  0
VERTEX
  8
RK-SINKB
 10
0.0
 20
0.0
 30
0.0
 70
   128
 71
  -249
 72
   250
 73
   248
  0
VERTEX
  8
RK-SINKB
 10
0.0
 20
0.0
 30
0.0
 70
   128
 71
  -257
 72
   249
 73
   253
  0
VERTEX
  8
RK-SINKB
 10
0.0
 20
0.0
 30
0.0
 70
   128
 71
  -268
 72
   257
 73
   270
  0
VERTEX
  8
RK-SINKB
 10
0.0
 20
0.0
 30
0.0
 70
   128
 71
  -271
 72
   268
 73
   269
  0
VERTEX
  8
RK-SINKB
 10
0.0
 20
0.0
 30
0.0
 70
   128
 71
   -35
 72
  -268
 73
  -271
  0
VERTEX
  8
RK-SINKB
 10
0.0
 20
0.0
 30
0.0
 70
   128
 71
  -229
 72
    23
 73
   -21
  0
VERTEX
  8
RK-SINKB
 10
0.0
 20
0.0
 30
0.0
 70
   128
 71
  -229
 72
    25
 73
   -23
  0
VERTEX
  8
RK-SINKB
 10
0.0
 20
0.0
 30
0.0
 70
   128
 71
  -229
 72
    38
 73
   -25
  0
VERTEX
  8
RK-SINKB
 10
0.0
 20
0.0
 30
0.0
 70
   128
 71
  -223
 72
   -38
 73
  -229
  0
VERTEX
  8
RK-SINKB
 10
0.0
 20
0.0
 30
0.0
 70
   128
 71
  -228
 72
   -38
 73
  -223
  0
VERTEX
  8
RK-SINKB
 10
0.0
 20
0.0
 30
0.0
 70
   128
 71
  -250
 72
   -38
 73
  -228
  0
VERTEX
  8
RK-SINKB
 10
0.0
 20
0.0
 30
0.0
 70
   128
 71
  -250
 72
    39
 73
   -38
  0
VERTEX
  8
RK-SINKB
 10
0.0
 20
0.0
 30
0.0
 70
   128
 71
  -250
 72
    41
 73
   -39
  0
VERTEX
  8
RK-SINKB
 10
0.0
 20
0.0
 30
0.0
 70
   128
 71
  -257
 72
  -250
 73
  -249
  0
VERTEX
  8
RK-SINKB
 10
0.0
 20
0.0
 30
0.0
 70
   128
 71
   -35
 72
  -257
 73
  -268
  0
VERTEX
  8
RK-SINKB
 10
0.0
 20
0.0
 30
0.0
 70
   128
 71
   -33
 72
  -257
 73
    35
  0
VERTEX
  8
RK-SINKB
 10
0.0
 20
0.0
 30
0.0
 70
   128
 71
  -250
 72
    43
 73
   -41
  0
VERTEX
  8
RK-SINKB
 10
0.0
 20
0.0
 30
0.0
 70
   128
 71
  -250
 72
    45
 73
   -43
  0
VERTEX
  8
RK-SINKB
 10
0.0
 20
0.0
 30
0.0
 70
   128
 71
  -250
 72
    28
 73
   -45
  0
VERTEX
  8
RK-SINKB
 10
0.0
 20
0.0
 30
0.0
 70
   128
 71
  -257
 72
   -28
 73
  -250
  0
VERTEX
  8
RK-SINKB
 10
0.0
 20
0.0
 30
0.0
 70
   128
 71
   -31
 72
  -257
 73
    33
  0
VERTEX
  8
RK-SINKB
 10
0.0
 20
0.0
 30
0.0
 70
   128
 71
  -257
 72
    29
 73
   -28
  0
VERTEX
  8
RK-SINKB
 10
0.0
 20
0.0
 30
0.0
 70
   128
 71
  -257
 72
    31
 73
   -29
  0
SEQEND
  8
RK-SINKB
  0
POLYLINE
  8
RK-DRAIN
 66
     1
 10
0.0
 20
0.0
 30
0.0
 70
    64
 71
     6
 72
     3
  0
VERTEX
  8
RK-DRAIN
 10
15.624999
 20
-12.5
 30
0.5
 70
   192
  0
VERTEX
  8
RK-DRAIN
 10
15.624999
 20
-12.5
 30
0.0
 70
   192
  0
VERTEX
  8
RK-DRAIN
 10
15.62073972828613
 20
-12.46764761936218
 30
0.0
 70
   192
  0
VERTEX
  8
RK-DRAIN
 10
15.62073972828613
 20
-12.46764761936218
 30
0.5
 70
   192
  0
VERTEX
  8
RK-DRAIN
 10
17.249999
 20
-12.5
 30
0.0
 70
   192
  0
VERTEX
  8
RK-DRAIN
 10
17.249999
 20
-12.5
 30
0.8125
 70
   192
  0
VERTEX
  8
RK-DRAIN
 10
17.19036919600587
 20
-12.04706667107059
 30
0.8125
 70
   192
  0
VERTEX
  8
RK-DRAIN
 10
17.19036919600587
 20
-12.04706667107059
 30
0.0
 70
   192
  0
VERTEX
  8
RK-DRAIN
 10
15.60825217547305
 20
-12.4375
 30
0.0
 70
   192
  0
VERTEX
  8
RK-DRAIN
 10
15.60825217547305
 20
-12.4375
 30
0.5
 70
   192
  0
VERTEX
  8
RK-DRAIN
 10
17.01554345662277
 20
-11.625
 30
0.8125
 70
   192
  0
VERTEX
  8
RK-DRAIN
 10
17.01554345662277
 20
-11.625
 30
0.0
 70
   192
  0
VERTEX
  8
RK-DRAIN
 10
15.58838734764831
 20
-12.41161165235168
 30
0.0
 70
   192
  0
VERTEX
  8
RK-DRAIN
 10
15.58838734764831
 20
-12.41161165235168
 30
0.5
 70
   192
  0
VERTEX
  8
RK-DRAIN
 10
16.73743586707645
 20
-11.26256313292354
 30
0.8125
 70
   192
  0
VERTEX
  8
RK-DRAIN
 10
16.73743586707645
 20
-11.26256313292354
 30
0.0
 70
   192
  0
VERTEX
  8
RK-DRAIN
 10
15.562499
 20
-12.39174682452694
 30
0.0
 70
   192
  0
VERTEX
  8
RK-DRAIN
 10
15.562499
 20
-12.39174682452694
 30
0.5
 70
   192
  0
VERTEX
  8
RK-DRAIN
 10
16.374999
 20
-10.98445554337723
 30
0.8125
 70
   192
  0
VERTEX
  8
RK-DRAIN
 10
16.374999
 20
-10.98445554337723
 30
0.0
 70
   192
  0
VERTEX
  8
RK-DRAIN
 10
15.53235138063781
 20
-12.37925927171386
 30
0.0
 70
   192
  0
VERTEX
  8
RK-DRAIN
 10
15.53235138063781
 20
-12.37925927171386
 30
0.5
 70
   192
  0
VERTEX
  8
RK-DRAIN
 10
15.95293232892941
 20
-10.80962980399413
 30
0.8125
 70
   192
  0
VERTEX
  8
RK-DRAIN
 10
15.95293232892941
 20
-10.80962980399413
 30
0.0
 70
   192
  0
VERTEX
  8
RK-DRAIN
 10
15.499999
 20
-12.375
 30
0.0
 70
   192
  0
VERTEX
  8
RK-DRAIN
 10
15.499999
 20
-12.375
 30
0.5
 70
   192
  0
VERTEX
  8
RK-DRAIN
 10
15.499999
 20
-10.74999999999999
 30
0.8125
 70
   192
  0
VERTEX
  8
RK-DRAIN
 10
15.499999
 20
-10.74999999999999
 30
0.0
 70
   192
  0
VERTEX
  8
RK-DRAIN
 10
15.46764661936218
 20
-12.37925927171386
 30
0.0
 70
   192
  0
VERTEX
  8
RK-DRAIN
 10
15.46764661936218
 20
-12.37925927171386
 30
0.5
 70
   192
  0
VERTEX
  8
RK-DRAIN
 10
15.04706567107058
 20
-10.80962980399413
 30
0.8125
 70
   192
  0
VERTEX
  8
RK-DRAIN
 10
15.04706567107058
 20
-10.80962980399413
 30
0.0
 70
   192
  0
VERTEX
  8
RK-DRAIN
 10
15.437499
 20
-12.39174682452694
 30
0.0
 70
   192
  0
VERTEX
  8
RK-DRAIN
 10
15.437499
 20
-12.39174682452694
 30
0.5
 70
   192
  0
VERTEX
  8
RK-DRAIN
 10
14.624999
 20
-10.98445554337723
 30
0.8125
 70
   192
  0
VERTEX
  8
RK-DRAIN
 10
14.624999
 20
-10.98445554337723
 30
0.0
 70
   192
  0
VERTEX
  8
RK-DRAIN
 10
15.41161065235168
 20
-12.41161165235168
 30
0.0
 70
   192
  0
VERTEX
  8
RK-DRAIN
 10
15.41161065235168
 20
-12.41161165235168
 30
0.5
 70
   192
  0
VERTEX
  8
RK-DRAIN
 10
14.26256213292354
 20
-11.26256313292354
 30
0.8125
 70
   192
  0
VERTEX
  8
RK-DRAIN
 10
14.26256213292354
 20
-11.26256313292354
 30
0.0
 70
   192
  0
VERTEX
  8
RK-DRAIN
 10
15.39174582452694
 20
-12.4375
 30
0.0
 70
   192
  0
VERTEX
  8
RK-DRAIN
 10
15.39174582452694
 20
-12.4375
 30
0.5
 70
   192
  0
VERTEX
  8
RK-DRAIN
 10
13.98445454337723
 20
-11.625
 30
0.8125
 70
   192
  0
VERTEX
  8
RK-DRAIN
 10
13.98445454337723
 20
-11.625
 30
0.0
 70
   192
  0
VERTEX
  8
RK-DRAIN
 10
15.37925827171386
 20
-12.46764761936218
 30
0.0
 70
   192
  0
VERTEX
  8
RK-DRAIN
 10
15.37925827171386
 20
-12.46764761936218
 30
0.5
 70
   192
  0
VERTEX
  8
RK-DRAIN
 10
13.80962880399412
 20
-12.04706667107059
 30
0.8125
 70
   192
  0
VERTEX
  8
RK-DRAIN
 10
13.80962880399412
 20
-12.04706667107059
 30
0.0
 70
   192
  0
VERTEX
  8
RK-DRAIN
 10
15.374999
 20
-12.5
 30
0.0
 70
   192
  0
VERTEX
  8
RK-DRAIN
 10
15.37499899999999
 20
-12.5
 30
0.5
 70
   192
  0
VERTEX
  8
RK-DRAIN
 10
13.74999899999999
 20
-12.5
 30
0.8125
 70
   192
  0
VERTEX
  8
RK-DRAIN
 10
13.74999899999999
 20
-12.5
 30
0.0
 70
   192
  0
VERTEX
  8
RK-DRAIN
 10
15.37925827171386
 20
-12.53235238063781
 30
0.0
 70
   192
  0
VERTEX
  8
RK-DRAIN
 10
15.37925827171386
 20
-12.53235238063781
 30
0.5
 70
   192
  0
VERTEX
  8
RK-DRAIN
 10
13.80962880399413
 20
-12.95293332892941
 30
0.8125
 70
   192
  0
VERTEX
  8
RK-DRAIN
 10
13.80962880399413
 20
-12.95293332892941
 30
0.0
 70
   192
  0
VERTEX
  8
RK-DRAIN
 10
15.39174582452694
 20
-12.5625
 30
0.0
 70
   192
  0
VERTEX
  8
RK-DRAIN
 10
15.39174582452694
 20
-12.5625
 30
0.5
 70
   192
  0
VERTEX
  8
RK-DRAIN
 10
13.98445454337723
 20
-13.375
 30
0.8125
 70
   192
  0
VERTEX
  8
RK-DRAIN
 10
13.98445454337723
 20
-13.375
 30
0.0
 70
   192
  0
VERTEX
  8
RK-DRAIN
 10
15.41161065235168
 20
-12.58838834764832
 30
0.0
 70
   192
  0
VERTEX
  8
RK-DRAIN
 10
15.41161065235168
 20
-12.58838834764832
 30
0.5
 70
   192
  0
VERTEX
  8
RK-DRAIN
 10
14.26256213292354
 20
-13.73743686707646
 30
0.8125
 70
   192
  0
VERTEX
  8
RK-DRAIN
 10
14.26256213292354
 20
-13.73743686707646
 30
0.0
 70
   192
  0
VERTEX
  8
RK-DRAIN
 10
15.437499
 20
-12.60825317547305
 30
0.0
 70
   192
  0
VERTEX
  8
RK-DRAIN
 10
15.437499
 20
-12.60825317547305
 30
0.5
 70
   192
  0
VERTEX
  8
RK-DRAIN
 10
14.624999
 20
-14.01554445662277
 30
0.8125
 70
   192
  0
VERTEX
  8
RK-DRAIN
 10
14.624999
 20
-14.01554445662277
 30
0.0
 70
   192
  0
VERTEX
  8
RK-DRAIN
 10
15.46764661936218
 20
-12.62074072828613
 30
0.0
 70
   192
  0
VERTEX
  8
RK-DRAIN
 10
15.46764661936218
 20
-12.62074072828613
 30
0.5
 70
   192
  0
VERTEX
  8
RK-DRAIN
 10
15.04706567107058
 20
-14.19037019600587
 30
0.8125
 70
   192
  0
VERTEX
  8
RK-DRAIN
 10
15.04706567107058
 20
-14.19037019600587
 30
0.0
 70
   192
  0
VERTEX
  8
RK-DRAIN
 10
15.499999
 20
-12.625
 30
0.0
 70
   192
  0
VERTEX
  8
RK-DRAIN
 10
15.499999
 20
-12.625
 30
0.5
 70
   192
  0
VERTEX
  8
RK-DRAIN
 10
15.499999
 20
-14.25
 30
0.8125
 70
   192
  0
VERTEX
  8
RK-DRAIN
 10
15.499999
 20
-14.25
 30
0.0
 70
   192
  0
VERTEX
  8
RK-DRAIN
 10
15.53235138063781
 20
-12.62074072828613
 30
0.0
 70
   192
  0
VERTEX
  8
RK-DRAIN
 10
15.53235138063781
 20
-12.62074072828613
 30
0.5
 70
   192
  0
VERTEX
  8
RK-DRAIN
 10
15.95293232892941
 20
-14.19037019600587
 30
0.8125
 70
   192
  0
VERTEX
  8
RK-DRAIN
 10
15.95293232892941
 20
-14.19037019600587
 30
0.0
 70
   192
  0
VERTEX
  8
RK-DRAIN
 10
15.562499
 20
-12.60825317547305
 30
0.0
 70
   192
  0
VERTEX
  8
RK-DRAIN
 10
15.562499
 20
-12.60825317547305
 30
0.5
 70
   192
  0
VERTEX
  8
RK-DRAIN
 10
16.374999
 20
-14.01554445662277
 30
0.8125
 70
   192
  0
VERTEX
  8
RK-DRAIN
 10
16.374999
 20
-14.01554445662277
 30
0.0
 70
   192
  0
VERTEX
  8
RK-DRAIN
 10
15.58838734764831
 20
-12.58838834764832
 30
0.0
 70
   192
  0
VERTEX
  8
RK-DRAIN
 10
15.58838734764831
 20
-12.58838834764832
 30
0.5
 70
   192
  0
VERTEX
  8
RK-DRAIN
 10
16.73743586707645
 20
-13.73743686707646
 30
0.8125
 70
   192
  0
VERTEX
  8
RK-DRAIN
 10
16.73743586707645
 20
-13.73743686707646
 30
0.0
 70
   192
  0
VERTEX
  8
RK-DRAIN
 10
15.60825217547305
 20
-12.5625
 30
0.0
 70
   192
  0
VERTEX
  8
RK-DRAIN
 10
15.60825217547305
 20
-12.5625
 30
0.5
 70
   192
  0
VERTEX
  8
RK-DRAIN
 10
17.01554345662276
 20
-13.375
 30
0.8125
 70
   192
  0
VERTEX
  8
RK-DRAIN
 10
17.01554345662276
 20
-13.375
 30
0.0
 70
   192
  0
VERTEX
  8
RK-DRAIN
 10
15.62073972828613
 20
-12.53235238063781
 30
0.0
 70
   192
  0
VERTEX
  8
RK-DRAIN
 10
15.62073972828613
 20
-12.53235238063781
 30
0.5
 70
   192
  0
VERTEX
  8
RK-DRAIN
 10
17.19036919600586
 20
-12.95293332892941
 30
0.8125
 70
   192
  0
VERTEX
  8
RK-DRAIN
 10
17.19036919600586
 20
-12.95293332892941
 30
0.0
 70
   192
  0
VERTEX
  8
RK-DRAIN
 10
13.20592516256346
 20
-13.11469523211849
 30
0.8125
 70
   192
  0
VERTEX
  8
RK-DRAIN
 10
13.44318866601196
 20
-13.6875
 30
0.8125
 70
   192
  0
VERTEX
  8
RK-DRAIN
 10
13.20592516256346
 20
-13.11469523211849
 30
0.75
 70
   192
  0
VERTEX
  8
RK-DRAIN
 10
13.44318866601196
 20
-13.6875
 30
0.75
 70
   192
  0
VERTEX
  8
RK-DRAIN
 10
13.82062039468195
 20
-14.17937860531805
 30
0.8125
 70
   192
  0
VERTEX
  8
RK-DRAIN
 10
17.17937760531805
 20
-14.17937860531805
 30
0.8125
 70
   192
  0
VERTEX
  8
RK-DRAIN
 10
17.55680933398804
 20
-13.6875
 30
0.8125
 70
   192
  0
VERTEX
  8
RK-DRAIN
 10
17.79407283743653
 20
-13.11469523211849
 30
0.8125
 70
   192
  0
VERTEX
  8
RK-DRAIN
 10
17.55680933398804
 20
-13.6875
 30
0.75
 70
   192
  0
VERTEX
  8
RK-DRAIN
 10
17.79407283743653
 20
-13.11469523211849
 30
0.75
 70
   192
  0
VERTEX
  8
RK-DRAIN
 10
16.11469423211848
 20
-14.79407383743654
 30
0.8125
 70
   192
  0
VERTEX
  8
RK-DRAIN
 10
16.687499
 20
-14.55681033398804
 30
0.8125
 70
   192
  0
VERTEX
  8
RK-DRAIN
 10
16.11469423211848
 20
-14.79407383743654
 30
0.75
 70
   192
  0
VERTEX
  8
RK-DRAIN
 10
16.687499
 20
-14.55681033398804
 30
0.75
 70
   192
  0
VERTEX
  8
RK-DRAIN
 10
13.82062039468195
 20
-14.17937860531805
 30
0.75
 70
   192
  0
VERTEX
  8
RK-DRAIN
 10
14.312499
 20
-14.55681033398804
 30
0.75
 70
   192
  0
VERTEX
  8
RK-DRAIN
 10
14.312499
 20
-14.55681033398804
 30
0.8125
 70
   192
  0
VERTEX
  8
RK-DRAIN
 10
14.88530376788151
 20
-14.79407383743654
 30
0.75
 70
   192
  0
VERTEX
  8
RK-DRAIN
 10
14.88530376788151
 20
-14.79407383743654
 30
0.8125
 70
   192
  0
VERTEX
  8
RK-DRAIN
 10
15.499999
 20
-14.875
 30
0.75
 70
   192
  0
VERTEX
  8
RK-DRAIN
 10
15.499999
 20
-14.875
 30
0.8125
 70
   192
  0
VERTEX
  8
RK-DRAIN
 10
17.17937760531805
 20
-14.17937860531805
 30
0.75
 70
   192
  0
VERTEX
  8
RK-DRAIN
 10
16.687499
 20
-10.44318966601195
 30
0.8125
 70
   192
  0
VERTEX
  8
RK-DRAIN
 10
16.11469423211848
 20
-10.20592616256346
 30
0.8125
 70
   192
  0
VERTEX
  8
RK-DRAIN
 10
16.687499
 20
-10.44318966601195
 30
0.75
 70
   192
  0
VERTEX
  8
RK-DRAIN
 10
16.11469423211848
 20
-10.20592616256346
 30
0.75
 70
   192
  0
VERTEX
  8
RK-DRAIN
 10
14.88530376788151
 20
-10.20592616256346
 30
0.8125
 70
   192
  0
VERTEX
  8
RK-DRAIN
 10
14.312499
 20
-10.44318966601195
 30
0.8125
 70
   192
  0
VERTEX
  8
RK-DRAIN
 10
13.82062039468195
 20
-10.82062139468195
 30
0.8125
 70
   192
  0
VERTEX
  8
RK-DRAIN
 10
14.312499
 20
-10.44318966601195
 30
0.75
 70
   192
  0
VERTEX
  8
RK-DRAIN
 10
13.82062039468195
 20
-10.82062139468195
 30
0.75
 70
   192
  0
VERTEX
  8
RK-DRAIN
 10
15.749999
 20
-12.5
 30
0.625
 70
   192
  0
VERTEX
  8
RK-DRAIN
 10
15.749999
 20
-12.5
 30
0.5
 70
   192
  0
VERTEX
  8
RK-DRAIN
 10
15.74148045657227
 20
-12.43529523872437
 30
0.5
 70
   192
  0
VERTEX
  8
RK-DRAIN
 10
15.74148045657227
 20
-12.43529523872437
 30
0.625
 70
   192
  0
VERTEX
  8
RK-DRAIN
 10
15.71650535094611
 20
-12.375
 30
0.5
 70
   192
  0
VERTEX
  8
RK-DRAIN
 10
15.71650535094611
 20
-12.375
 30
0.625
 70
   192
  0
VERTEX
  8
RK-DRAIN
 10
15.67677569529664
 20
-12.32322330470336
 30
0.5
 70
   192
  0
VERTEX
  8
RK-DRAIN
 10
15.67677569529664
 20
-12.32322330470336
 30
0.625
 70
   192
  0
VERTEX
  8
RK-DRAIN
 10
15.624999
 20
-12.28349364905389
 30
0.5
 70
   192
  0
VERTEX
  8
RK-DRAIN
 10
15.624999
 20
-12.28349364905389
 30
0.625
 70
   192
  0
VERTEX
  8
RK-DRAIN
 10
15.56470376127563
 20
-12.25851854342773
 30
0.5
 70
   192
  0
VERTEX
  8
RK-DRAIN
 10
15.56470376127563
 20
-12.25851854342773
 30
0.625
 70
   192
  0
VERTEX
  8
RK-DRAIN
 10
15.499999
 20
-12.25
 30
0.5
 70
   192
  0
VERTEX
  8
RK-DRAIN
 10
15.499999
 20
-12.25
 30
0.625
 70
   192
  0
VERTEX
  8
RK-DRAIN
 10
15.43529423872437
 20
-12.25851854342773
 30
0.5
 70
   192
  0
VERTEX
  8
RK-DRAIN
 10
15.43529423872437
 20
-12.25851854342773
 30
0.625
 70
   192
  0
VERTEX
  8
RK-DRAIN
 10
15.374999
 20
-12.28349364905389
 30
0.5
 70
   192
  0
VERTEX
  8
RK-DRAIN
 10
15.374999
 20
-12.28349364905389
 30
0.625
 70
   192
  0
VERTEX
  8
RK-DRAIN
 10
15.32322230470336
 20
-12.32322330470336
 30
0.5
 70
   192
  0
VERTEX
  8
RK-DRAIN
 10
15.32322230470336
 20
-12.32322330470336
 30
0.625
 70
   192
  0
VERTEX
  8
RK-DRAIN
 10
15.28349264905388
 20
-12.375
 30
0.5
 70
   192
  0
VERTEX
  8
RK-DRAIN
 10
15.28349264905388
 20
-12.375
 30
0.625
 70
   192
  0
VERTEX
  8
RK-DRAIN
 10
15.25851754342773
 20
-12.43529523872437
 30
0.5
 70
   192
  0
VERTEX
  8
RK-DRAIN
 10
15.25851754342773
 20
-12.43529523872437
 30
0.625
 70
   192
  0
VERTEX
  8
RK-DRAIN
 10
15.24999899999999
 20
-12.5
 30
0.5
 70
   192
  0
VERTEX
  8
RK-DRAIN
 10
15.24999899999999
 20
-12.5
 30
0.625
 70
   192
  0
VERTEX
  8
RK-DRAIN
 10
15.25851754342773
 20
-12.56470476127563
 30
0.5
 70
   192
  0
VERTEX
  8
RK-DRAIN
 10
15.25851754342773
 20
-12.56470476127563
 30
0.625
 70
   192
  0
VERTEX
  8
RK-DRAIN
 10
15.28349264905388
 20
-12.625
 30
0.5
 70
   192
  0
VERTEX
  8
RK-DRAIN
 10
15.28349264905388
 20
-12.625
 30
0.625
 70
   192
  0
VERTEX
  8
RK-DRAIN
 10
15.32322230470336
 20
-12.67677669529664
 30
0.5
 70
   192
  0
VERTEX
  8
RK-DRAIN
 10
15.32322230470336
 20
-12.67677669529664
 30
0.625
 70
   192
  0
VERTEX
  8
RK-DRAIN
 10
15.374999
 20
-12.71650635094611
 30
0.5
 70
   192
  0
VERTEX
  8
RK-DRAIN
 10
15.374999
 20
-12.71650635094611
 30
0.625
 70
   192
  0
VERTEX
  8
RK-DRAIN
 10
15.43529423872437
 20
-12.74148145657227
 30
0.5
 70
   192
  0
VERTEX
  8
RK-DRAIN
 10
15.43529423872437
 20
-12.74148145657227
 30
0.625
 70
   192
  0
VERTEX
  8
RK-DRAIN
 10
15.499999
 20
-12.75
 30
0.5
 70
   192
  0
VERTEX
  8
RK-DRAIN
 10
15.499999
 20
-12.75
 30
0.625
 70
   192
  0
VERTEX
  8
RK-DRAIN
 10
15.56470376127563
 20
-12.74148145657227
 30
0.5
 70
   192
  0
VERTEX
  8
RK-DRAIN
 10
15.56470376127563
 20
-12.74148145657227
 30
0.625
 70
   192
  0
VERTEX
  8
RK-DRAIN
 10
15.624999
 20
-12.71650635094611
 30
0.5
 70
   192
  0
VERTEX
  8
RK-DRAIN
 10
15.624999
 20
-12.71650635094611
 30
0.625
 70
   192
  0
VERTEX
  8
RK-DRAIN
 10
15.67677569529664
 20
-12.67677669529664
 30
0.5
 70
   192
  0
VERTEX
  8
RK-DRAIN
 10
15.67677569529664
 20
-12.67677669529664
 30
0.625
 70
   192
  0
VERTEX
  8
RK-DRAIN
 10
15.71650535094611
 20
-12.625
 30
0.5
 70
   192
  0
VERTEX
  8
RK-DRAIN
 10
15.71650535094611
 20
-12.625
 30
0.625
 70
   192
  0
VERTEX
  8
RK-DRAIN
 10
15.74148045657227
 20
-12.56470476127563
 30
0.5
 70
   192
  0
VERTEX
  8
RK-DRAIN
 10
15.74148045657227
 20
-12.56470476127563
 30
0.625
 70
   192
  0
VERTEX
  8
RK-DRAIN
 10
15.499999
 20
-12.5
 30
0.625
 70
   192
  0
VERTEX
  8
RK-DRAIN
 10
13.44318866601195
 20
-11.3125
 30
0.8125
 70
   192
  0
VERTEX
  8
RK-DRAIN
 10
13.44318866601195
 20
-11.3125
 30
0.75
 70
   192
  0
VERTEX
  8
RK-DRAIN
 10
13.20592516256346
 20
-11.88530476788151
 30
0.8125
 70
   192
  0
VERTEX
  8
RK-DRAIN
 10
13.12499899999999
 20
-12.5
 30
0.8125
 70
   192
  0
VERTEX
  8
RK-DRAIN
 10
13.20592516256346
 20
-11.88530476788151
 30
0.75
 70
   192
  0
VERTEX
  8
RK-DRAIN
 10
13.12499899999999
 20
-12.5
 30
0.75
 70
   192
  0
VERTEX
  8
RK-DRAIN
 10
15.499999
 20
-10.12499999999999
 30
0.75
 70
   192
  0
VERTEX
  8
RK-DRAIN
 10
15.499999
 20
-10.12499999999999
 30
0.8125
 70
   192
  0
VERTEX
  8
RK-DRAIN
 10
14.88530376788151
 20
-10.20592616256346
 30
0.75
 70
   192
  0
VERTEX
  8
RK-DRAIN
 10
17.17937760531805
 20
-10.82062139468195
 30
0.8125
 70
   192
  0
VERTEX
  8
RK-DRAIN
 10
17.17937760531805
 20
-10.82062139468195
 30
0.75
 70
   192
  0
VERTEX
  8
RK-DRAIN
 10
17.874999
 20
-12.5
 30
0.8125
 70
   192
  0
VERTEX
  8
RK-DRAIN
 10
17.79407283743653
 20
-11.88530476788151
 30
0.8125
 70
   192
  0
VERTEX
  8
RK-DRAIN
 10
17.874999
 20
-12.5
 30
0.75
 70
   192
  0
VERTEX
  8
RK-DRAIN
 10
17.79407283743653
 20
-11.88530476788151
 30
0.75
 70
   192
  0
VERTEX
  8
RK-DRAIN
 10
17.55680933398804
 20
-11.3125
 30
0.75
 70
   192
  0
VERTEX
  8
RK-DRAIN
 10
17.55680933398804
 20
-11.3125
 30
0.8125
 70
   192
  0
VERTEX
  8
RK-DRAIN
 10
0.0
 20
0.0
 30
0.0
 70
   128
 71
     2
 72
     3
 73
     4
 74
     1
  0
VERTEX
  8
RK-DRAIN
 10
0.0
 20
0.0
 30
0.0
 70
   128
 71
     6
 72
     7
 73
     8
 74
     5
  0
VERTEX
  8
RK-DRAIN
 10
0.0
 20
0.0
 30
0.0
 70
   128
 71
     3
 72
     9
 73
    10
 74
     4
  0
VERTEX
  8
RK-DRAIN
 10
0.0
 20
0.0
 30
0.0
 70
   128
 71
     7
 72
    11
 73
    12
 74
     8
  0
VERTEX
  8
RK-DRAIN
 10
0.0
 20
0.0
 30
0.0
 70
   128
 71
     9
 72
    13
 73
    14
 74
    10
  0
VERTEX
  8
RK-DRAIN
 10
0.0
 20
0.0
 30
0.0
 70
   128
 71
    11
 72
    15
 73
    16
 74
    12
  0
VERTEX
  8
RK-DRAIN
 10
0.0
 20
0.0
 30
0.0
 70
   128
 71
    13
 72
    17
 73
    18
 74
    14
  0
VERTEX
  8
RK-DRAIN
 10
0.0
 20
0.0
 30
0.0
 70
   128
 71
    15
 72
    19
 73
    20
 74
    16
  0
VERTEX
  8
RK-DRAIN
 10
0.0
 20
0.0
 30
0.0
 70
   128
 71
    17
 72
    21
 73
    22
 74
    18
  0
VERTEX
  8
RK-DRAIN
 10
0.0
 20
0.0
 30
0.0
 70
   128
 71
    19
 72
    23
 73
    24
 74
    20
  0
VERTEX
  8
RK-DRAIN
 10
0.0
 20
0.0
 30
0.0
 70
   128
 71
    21
 72
    25
 73
    26
 74
    22
  0
VERTEX
  8
RK-DRAIN
 10
0.0
 20
0.0
 30
0.0
 70
   128
 71
    23
 72
    27
 73
    28
 74
    24
  0
VERTEX
  8
RK-DRAIN
 10
0.0
 20
0.0
 30
0.0
 70
   128
 71
    25
 72
    29
 73
    30
 74
    26
  0
VERTEX
  8
RK-DRAIN
 10
0.0
 20
0.0
 30
0.0
 70
   128
 71
    27
 72
    31
 73
    32
 74
    28
  0
VERTEX
  8
RK-DRAIN
 10
0.0
 20
0.0
 30
0.0
 70
   128
 71
    29
 72
    33
 73
    34
 74
    30
  0
VERTEX
  8
RK-DRAIN
 10
0.0
 20
0.0
 30
0.0
 70
   128
 71
    31
 72
    35
 73
    36
 74
    32
  0
VERTEX
  8
RK-DRAIN
 10
0.0
 20
0.0
 30
0.0
 70
   128
 71
    33
 72
    37
 73
    38
 74
    34
  0
VERTEX
  8
RK-DRAIN
 10
0.0
 20
0.0
 30
0.0
 70
   128
 71
    35
 72
    39
 73
    40
 74
    36
  0
VERTEX
  8
RK-DRAIN
 10
0.0
 20
0.0
 30
0.0
 70
   128
 71
    37
 72
    41
 73
    42
 74
    38
  0
VERTEX
  8
RK-DRAIN
 10
0.0
 20
0.0
 30
0.0
 70
   128
 71
    39
 72
    43
 73
    44
 74
    40
  0
VERTEX
  8
RK-DRAIN
 10
0.0
 20
0.0
 30
0.0
 70
   128
 71
    41
 72
    45
 73
    46
 74
    42
  0
VERTEX
  8
RK-DRAIN
 10
0.0
 20
0.0
 30
0.0
 70
   128
 71
    43
 72
    47
 73
    48
 74
    44
  0
VERTEX
  8
RK-DRAIN
 10
0.0
 20
0.0
 30
0.0
 70
   128
 71
    45
 72
    49
 73
    50
 74
    46
  0
VERTEX
  8
RK-DRAIN
 10
0.0
 20
0.0
 30
0.0
 70
   128
 71
    47
 72
    51
 73
    52
 74
    48
  0
VERTEX
  8
RK-DRAIN
 10
0.0
 20
0.0
 30
0.0
 70
   128
 71
    49
 72
    53
 73
    54
 74
    50
  0
VERTEX
  8
RK-DRAIN
 10
0.0
 20
0.0
 30
0.0
 70
   128
 71
    51
 72
    55
 73
    56
 74
    52
  0
VERTEX
  8
RK-DRAIN
 10
0.0
 20
0.0
 30
0.0
 70
   128
 71
    53
 72
    57
 73
    58
 74
    54
  0
VERTEX
  8
RK-DRAIN
 10
0.0
 20
0.0
 30
0.0
 70
   128
 71
    55
 72
    59
 73
    60
 74
    56
  0
VERTEX
  8
RK-DRAIN
 10
0.0
 20
0.0
 30
0.0
 70
   128
 71
    57
 72
    61
 73
    62
 74
    58
  0
VERTEX
  8
RK-DRAIN
 10
0.0
 20
0.0
 30
0.0
 70
   128
 71
    59
 72
    63
 73
    64
 74
    60
  0
VERTEX
  8
RK-DRAIN
 10
0.0
 20
0.0
 30
0.0
 70
   128
 71
    61
 72
    65
 73
    66
 74
    62
  0
VERTEX
  8
RK-DRAIN
 10
0.0
 20
0.0
 30
0.0
 70
   128
 71
    63
 72
    67
 73
    68
 74
    64
  0
VERTEX
  8
RK-DRAIN
 10
0.0
 20
0.0
 30
0.0
 70
   128
 71
    65
 72
    69
 73
    70
 74
    66
  0
VERTEX
  8
RK-DRAIN
 10
0.0
 20
0.0
 30
0.0
 70
   128
 71
    67
 72
    71
 73
    72
 74
    68
  0
VERTEX
  8
RK-DRAIN
 10
0.0
 20
0.0
 30
0.0
 70
   128
 71
    69
 72
    73
 73
    74
 74
    70
  0
VERTEX
  8
RK-DRAIN
 10
0.0
 20
0.0
 30
0.0
 70
   128
 71
    71
 72
    75
 73
    76
 74
    72
  0
VERTEX
  8
RK-DRAIN
 10
0.0
 20
0.0
 30
0.0
 70
   128
 71
    73
 72
    77
 73
    78
 74
    74
  0
VERTEX
  8
RK-DRAIN
 10
0.0
 20
0.0
 30
0.0
 70
   128
 71
    75
 72
    79
 73
    80
 74
    76
  0
VERTEX
  8
RK-DRAIN
 10
0.0
 20
0.0
 30
0.0
 70
   128
 71
    77
 72
    81
 73
    82
 74
    78
  0
VERTEX
  8
RK-DRAIN
 10
0.0
 20
0.0
 30
0.0
 70
   128
 71
    79
 72
    83
 73
    84
 74
    80
  0
VERTEX
  8
RK-DRAIN
 10
0.0
 20
0.0
 30
0.0
 70
   128
 71
    81
 72
    85
 73
    86
 74
    82
  0
VERTEX
  8
RK-DRAIN
 10
0.0
 20
0.0
 30
0.0
 70
   128
 71
    83
 72
    87
 73
    88
 74
    84
  0
VERTEX
  8
RK-DRAIN
 10
0.0
 20
0.0
 30
0.0
 70
   128
 71
    85
 72
    89
 73
    90
 74
    86
  0
VERTEX
  8
RK-DRAIN
 10
0.0
 20
0.0
 30
0.0
 70
   128
 71
    87
 72
    91
 73
    92
 74
    88
  0
VERTEX
  8
RK-DRAIN
 10
0.0
 20
0.0
 30
0.0
 70
   128
 71
    89
 72
    93
 73
    94
 74
    90
  0
VERTEX
  8
RK-DRAIN
 10
0.0
 20
0.0
 30
0.0
 70
   128
 71
    91
 72
    95
 73
    96
 74
    92
  0
VERTEX
  8
RK-DRAIN
 10
0.0
 20
0.0
 30
0.0
 70
   128
 71
    93
 72
     2
 73
     1
 74
    94
  0
VERTEX
  8
RK-DRAIN
 10
0.0
 20
0.0
 30
0.0
 70
   128
 71
    95
 72
     6
 73
     5
 74
    96
  0
VERTEX
  8
RK-DRAIN
 10
0.0
 20
0.0
 30
0.0
 70
   128
 71
    60
 72
   -64
 73
    61
 74
   -57
  0
VERTEX
  8
RK-DRAIN
 10
0.0
 20
0.0
 30
0.0
 70
   128
 71
    64
 72
   -68
 73
    65
 74
   -61
  0
VERTEX
  8
RK-DRAIN
 10
0.0
 20
0.0
 30
0.0
 70
   128
 71
    68
 72
   -72
 73
    69
 74
   -65
  0
VERTEX
  8
RK-DRAIN
 10
0.0
 20
0.0
 30
0.0
 70
   128
 71
    72
 72
   -76
 73
    73
 74
   -69
  0
VERTEX
  8
RK-DRAIN
 10
0.0
 20
0.0
 30
0.0
 70
   128
 71
    76
 72
   -80
 73
    77
 74
   -73
  0
VERTEX
  8
RK-DRAIN
 10
0.0
 20
0.0
 30
0.0
 70
   128
 71
    80
 72
   -84
 73
    81
 74
   -77
  0
VERTEX
  8
RK-DRAIN
 10
0.0
 20
0.0
 30
0.0
 70
   128
 71
    84
 72
   -88
 73
    85
 74
   -81
  0
VERTEX
  8
RK-DRAIN
 10
0.0
 20
0.0
 30
0.0
 70
   128
 71
    88
 72
   -92
 73
    89
 74
   -85
  0
VERTEX
  8
RK-DRAIN
 10
0.0
 20
0.0
 30
0.0
 70
   128
 71
     5
 72
    -8
 73
     3
 74
    -2
  0
VERTEX
  8
RK-DRAIN
 10
0.0
 20
0.0
 30
0.0
 70
   128
 71
     8
 72
   -12
 73
     9
 74
    -3
  0
VERTEX
  8
RK-DRAIN
 10
0.0
 20
0.0
 30
0.0
 70
   128
 71
    12
 72
   -16
 73
    13
 74
    -9
  0
VERTEX
  8
RK-DRAIN
 10
0.0
 20
0.0
 30
0.0
 70
   128
 71
    16
 72
   -20
 73
    17
 74
   -13
  0
VERTEX
  8
RK-DRAIN
 10
0.0
 20
0.0
 30
0.0
 70
   128
 71
    20
 72
   -24
 73
    21
 74
   -17
  0
VERTEX
  8
RK-DRAIN
 10
0.0
 20
0.0
 30
0.0
 70
   128
 71
    92
 72
   -96
 73
    93
 74
   -89
  0
VERTEX
  8
RK-DRAIN
 10
0.0
 20
0.0
 30
0.0
 70
   128
 71
    96
 72
    -5
 73
     2
 74
   -93
  0
VERTEX
  8
RK-DRAIN
 10
0.0
 20
0.0
 30
0.0
 70
   128
 71
    24
 72
   -28
 73
    25
 74
   -21
  0
VERTEX
  8
RK-DRAIN
 10
0.0
 20
0.0
 30
0.0
 70
   128
 71
    28
 72
   -32
 73
    29
 74
   -25
  0
VERTEX
  8
RK-DRAIN
 10
0.0
 20
0.0
 30
0.0
 70
   128
 71
    32
 72
   -36
 73
    33
 74
   -29
  0
VERTEX
  8
RK-DRAIN
 10
0.0
 20
0.0
 30
0.0
 70
   128
 71
    36
 72
   -40
 73
    37
 74
   -33
  0
VERTEX
  8
RK-DRAIN
 10
0.0
 20
0.0
 30
0.0
 70
   128
 71
    40
 72
   -44
 73
    41
 74
   -37
  0
VERTEX
  8
RK-DRAIN
 10
0.0
 20
0.0
 30
0.0
 70
   128
 71
    44
 72
   -48
 73
    45
 74
   -41
  0
VERTEX
  8
RK-DRAIN
 10
0.0
 20
0.0
 30
0.0
 70
   128
 71
    48
 72
   -52
 73
    49
 74
   -45
  0
VERTEX
  8
RK-DRAIN
 10
0.0
 20
0.0
 30
0.0
 70
   128
 71
    52
 72
   -56
 73
    53
 74
   -49
  0
VERTEX
  8
RK-DRAIN
 10
0.0
 20
0.0
 30
0.0
 70
   128
 71
    56
 72
   -60
 73
    57
 74
   -53
  0
VERTEX
  8
RK-DRAIN
 10
0.0
 20
0.0
 30
0.0
 70
   128
 71
    97
 72
   -98
 73
    59
 74
   -55
  0
VERTEX
  8
RK-DRAIN
 10
0.0
 20
0.0
 30
0.0
 70
   128
 71
    99
 72
   100
 73
    98
 74
    97
  0
VERTEX
  8
RK-DRAIN
 10
0.0
 20
0.0
 30
0.0
 70
   128
 71
    98
 72
  -101
 73
    63
 74
   -59
  0
VERTEX
  8
RK-DRAIN
 10
0.0
 20
0.0
 30
0.0
 70
   128
 71
   102
 72
  -103
 73
    91
 74
   -87
  0
VERTEX
  8
RK-DRAIN
 10
0.0
 20
0.0
 30
0.0
 70
   128
 71
   103
 72
  -104
 73
    95
 74
   -91
  0
VERTEX
  8
RK-DRAIN
 10
0.0
 20
0.0
 30
0.0
 70
   128
 71
   105
 72
   106
 73
   104
 74
   103
  0
VERTEX
  8
RK-DRAIN
 10
0.0
 20
0.0
 30
0.0
 70
   128
 71
   107
 72
  -108
 73
    83
 74
   -79
  0
VERTEX
  8
RK-DRAIN
 10
0.0
 20
0.0
 30
0.0
 70
   128
 71
   109
 72
   110
 73
   108
 74
   107
  0
VERTEX
  8
RK-DRAIN
 10
0.0
 20
0.0
 30
0.0
 70
   128
 71
   100
 72
   111
 73
   101
 74
    98
  0
VERTEX
  8
RK-DRAIN
 10
0.0
 20
0.0
 30
0.0
 70
   128
 71
   111
 72
   112
 73
   113
 74
   101
  0
VERTEX
  8
RK-DRAIN
 10
0.0
 20
0.0
 30
0.0
 70
   128
 71
   112
 72
   114
 73
   115
 74
   113
  0
VERTEX
  8
RK-DRAIN
 10
0.0
 20
0.0
 30
0.0
 70
   128
 71
   114
 72
   116
 73
   117
 74
   115
  0
VERTEX
  8
RK-DRAIN
 10
0.0
 20
0.0
 30
0.0
 70
   128
 71
   116
 72
   109
 73
   107
 74
   117
  0
VERTEX
  8
RK-DRAIN
 10
0.0
 20
0.0
 30
0.0
 70
   128
 71
   113
 72
  -115
 73
    71
 74
   -67
  0
VERTEX
  8
RK-DRAIN
 10
0.0
 20
0.0
 30
0.0
 70
   128
 71
   115
 72
  -117
 73
    75
 74
   -71
  0
VERTEX
  8
RK-DRAIN
 10
0.0
 20
0.0
 30
0.0
 70
   128
 71
   101
 72
  -113
 73
    67
 74
   -63
  0
VERTEX
  8
RK-DRAIN
 10
0.0
 20
0.0
 30
0.0
 70
   128
 71
   117
 72
  -107
 73
    79
 74
   -75
  0
VERTEX
  8
RK-DRAIN
 10
0.0
 20
0.0
 30
0.0
 70
   128
 71
   110
 72
   118
 73
   102
 74
   108
  0
VERTEX
  8
RK-DRAIN
 10
0.0
 20
0.0
 30
0.0
 70
   128
 71
   118
 72
   105
 73
   103
 74
   102
  0
VERTEX
  8
RK-DRAIN
 10
0.0
 20
0.0
 30
0.0
 70
   128
 71
   108
 72
  -102
 73
    87
 74
   -83
  0
VERTEX
  8
RK-DRAIN
 10
0.0
 20
0.0
 30
0.0
 70
   128
 71
   119
 72
  -120
 73
    23
 74
   -19
  0
VERTEX
  8
RK-DRAIN
 10
0.0
 20
0.0
 30
0.0
 70
   128
 71
   121
 72
   122
 73
   120
 74
   119
  0
VERTEX
  8
RK-DRAIN
 10
0.0
 20
0.0
 30
0.0
 70
   128
 71
   123
 72
  -124
 73
    35
 74
   -31
  0
VERTEX
  8
RK-DRAIN
 10
0.0
 20
0.0
 30
0.0
 70
   128
 71
   124
 72
  -125
 73
    39
 74
   -35
  0
VERTEX
  8
RK-DRAIN
 10
0.0
 20
0.0
 30
0.0
 70
   128
 71
   126
 72
   127
 73
   125
 74
   124
  0
VERTEX
  8
RK-DRAIN
 10
0.0
 20
0.0
 30
0.0
 70
   128
 71
   129
 72
   130
 73
   131
 74
   128
  0
VERTEX
  8
RK-DRAIN
 10
0.0
 20
0.0
 30
0.0
 70
   128
 71
   130
 72
   132
 73
   133
 74
   131
  0
VERTEX
  8
RK-DRAIN
 10
0.0
 20
0.0
 30
0.0
 70
   128
 71
   132
 72
   134
 73
   135
 74
   133
  0
VERTEX
  8
RK-DRAIN
 10
0.0
 20
0.0
 30
0.0
 70
   128
 71
   134
 72
   136
 73
   137
 74
   135
  0
VERTEX
  8
RK-DRAIN
 10
0.0
 20
0.0
 30
0.0
 70
   128
 71
   136
 72
   138
 73
   139
 74
   137
  0
VERTEX
  8
RK-DRAIN
 10
0.0
 20
0.0
 30
0.0
 70
   128
 71
   138
 72
   140
 73
   141
 74
   139
  0
VERTEX
  8
RK-DRAIN
 10
0.0
 20
0.0
 30
0.0
 70
   128
 71
   140
 72
   142
 73
   143
 74
   141
  0
VERTEX
  8
RK-DRAIN
 10
0.0
 20
0.0
 30
0.0
 70
   128
 71
   142
 72
   144
 73
   145
 74
   143
  0
VERTEX
  8
RK-DRAIN
 10
0.0
 20
0.0
 30
0.0
 70
   128
 71
   144
 72
   146
 73
   147
 74
   145
  0
VERTEX
  8
RK-DRAIN
 10
0.0
 20
0.0
 30
0.0
 70
   128
 71
   146
 72
   148
 73
   149
 74
   147
  0
VERTEX
  8
RK-DRAIN
 10
0.0
 20
0.0
 30
0.0
 70
   128
 71
   148
 72
   150
 73
   151
 74
   149
  0
VERTEX
  8
RK-DRAIN
 10
0.0
 20
0.0
 30
0.0
 70
   128
 71
   150
 72
   152
 73
   153
 74
   151
  0
VERTEX
  8
RK-DRAIN
 10
0.0
 20
0.0
 30
0.0
 70
   128
 71
   152
 72
   154
 73
   155
 74
   153
  0
VERTEX
  8
RK-DRAIN
 10
0.0
 20
0.0
 30
0.0
 70
   128
 71
   154
 72
   156
 73
   157
 74
   155
  0
VERTEX
  8
RK-DRAIN
 10
0.0
 20
0.0
 30
0.0
 70
   128
 71
   156
 72
   158
 73
   159
 74
   157
  0
VERTEX
  8
RK-DRAIN
 10
0.0
 20
0.0
 30
0.0
 70
   128
 71
   158
 72
   160
 73
   161
 74
   159
  0
VERTEX
  8
RK-DRAIN
 10
0.0
 20
0.0
 30
0.0
 70
   128
 71
   160
 72
   162
 73
   163
 74
   161
  0
VERTEX
  8
RK-DRAIN
 10
0.0
 20
0.0
 30
0.0
 70
   128
 71
   162
 72
   164
 73
   165
 74
   163
  0
VERTEX
  8
RK-DRAIN
 10
0.0
 20
0.0
 30
0.0
 70
   128
 71
   164
 72
   166
 73
   167
 74
   165
  0
VERTEX
  8
RK-DRAIN
 10
0.0
 20
0.0
 30
0.0
 70
   128
 71
   166
 72
   168
 73
   169
 74
   167
  0
VERTEX
  8
RK-DRAIN
 10
0.0
 20
0.0
 30
0.0
 70
   128
 71
   168
 72
   170
 73
   171
 74
   169
  0
VERTEX
  8
RK-DRAIN
 10
0.0
 20
0.0
 30
0.0
 70
   128
 71
   170
 72
   172
 73
   173
 74
   171
  0
VERTEX
  8
RK-DRAIN
 10
0.0
 20
0.0
 30
0.0
 70
   128
 71
   172
 72
   174
 73
   175
 74
   173
  0
VERTEX
  8
RK-DRAIN
 10
0.0
 20
0.0
 30
0.0
 70
   128
 71
   174
 72
   129
 73
   128
 74
   175
  0
VERTEX
  8
RK-DRAIN
 10
0.0
 20
0.0
 30
0.0
 70
   128
 71
     4
 72
   -10
 73
   132
 74
  -130
  0
VERTEX
  8
RK-DRAIN
 10
0.0
 20
0.0
 30
0.0
 70
   128
 71
    10
 72
   -14
 73
   134
 74
  -132
  0
VERTEX
  8
RK-DRAIN
 10
0.0
 20
0.0
 30
0.0
 70
   128
 71
    14
 72
   -18
 73
   136
 74
  -134
  0
VERTEX
  8
RK-DRAIN
 10
0.0
 20
0.0
 30
0.0
 70
   128
 71
    18
 72
   -22
 73
   138
 74
  -136
  0
VERTEX
  8
RK-DRAIN
 10
0.0
 20
0.0
 30
0.0
 70
   128
 71
    78
 72
   -82
 73
   168
 74
  -166
  0
VERTEX
  8
RK-DRAIN
 10
0.0
 20
0.0
 30
0.0
 70
   128
 71
    82
 72
   -86
 73
   170
 74
  -168
  0
VERTEX
  8
RK-DRAIN
 10
0.0
 20
0.0
 30
0.0
 70
   128
 71
    86
 72
   -90
 73
   172
 74
  -170
  0
VERTEX
  8
RK-DRAIN
 10
0.0
 20
0.0
 30
0.0
 70
   128
 71
    90
 72
   -94
 73
   174
 74
  -172
  0
VERTEX
  8
RK-DRAIN
 10
0.0
 20
0.0
 30
0.0
 70
   128
 71
    54
 72
   -58
 73
   156
 74
  -154
  0
VERTEX
  8
RK-DRAIN
 10
0.0
 20
0.0
 30
0.0
 70
   128
 71
    58
 72
   -62
 73
   158
 74
  -156
  0
VERTEX
  8
RK-DRAIN
 10
0.0
 20
0.0
 30
0.0
 70
   128
 71
    70
 72
   -74
 73
   164
 74
  -162
  0
VERTEX
  8
RK-DRAIN
 10
0.0
 20
0.0
 30
0.0
 70
   128
 71
    74
 72
   -78
 73
   166
 74
  -164
  0
VERTEX
  8
RK-DRAIN
 10
0.0
 20
0.0
 30
0.0
 70
   128
 71
    66
 72
   -70
 73
   162
 74
  -160
  0
VERTEX
  8
RK-DRAIN
 10
0.0
 20
0.0
 30
0.0
 70
   128
 71
    62
 72
   -66
 73
   160
 74
  -158
  0
VERTEX
  8
RK-DRAIN
 10
0.0
 20
0.0
 30
0.0
 70
   128
 71
    38
 72
   -42
 73
   148
 74
  -146
  0
VERTEX
  8
RK-DRAIN
 10
0.0
 20
0.0
 30
0.0
 70
   128
 71
    42
 72
   -46
 73
   150
 74
  -148
  0
VERTEX
  8
RK-DRAIN
 10
0.0
 20
0.0
 30
0.0
 70
   128
 71
    46
 72
   -50
 73
   152
 74
  -150
  0
VERTEX
  8
RK-DRAIN
 10
0.0
 20
0.0
 30
0.0
 70
   128
 71
    50
 72
   -54
 73
   154
 74
  -152
  0
VERTEX
  8
RK-DRAIN
 10
0.0
 20
0.0
 30
0.0
 70
   128
 71
    34
 72
   -38
 73
   146
 74
  -144
  0
VERTEX
  8
RK-DRAIN
 10
0.0
 20
0.0
 30
0.0
 70
   128
 71
    26
 72
   -30
 73
   142
 74
  -140
  0
VERTEX
  8
RK-DRAIN
 10
0.0
 20
0.0
 30
0.0
 70
   128
 71
    30
 72
   -34
 73
   144
 74
  -142
  0
VERTEX
  8
RK-DRAIN
 10
0.0
 20
0.0
 30
0.0
 70
   128
 71
    22
 72
   -26
 73
   140
 74
  -138
  0
VERTEX
  8
RK-DRAIN
 10
0.0
 20
0.0
 30
0.0
 70
   128
 71
     1
 72
    -4
 73
   130
 74
  -129
  0
VERTEX
  8
RK-DRAIN
 10
0.0
 20
0.0
 30
0.0
 70
   128
 71
    94
 72
    -1
 73
   129
 74
  -174
  0
VERTEX
  8
RK-DRAIN
 10
0.0
 20
0.0
 30
0.0
 70
   128
 71
  -176
 72
   128
 73
  -131
  0
VERTEX
  8
RK-DRAIN
 10
0.0
 20
0.0
 30
0.0
 70
   128
 71
  -176
 72
   131
 73
  -133
  0
VERTEX
  8
RK-DRAIN
 10
0.0
 20
0.0
 30
0.0
 70
   128
 71
  -176
 72
   133
 73
  -135
  0
VERTEX
  8
RK-DRAIN
 10
0.0
 20
0.0
 30
0.0
 70
   128
 71
  -176
 72
   135
 73
  -137
  0
VERTEX
  8
RK-DRAIN
 10
0.0
 20
0.0
 30
0.0
 70
   128
 71
  -176
 72
   137
 73
  -139
  0
VERTEX
  8
RK-DRAIN
 10
0.0
 20
0.0
 30
0.0
 70
   128
 71
  -176
 72
   167
 73
  -169
  0
VERTEX
  8
RK-DRAIN
 10
0.0
 20
0.0
 30
0.0
 70
   128
 71
  -176
 72
   169
 73
  -171
  0
VERTEX
  8
RK-DRAIN
 10
0.0
 20
0.0
 30
0.0
 70
   128
 71
  -176
 72
   171
 73
  -173
  0
VERTEX
  8
RK-DRAIN
 10
0.0
 20
0.0
 30
0.0
 70
   128
 71
  -176
 72
   173
 73
  -175
  0
VERTEX
  8
RK-DRAIN
 10
0.0
 20
0.0
 30
0.0
 70
   128
 71
  -176
 72
   175
 73
  -128
  0
VERTEX
  8
RK-DRAIN
 10
0.0
 20
0.0
 30
0.0
 70
   128
 71
  -176
 72
   155
 73
  -157
  0
VERTEX
  8
RK-DRAIN
 10
0.0
 20
0.0
 30
0.0
 70
   128
 71
  -176
 72
   157
 73
  -159
  0
VERTEX
  8
RK-DRAIN
 10
0.0
 20
0.0
 30
0.0
 70
   128
 71
  -176
 72
   159
 73
  -161
  0
VERTEX
  8
RK-DRAIN
 10
0.0
 20
0.0
 30
0.0
 70
   128
 71
  -176
 72
   161
 73
  -163
  0
VERTEX
  8
RK-DRAIN
 10
0.0
 20
0.0
 30
0.0
 70
   128
 71
  -176
 72
   163
 73
  -165
  0
VERTEX
  8
RK-DRAIN
 10
0.0
 20
0.0
 30
0.0
 70
   128
 71
  -176
 72
   165
 73
  -167
  0
VERTEX
  8
RK-DRAIN
 10
0.0
 20
0.0
 30
0.0
 70
   128
 71
  -176
 72
   147
 73
  -149
  0
VERTEX
  8
RK-DRAIN
 10
0.0
 20
0.0
 30
0.0
 70
   128
 71
  -176
 72
   149
 73
  -151
  0
VERTEX
  8
RK-DRAIN
 10
0.0
 20
0.0
 30
0.0
 70
   128
 71
  -176
 72
   151
 73
  -153
  0
VERTEX
  8
RK-DRAIN
 10
0.0
 20
0.0
 30
0.0
 70
   128
 71
  -176
 72
   153
 73
  -155
  0
VERTEX
  8
RK-DRAIN
 10
0.0
 20
0.0
 30
0.0
 70
   128
 71
  -176
 72
   139
 73
  -141
  0
VERTEX
  8
RK-DRAIN
 10
0.0
 20
0.0
 30
0.0
 70
   128
 71
  -176
 72
   141
 73
  -143
  0
VERTEX
  8
RK-DRAIN
 10
0.0
 20
0.0
 30
0.0
 70
   128
 71
  -176
 72
   143
 73
  -145
  0
VERTEX
  8
RK-DRAIN
 10
0.0
 20
0.0
 30
0.0
 70
   128
 71
  -176
 72
   145
 73
  -147
  0
VERTEX
  8
RK-DRAIN
 10
0.0
 20
0.0
 30
0.0
 70
   128
 71
   125
 72
  -177
 73
    43
 74
   -39
  0
VERTEX
  8
RK-DRAIN
 10
0.0
 20
0.0
 30
0.0
 70
   128
 71
   127
 72
   178
 73
   177
 74
   125
  0
VERTEX
  8
RK-DRAIN
 10
0.0
 20
0.0
 30
0.0
 70
   128
 71
   177
 72
  -179
 73
    47
 74
   -43
  0
VERTEX
  8
RK-DRAIN
 10
0.0
 20
0.0
 30
0.0
 70
   128
 71
   179
 72
  -180
 73
    51
 74
   -47
  0
VERTEX
  8
RK-DRAIN
 10
0.0
 20
0.0
 30
0.0
 70
   128
 71
   180
 72
   -97
 73
    55
 74
   -51
  0
VERTEX
  8
RK-DRAIN
 10
0.0
 20
0.0
 30
0.0
 70
   128
 71
   181
 72
   182
 73
   180
 74
   179
  0
VERTEX
  8
RK-DRAIN
 10
0.0
 20
0.0
 30
0.0
 70
   128
 71
   182
 72
    99
 73
    97
 74
   180
  0
VERTEX
  8
RK-DRAIN
 10
0.0
 20
0.0
 30
0.0
 70
   128
 71
   178
 72
   181
 73
   179
 74
   177
  0
VERTEX
  8
RK-DRAIN
 10
0.0
 20
0.0
 30
0.0
 70
   128
 71
   122
 72
   183
 73
   184
 74
   120
  0
VERTEX
  8
RK-DRAIN
 10
0.0
 20
0.0
 30
0.0
 70
   128
 71
   183
 72
   185
 73
   123
 74
   184
  0
VERTEX
  8
RK-DRAIN
 10
0.0
 20
0.0
 30
0.0
 70
   128
 71
   185
 72
   126
 73
   124
 74
   123
  0
VERTEX
  8
RK-DRAIN
 10
0.0
 20
0.0
 30
0.0
 70
   128
 71
   184
 72
  -123
 73
    31
 74
   -27
  0
VERTEX
  8
RK-DRAIN
 10
0.0
 20
0.0
 30
0.0
 70
   128
 71
   120
 72
  -184
 73
    27
 74
   -23
  0
VERTEX
  8
RK-DRAIN
 10
0.0
 20
0.0
 30
0.0
 70
   128
 71
   186
 72
  -119
 73
    19
 74
   -15
  0
VERTEX
  8
RK-DRAIN
 10
0.0
 20
0.0
 30
0.0
 70
   128
 71
   187
 72
   121
 73
   119
 74
   186
  0
VERTEX
  8
RK-DRAIN
 10
0.0
 20
0.0
 30
0.0
 70
   128
 71
   188
 72
  -189
 73
     7
 74
    -6
  0
VERTEX
  8
RK-DRAIN
 10
0.0
 20
0.0
 30
0.0
 70
   128
 71
   190
 72
   191
 73
   189
 74
   188
  0
VERTEX
  8
RK-DRAIN
 10
0.0
 20
0.0
 30
0.0
 70
   128
 71
   106
 72
   190
 73
   188
 74
   104
  0
VERTEX
  8
RK-DRAIN
 10
0.0
 20
0.0
 30
0.0
 70
   128
 71
   104
 72
  -188
 73
     6
 74
   -95
  0
VERTEX
  8
RK-DRAIN
 10
0.0
 20
0.0
 30
0.0
 70
   128
 71
   191
 72
   192
 73
   193
 74
   189
  0
VERTEX
  8
RK-DRAIN
 10
0.0
 20
0.0
 30
0.0
 70
   128
 71
   192
 72
   187
 73
   186
 74
   193
  0
VERTEX
  8
RK-DRAIN
 10
0.0
 20
0.0
 30
0.0
 70
   128
 71
   189
 72
  -193
 73
    11
 74
    -7
  0
VERTEX
  8
RK-DRAIN
 10
0.0
 20
0.0
 30
0.0
 70
   128
 71
   193
 72
  -186
 73
    15
 74
   -11
  0
SEQEND
  8
RK-DRAIN
  0
INSERT
  8
0
  2
05832PLN
 10
0.0022418402829527
 20
-22.00251575884559
 30
8.190000000000001
  0
LINE
  8
RK-DRAIN
 10
15.499999
 20
-10.12499999999999
 30
0.75
 11
15.499999
 21
-10.25
 31
0.75
  0
ENDSEC
  0
EOF
