  0
SECTION
  2
HEADER
  9
$ACADVER
  1
AC1009
  9
$INSBASE
 10
0.0
 20
0.0
 30
0.0
  9
$EXTMIN
 10
-15.810138
 20
-11.284491
 30
0.0
  9
$EXTMAX
 10
15.747084
 20
11.266531
 30
0.0
  9
$LIMMIN
 10
0.0
 20
0.0
  9
$LIMMAX
 10
12.0
 20
9.0
  9
$ORTHOMODE
 70
     1
  9
$REGENMODE
 70
     1
  9
$FILLMODE
 70
     1
  9
$QTEXTMODE
 70
     0
  9
$MIRRTEXT
 70
     1
  9
$DRAGMODE
 70
     2
  9
$LTSCALE
 40
1.0
  9
$OSMODE
 70
     0
  9
$ATTMODE
 70
     1
  9
$TEXTSIZE
 40
0.001
  9
$TRACEWID
 40
0.05
  9
$TEXTSTYLE
  7
STANDARD
  9
$CLAYER
  8
0
  9
$CELTYPE
  6
BYLAYER
  9
$CECOLOR
 62
     7
  9
$DIMSCALE
 40
1.0
  9
$DIMASZ
 40
0.18
  9
$DIMEXO
 40
0.0625
  9
$DIMDLI
 40
0.38
  9
$DIMRND
 40
0.0
  9
$DIMDLE
 40
0.0
  9
$DIMEXE
 40
0.18
  9
$DIMTP
 40
0.0
  9
$DIMTM
 40
0.0
  9
$DIMTXT
 40
0.18
  9
$DIMCEN
 40
0.09
  9
$DIMTSZ
 40
0.0
  9
$DIMTOL
 70
     0
  9
$DIMLIM
 70
     0
  9
$DIMTIH
 70
     1
  9
$DIMTOH
 70
     1
  9
$DIMSE1
 70
     0
  9
$DIMSE2
 70
     0
  9
$DIMTAD
 70
     0
  9
$DIMZIN
 70
     0
  9
$DIMBLK
  1

  9
$DIMASO
 70
     1
  9
$DIMSHO
 70
     1
  9
$DIMPOST
  1

  9
$DIMAPOST
  1

  9
$DIMALT
 70
     0
  9
$DIMALTD
 70
     2
  9
$DIMALTF
 40
25.4
  9
$DIMLFAC
 40
1.0
  9
$DIMTOFL
 70
     0
  9
$DIMTVP
 40
0.0
  9
$DIMTIX
 70
     0
  9
$DIMSOXD
 70
     0
  9
$DIMSAH
 70
     0
  9
$DIMBLK1
  1

  9
$DIMBLK2
  1

  9
$DIMSTYLE
  2
*UNNAMED
  9
$DIMCLRD
 70
     0
  9
$DIMCLRE
 70
     0
  9
$DIMCLRT
 70
     0
  9
$DIMTFAC
 40
1.0
  9
$DIMGAP
 40
0.09
  9
$LUNITS
 70
     2
  9
$LUPREC
 70
     4
  9
$SKETCHINC
 40
0.1
  9
$FILLETRAD
 40
0.5
  9
$AUNITS
 70
     0
  9
$AUPREC
 70
     0
  9
$MENU
  1
acad
  9
$ELEVATION
 40
0.0
  9
$PELEVATION
 40
0.0
  9
$THICKNESS
 40
0.0
  9
$LIMCHECK
 70
     0
  9
$BLIPMODE
 70
     0
  9
$CHAMFERA
 40
0.5
  9
$CHAMFERB
 40
0.5
  9
$SKPOLY
 70
     0
  9
$TDCREATE
 40
2450946.795240972
  9
$TDUPDATE
 40
2450947.325142361
  9
$TDINDWG
 40
0.0001348380
  9
$TDUSRTIMER
 40
0.0001348380
  9
$USRTIMER
 70
     1
  9
$ANGBASE
 50
0.0
  9
$ANGDIR
 70
     0
  9
$PDMODE
 70
     0
  9
$PDSIZE
 40
0.0
  9
$PLINEWID
 40
0.0
  9
$COORDS
 70
     1
  9
$SPLFRAME
 70
     0
  9
$SPLINETYPE
 70
     6
  9
$SPLINESEGS
 70
     8
  9
$ATTDIA
 70
     0
  9
$ATTREQ
 70
     1
  9
$HANDLING
 70
     1
  9
$HANDSEED
  5
A4E7
  9
$SURFTAB1
 70
     6
  9
$SURFTAB2
 70
     6
  9
$SURFTYPE
 70
     6
  9
$SURFU
 70
     6
  9
$SURFV
 70
     6
  9
$UCSNAME
  2

  9
$UCSORG
 10
0.0
 20
0.0
 30
0.0
  9
$UCSXDIR
 10
1.0
 20
0.0
 30
0.0
  9
$UCSYDIR
 10
0.0
 20
1.0
 30
0.0
  9
$PUCSNAME
  2

  9
$PUCSORG
 10
0.0
 20
0.0
 30
0.0
  9
$PUCSXDIR
 10
1.0
 20
0.0
 30
0.0
  9
$PUCSYDIR
 10
0.0
 20
1.0
 30
0.0
  9
$USERI1
 70
     0
  9
$USERI2
 70
     0
  9
$USERI3
 70
     0
  9
$USERI4
 70
     0
  9
$USERI5
 70
     0
  9
$USERR1
 40
0.0
  9
$USERR2
 40
0.0
  9
$USERR3
 40
0.0
  9
$USERR4
 40
0.0
  9
$USERR5
 40
0.0
  9
$WORLDVIEW
 70
     1
  9
$SHADEDGE
 70
     3
  9
$SHADEDIF
 70
    70
  9
$TILEMODE
 70
     1
  9
$MAXACTVP
 70
    16
  9
$PINSBASE
 10
0.0
 20
0.0
 30
0.0
  9
$PLIMCHECK
 70
     0
  9
$PEXTMIN
 10
1.000000E+20
 20
1.000000E+20
 30
1.000000E+20
  9
$PEXTMAX
 10
-1.000000E+20
 20
-1.000000E+20
 30
-1.000000E+20
  9
$PLIMMIN
 10
0.0
 20
0.0
  9
$PLIMMAX
 10
12.0
 20
9.0
  9
$UNITMODE
 70
     0
  9
$VISRETAIN
 70
     1
  9
$PLINEGEN
 70
     0
  9
$PSLTSCALE
 70
     1
  9
$TREEDEPTH
 70
  3020
  9
$DWGCODEPAGE
  3
dummy
  0
ENDSEC
  0
SECTION
  2
TABLES
  0
TABLE
  2
VPORT
 70
     2
  0
VPORT
  2
*ACTIVE
 70
     0
 10
0.0
 20
0.0
 11
1.0
 21
1.0
 12
2.347632
 22
0.211971
 13
0.0
 23
0.0
 14
0.5
 24
0.5
 15
0.5
 25
0.5
 16
0.0
 26
0.0
 36
1.0
 17
0.0
 27
0.0
 37
0.0
 40
24.927633
 41
1.573846
 42
50.0
 43
0.0
 44
0.0
 50
0.0
 51
0.0
 71
     0
 72
   100
 73
     1
 74
     1
 75
     0
 76
     0
 77
     0
 78
     0
  0
ENDTAB
  0
TABLE
  2
LTYPE
 70
     1
  0
LTYPE
  2
CONTINUOUS
 70
    64
  3
Solid line
 72
    65
 73
     0
 40
0.0
  0
ENDTAB
  0
TABLE
  2
LAYER
 70
     1
  0
LAYER
  2
0
 70
    64
 62
     7
  6
CONTINUOUS
  0
ENDTAB
  0
TABLE
  2
STYLE
 70
     1
  0
STYLE
  2
STANDARD
 70
    64
 40
0.0
 41
1.0
 50
0.0
 71
     0
 42
0.001
  3
txt
  4

  0
ENDTAB
  0
TABLE
  2
VIEW
 70
     0
  0
ENDTAB
  0
TABLE
  2
UCS
 70
     0
  0
ENDTAB
  0
TABLE
  2
APPID
 70
     1
  0
APPID
  2
ACAD
 70
    64
  0
ENDTAB
  0
TABLE
  2
DIMSTYLE
 70
     0
  0
ENDTAB
  0
ENDSEC
  0
SECTION
  2
BLOCKS
  0
ENDSEC
  0
SECTION
  2
ENTITIES
  0
LINE
  8
0
 62
     7
  5
A4C6
 10
10.455457
 20
-8.170328
 30
0.0
 11
-10.62941
 21
-8.170328
 31
0.0
  0
LINE
  8
0
 62
     7
  5
A4CE
 10
11.336972
 20
-8.789548
 30
0.0
 11
-11.510924
 21
-8.789548
 31
0.0
  0
LINE
  8
0
 62
     7
  5
A4D6
 10
11.336972
 20
-9.551666
 30
0.0
 11
-11.653872
 21
-9.551666
 31
0.0
  0
LINE
  8
0
 62
     7
  5
A4DE
 10
14.121238
 20
-11.005464
 30
0.0
 11
-14.233133
 21
-11.005464
 31
0.0
  0
LINE
  8
0
 62
     7
  5
A4DA
 10
-14.267669
 20
11.001813
 30
0.0
 11
14.29392
 21
11.001813
 31
0.0
  0
LINE
  8
0
 62
     7
  5
A4D2
 10
-11.487099
 20
6.574256
 30
0.0
 11
11.313147
 21
6.574256
 31
0.0
  0
LINE
  8
0
 62
     7
  5
A4CA
 10
-11.582398
 20
5.812138
 30
0.0
 11
11.408446
 21
5.812138
 31
0.0
  0
LINE
  8
0
 62
     7
  5
A4C2
 10
-10.62941
 20
5.192918
 30
0.0
 11
10.62223
 21
5.192918
 31
0.0
  0
CIRCLE
  8
0
 62
     7
  5
A46B
 10
-0.065
 20
-1.505289
 30
0.0
 40
2.697932
  0
LINE
  8
0
 62
     7
  5
A4C8
 10
-12.964231
 20
-5.78871
 30
0.0
 11
-12.964231
 21
3.001829
 31
0.0
  0
LINE
  8
0
 62
     7
  5
A4D0
 10
-13.607499
 20
-6.622276
 30
0.0
 11
-13.607499
 21
3.763947
 31
0.0
  0
LINE
  8
0
 62
     7
  5
A4D8
 10
-14.369889
 20
-6.646092
 30
0.0
 11
-14.369889
 21
3.763947
 31
0.0
  0
LINE
  8
0
 62
     7
  5
A4E0
 10
-15.545516
 20
-9.728075
 30
0.0
 11
-15.545516
 21
9.724424
 31
0.0
  0
ARC
  8
0
 62
     7
  5
A4CF
 10
-11.510924
 20
-6.69182
 30
0.0
 40
2.097728
 50
178.100174
 51
270.0
  0
ARC
  8
0
 62
     7
  5
A4D7
 10
-11.653872
 20
-6.829466
 30
0.0
 40
2.7222
 50
176.137499
 51
270.0
  0
ARC
  8
0
 62
     7
  5
A4DF
 10
-14.233133
 20
-9.692602
 30
0.0
 40
1.312862
 50
181.548306
 51
270.0
  0
ARC
  8
0
 62
     7
  5
A4C7
 10
-10.62941
 20
-5.835046
 30
0.0
 40
2.335281
 50
178.863062
 51
270.0
  0
ARC
  8
0
 62
     7
  5
A4D9
 10
-11.558669
 20
3.763947
 30
0.0
 40
2.811221
 50
88.541175
 51
180.0
  0
ARC
  8
0
 62
     7
  5
A4D1
 10
-11.559176
 20
3.763947
 30
0.0
 40
2.048323
 50
90.649606
 51
180.0
  0
ARC
  8
0
 62
     7
  5
A4E1
 10
-14.268127
 20
9.724424
 30
0.0
 40
1.277389
 50
89.979469
 51
180.0
  0
ARC
  8
0
 62
     7
  5
A4C9
 10
-10.768718
 20
3.001829
 30
0.0
 40
2.195513
 50
86.362047
 51
180.0
  0
LINE
  8
0
 62
     7
  5
A46D
 10
-4.050283
 20
8.568423
 30
0.0
 11
-4.050283
 21
8.568423
 31
0.0
  0
LINE
  8
0
 62
     7
  5
A4CC
 10
13.50502
 20
3.692498
 30
0.0
 11
13.50502
 21
-6.59846
 31
0.0
  0
LINE
  8
0
 62
     7
  5
A4D4
 10
14.267411
 20
3.692498
 30
0.0
 11
14.267411
 21
-6.646092
 31
0.0
  0
LINE
  8
0
 62
     7
  5
A4DC
 10
15.468157
 20
9.758948
 30
0.0
 11
15.468157
 21
-9.659027
 31
0.0
  0
ARC
  8
0
 62
     7
  5
A4C3
 10
10.62223
 20
2.972937
 30
0.0
 40
2.219981
 50
356.440651
 51
90.0
  0
CIRCLE
  8
0
 62
     7
  5
A46A
 10
-0.065
 20
-1.505289
 30
0.0
 40
1.815706
  0
LINE
  8
0
 62
     7
  5
A4C4
 10
12.837928
 20
2.835116
 30
0.0
 11
12.837928
 21
-5.860158
 31
0.0
  0
ARC
  8
0
 62
     7
  5
A4D5
 10
11.361732
 20
-6.646092
 30
0.0
 40
2.905679
 50
269.511757
 51
0.0
  0
ARC
  8
0
 62
     7
  5
A4DD
 10
14.12172
 20
-9.659027
 30
0.0
 40
1.346437
 50
269.979505
 51
0.0
  0
ARC
  8
0
 62
     7
  5
A4C5
 10
10.526662
 20
-5.860158
 30
0.0
 40
2.311266
 50
268.234579
 51
360.0
  0
ARC
  8
0
 62
     7
  5
A4CD
 10
11.31381
 20
-6.59846
 30
0.0
 40
2.19121
 50
270.605635
 51
0.0
  0
LINE
  8
0
 62
     7
  5
A46F
 10
0.022031
 20
8.580685
 30
0.0
 11
0.022031
 21
8.580685
 31
0.0
  0
LINE
  8
0
 62
     7
  5
A471
 10
4.020748
 20
8.568424
 30
0.0
 11
4.020748
 21
8.568424
 31
0.0
  0
LINE
  8
0
 62
     7
  5
A473
 10
7.945869
 20
8.568424
 30
0.0
 11
7.945869
 21
8.568424
 31
0.0
  0
ARC
  8
0
 62
     7
  5
A4DB
 10
14.29392
 20
9.825681
 30
0.0
 40
1.176132
 50
356.747325
 51
90.0
  0
ARC
  8
0
 62
     7
  5
A4D3
 10
11.313147
 20
3.61908
 30
0.0
 40
2.955176
 50
1.423601
 51
90.0
  0
ARC
  8
0
 62
     7
  5
A4CB
 10
11.408446
 20
3.715438
 30
0.0
 40
2.0967
 50
359.373125
 51
90.0
  0
ATTDEF
  8
0
 62
     7
  5
A4E3
 10
0.0
 20
0.0
 30
0.0
 40
0.001
  1
K-5832-4
  3

  2
MODELNUMBER
 70
     8
  0
ATTDEF
  8
0
 62
     7
  5
A4E4
 10
0.0
 20
-0.0017
 30
0.0
 40
0.001
  1
BAKERSFIELD
  3

  2
TRADENAME
 70
     8
  0
ATTDEF
  8
0
 62
     7
  5
A4E5
 10
0.0
 20
-0.0034
 30
0.0
 40
0.001
  1
SINKS
  3

  2
PRODUCT
 70
     8
  0
ATTDEF
  8
0
 62
     7
  5
A4E6
 10
0.0
 20
-0.0051
 30
0.0
 40
0.001
  1
CAST IRON
  3

  2
MATERIAL
 70
     8
  0
ENDSEC
  0
EOF
