  0
SECTION
  2
HEADER
  9
$ACADVER
  1
AC1009
  9
$INSBASE
 10
0.0
 20
0.0
 30
0.0
  9
$EXTMIN
 10
-11.104142
 20
-8.127394
 30
0.0
  9
$EXTMAX
 10
11.095179
 20
0.67944
 30
0.0
  9
$LIMMIN
 10
0.0
 20
0.0
  9
$LIMMAX
 10
12.0
 20
9.0
  9
$ORTHOMODE
 70
     0
  9
$REGENMODE
 70
     1
  9
$FILLMODE
 70
     1
  9
$QTEXTMODE
 70
     0
  9
$MIRRTEXT
 70
     1
  9
$DRAGMODE
 70
     2
  9
$LTSCALE
 40
1.0
  9
$OSMODE
 70
     0
  9
$ATTMODE
 70
     1
  9
$TEXTSIZE
 40
0.001
  9
$TRACEWID
 40
0.05
  9
$TEXTSTYLE
  7
STANDARD
  9
$CLAYER
  8
0
  9
$CELTYPE
  6
BYLAYER
  9
$CECOLOR
 62
     7
  9
$DIMSCALE
 40
1.0
  9
$DIMASZ
 40
0.18
  9
$DIMEXO
 40
0.0625
  9
$DIMDLI
 40
0.38
  9
$DIMRND
 40
0.0
  9
$DIMDLE
 40
0.0
  9
$DIMEXE
 40
0.18
  9
$DIMTP
 40
0.0
  9
$DIMTM
 40
0.0
  9
$DIMTXT
 40
0.18
  9
$DIMCEN
 40
0.09
  9
$DIMTSZ
 40
0.0
  9
$DIMTOL
 70
     0
  9
$DIMLIM
 70
     0
  9
$DIMTIH
 70
     1
  9
$DIMTOH
 70
     1
  9
$DIMSE1
 70
     0
  9
$DIMSE2
 70
     0
  9
$DIMTAD
 70
     0
  9
$DIMZIN
 70
     0
  9
$DIMBLK
  1

  9
$DIMASO
 70
     1
  9
$DIMSHO
 70
     1
  9
$DIMPOST
  1

  9
$DIMAPOST
  1

  9
$DIMALT
 70
     0
  9
$DIMALTD
 70
     2
  9
$DIMALTF
 40
25.4
  9
$DIMLFAC
 40
1.0
  9
$DIMTOFL
 70
     0
  9
$DIMTVP
 40
0.0
  9
$DIMTIX
 70
     0
  9
$DIMSOXD
 70
     0
  9
$DIMSAH
 70
     0
  9
$DIMBLK1
  1

  9
$DIMBLK2
  1

  9
$DIMSTYLE
  2
*UNNAMED
  9
$DIMCLRD
 70
     0
  9
$DIMCLRE
 70
     0
  9
$DIMCLRT
 70
     0
  9
$DIMTFAC
 40
1.0
  9
$DIMGAP
 40
0.09
  9
$LUNITS
 70
     2
  9
$LUPREC
 70
     4
  9
$SKETCHINC
 40
0.1
  9
$FILLETRAD
 40
0.5
  9
$AUNITS
 70
     0
  9
$AUPREC
 70
     0
  9
$MENU
  1
acad
  9
$ELEVATION
 40
0.0
  9
$PELEVATION
 40
0.0
  9
$THICKNESS
 40
0.0
  9
$LIMCHECK
 70
     0
  9
$BLIPMODE
 70
     0
  9
$CHAMFERA
 40
0.5
  9
$CHAMFERB
 40
0.5
  9
$SKPOLY
 70
     0
  9
$TDCREATE
 40
2450946.794642824
  9
$TDUPDATE
 40
2450947.421366782
  9
$TDINDWG
 40
0.0033037037
  9
$TDUSRTIMER
 40
0.0033037037
  9
$USRTIMER
 70
     1
  9
$ANGBASE
 50
0.0
  9
$ANGDIR
 70
     0
  9
$PDMODE
 70
     0
  9
$PDSIZE
 40
0.0
  9
$PLINEWID
 40
0.0
  9
$COORDS
 70
     1
  9
$SPLFRAME
 70
     0
  9
$SPLINETYPE
 70
     6
  9
$SPLINESEGS
 70
     8
  9
$ATTDIA
 70
     0
  9
$ATTREQ
 70
     1
  9
$HANDLING
 70
     1
  9
$HANDSEED
  5
A4E8
  9
$SURFTAB1
 70
     6
  9
$SURFTAB2
 70
     6
  9
$SURFTYPE
 70
     6
  9
$SURFU
 70
     6
  9
$SURFV
 70
     6
  9
$UCSNAME
  2

  9
$UCSORG
 10
0.0
 20
0.0
 30
0.0
  9
$UCSXDIR
 10
1.0
 20
0.0
 30
0.0
  9
$UCSYDIR
 10
0.0
 20
1.0
 30
0.0
  9
$PUCSNAME
  2

  9
$PUCSORG
 10
0.0
 20
0.0
 30
0.0
  9
$PUCSXDIR
 10
1.0
 20
0.0
 30
0.0
  9
$PUCSYDIR
 10
0.0
 20
1.0
 30
0.0
  9
$USERI1
 70
     0
  9
$USERI2
 70
     0
  9
$USERI3
 70
     0
  9
$USERI4
 70
     0
  9
$USERI5
 70
     0
  9
$USERR1
 40
0.0
  9
$USERR2
 40
0.0
  9
$USERR3
 40
0.0
  9
$USERR4
 40
0.0
  9
$USERR5
 40
0.0
  9
$WORLDVIEW
 70
     1
  9
$SHADEDGE
 70
     3
  9
$SHADEDIF
 70
    70
  9
$TILEMODE
 70
     1
  9
$MAXACTVP
 70
    16
  9
$PINSBASE
 10
0.0
 20
0.0
 30
0.0
  9
$PLIMCHECK
 70
     0
  9
$PEXTMIN
 10
1.000000E+20
 20
1.000000E+20
 30
1.000000E+20
  9
$PEXTMAX
 10
-1.000000E+20
 20
-1.000000E+20
 30
-1.000000E+20
  9
$PLIMMIN
 10
0.0
 20
0.0
  9
$PLIMMAX
 10
12.0
 20
9.0
  9
$UNITMODE
 70
     0
  9
$VISRETAIN
 70
     1
  9
$PLINEGEN
 70
     0
  9
$PSLTSCALE
 70
     1
  9
$TREEDEPTH
 70
  3020
  9
$DWGCODEPAGE
  3
dummy
  0
ENDSEC
  0
SECTION
  2
TABLES
  0
TABLE
  2
VPORT
 70
     2
  0
VPORT
  2
*ACTIVE
 70
     0
 10
0.0
 20
0.0
 11
1.0
 21
1.0
 12
0.0
 22
-1.052037
 13
0.0
 23
0.0
 14
0.5
 24
0.5
 15
0.5
 25
0.5
 16
0.0
 26
0.0
 36
1.0
 17
0.0
 27
0.0
 37
0.0
 40
15.533903
 41
1.573846
 42
50.0
 43
0.0
 44
0.0
 50
0.0
 51
0.0
 71
     0
 72
   100
 73
     1
 74
     1
 75
     0
 76
     0
 77
     0
 78
     0
  0
ENDTAB
  0
TABLE
  2
LTYPE
 70
     2
  0
LTYPE
  2
CONTINUOUS
 70
    64
  3
Solid line
 72
    65
 73
     0
 40
0.0
  0
LTYPE
  2
HIDDEN
 70
    64
  3
__ __ __ __ __ __ __ __ __ __ __ __ __ __ __ __
 72
    65
 73
     2
 40
0.375
 49
0.25
 49
-0.125
  0
ENDTAB
  0
TABLE
  2
LAYER
 70
     1
  0
LAYER
  2
0
 70
    64
 62
     7
  6
CONTINUOUS
  0
ENDTAB
  0
TABLE
  2
STYLE
 70
     1
  0
STYLE
  2
STANDARD
 70
    64
 40
0.0
 41
1.0
 50
0.0
 71
     0
 42
0.001
  3
txt
  4

  0
ENDTAB
  0
TABLE
  2
VIEW
 70
     0
  0
ENDTAB
  0
TABLE
  2
UCS
 70
     0
  0
ENDTAB
  0
TABLE
  2
APPID
 70
     1
  0
APPID
  2
ACAD
 70
    64
  0
ENDTAB
  0
TABLE
  2
DIMSTYLE
 70
     0
  0
ENDTAB
  0
ENDSEC
  0
SECTION
  2
BLOCKS
  0
ENDSEC
  0
SECTION
  2
ENTITIES
  0
LINE
  8
0
  6
HIDDEN
 62
     7
  5
A4B0
 10
-3.746729
 20
-8.127394
 30
0.0
 11
0.798313
 21
-8.127394
 31
0.0
  0
LINE
  8
0
 62
     7
  5
A4B1
 10
-10.359976
 20
0.562454
 30
0.0
 11
10.380673
 21
0.562454
 31
0.0
  0
LINE
  8
0
 62
     7
  5
A4B3
 10
11.001588
 20
0.0
 30
0.0
 11
-11.001588
 21
0.0
 31
0.0
  0
ARC
  8
0
 62
     7
  5
A4B4
 10
-10.346461
 20
-0.100145
 30
0.0
 40
0.662737
 50
91.168505
 51
171.308831
  0
ARC
  8
0
  6
HIDDEN
 62
     7
  5
A4AD
 10
-6.634252
 20
-5.832233
 30
0.0
 40
1.866587
 50
187.022232
 51
271.214293
  0
LINE
  8
0
  6
HIDDEN
 62
     7
  5
A4AE
 10
-6.594695
 20
-7.698401
 30
0.0
 11
-4.585513
 21
-7.7959
 31
0.0
  0
ARC
  8
0
  6
HIDDEN
 62
     7
  5
A4AF
 10
-4.653386
 20
-9.194583
 30
0.0
 40
1.400329
 50
49.649592
 51
87.221824
  0
LINE
  8
0
  6
HIDDEN
 62
     7
  5
A4AC
 10
-9.130556
 20
-0.86453
 30
0.0
 11
-8.486837
 21
-6.060432
 31
0.0
  0
ARC
  8
0
  6
HIDDEN
 62
     7
  5
A49D
 10
-10.281033
 20
-0.995678
 30
0.0
 40
1.160692
 50
3.781929
 51
59.073936
  0
ARC
  8
0
 62
     7
  5
A4B2
 10
10.3154
 20
-0.133557
 30
0.0
 40
0.699065
 50
11.01411
 51
84.642339
  0
ARC
  8
0
  6
HIDDEN
 62
     7
  5
A4A8
 10
3.571477
 20
-5.707122
 30
0.0
 40
2.002867
 50
271.674236
 51
353.084411
  0
LINE
  8
0
  6
HIDDEN
 62
     7
  5
A4A7
 10
1.711436
 20
-7.765212
 30
0.0
 11
3.629995
 21
-7.709134
 31
0.0
  0
ARC
  8
0
  6
HIDDEN
 62
     7
  5
A49E
 10
1.921035
 20
-9.625811
 30
0.0
 40
1.872367
 50
96.427356
 51
126.843194
  0
LINE
  8
0
  6
HIDDEN
 62
     7
  5
A4A9
 10
5.559772
 20
-5.948281
 30
0.0
 11
6.131974
 21
-1.177995
 31
0.0
  0
LINE
  8
0
  6
HIDDEN
 62
     7
  5
A4AA
 10
6.131974
 20
-1.177995
 30
0.0
 11
7.534429
 21
-0.359254
 31
0.0
  0
ARC
  8
0
  6
HIDDEN
 62
     7
  5
A4AB
 10
9.205537
 20
-3.948842
 30
0.0
 40
3.959513
 50
96.662518
 51
114.964002
  0
ATTDEF
  8
0
 62
     7
  5
A4E3
 10
0.0
 20
0.0
 30
0.0
 40
0.001
  1
K-5832-4
  3

  2
MODELNUMBER
 70
     8
  0
ATTDEF
  8
0
 62
     7
  5
A4E4
 10
0.0
 20
-0.0017
 30
0.0
 40
0.001
  1
BAKERSFIELD
  3

  2
TRADENAME
 70
     8
  0
ATTDEF
  8
0
 62
     7
  5
A4E5
 10
0.0
 20
-0.0034
 30
0.0
 40
0.001
  1
SINKS
  3

  2
PRODUCT
 70
     8
  0
ATTDEF
  8
0
 62
     7
  5
A4E6
 10
0.0
 20
-0.0051
 30
0.0
 40
0.001
  1
CAST IRON
  3

  2
MATERIAL
 70
     8
  0
ENDSEC
  0
EOF
