  0
SECTION
  2
HEADER
  9
$ACADVER
  1
AC1009
  9
$INSBASE
 10
9.6093935795128722
 20
17.367617375530781
 30
0.0
  9
$EXTMIN
 10
-6.890606472485902
 20
8.1075604754526971
 30
0.0
  9
$EXTMAX
 10
26.10939144238829
 20
17.927616798700001
 30
0.0
  9
$LIMMIN
 10
0.0
 20
0.0
  9
$LIMMAX
 10
22.0
 20
17.0
  9
$ORTHOMODE
 70
     0
  9
$REGENMODE
 70
     1
  9
$FILLMODE
 70
     1
  9
$QTEXTMODE
 70
     0
  9
$MIRRTEXT
 70
     0
  9
$DRAGMODE
 70
     2
  9
$LTSCALE
 40
1.2099999999999991
  9
$OSMODE
 70
  3071
  9
$ATTMODE
 70
     1
  9
$TEXTSIZE
 40
0.2
  9
$TRACEWID
 40
0.05
  9
$TEXTSTYLE
  7
STANDARD
  9
$CLAYER
  8
0
  9
$CELTYPE
  6
BYLAYER
  9
$CECOLOR
 62
   256
  9
$DIMSCALE
 40
1.0
  9
$DIMASZ
 40
0.1875
  9
$DIMEXO
 40
0.0625
  9
$DIMDLI
 40
0.8359999999999999
  9
$DIMRND
 40
0.0
  9
$DIMDLE
 40
0.0
  9
$DIMEXE
 40
0.125
  9
$DIMTP
 40
0.01
  9
$DIMTM
 40
0.01
  9
$DIMTXT
 40
1.0
  9
$DIMCEN
 40
0.198
  9
$DIMTSZ
 40
0.0
  9
$DIMTOL
 70
     1
  9
$DIMLIM
 70
     0
  9
$DIMTIH
 70
     1
  9
$DIMTOH
 70
     1
  9
$DIMSE1
 70
     0
  9
$DIMSE2
 70
     0
  9
$DIMTAD
 70
     0
  9
$DIMZIN
 70
     0
  9
$DIMBLK
  1

  9
$DIMASO
 70
     1
  9
$DIMSHO
 70
     1
  9
$DIMPOST
  1
\X
  9
$DIMAPOST
  1

  9
$DIMALT
 70
     1
  9
$DIMALTD
 70
     2
  9
$DIMALTF
 40
25.399999999999999
  9
$DIMLFAC
 40
1.0
  9
$DIMTOFL
 70
     0
  9
$DIMTVP
 40
0.0
  9
$DIMTIX
 70
     0
  9
$DIMSOXD
 70
     0
  9
$DIMSAH
 70
     0
  9
$DIMBLK1
  1

  9
$DIMBLK2
  1

  9
$DIMSTYLE
  2
STANDARD
  9
$DIMCLRD
 70
     0
  9
$DIMCLRE
 70
     0
  9
$DIMCLRT
 70
     0
  9
$DIMTFAC
 40
1.0
  9
$DIMGAP
 40
0.09
  9
$LUNITS
 70
     2
  9
$LUPREC
 70
     4
  9
$SKETCHINC
 40
0.1
  9
$FILLETRAD
 40
0.0
  9
$AUNITS
 70
     0
  9
$AUPREC
 70
     0
  9
$MENU
  1
.
  9
$ELEVATION
 40
0.0
  9
$PELEVATION
 40
0.0
  9
$THICKNESS
 40
0.0
  9
$LIMCHECK
 70
     0
  9
$BLIPMODE
 70
     0
  9
$CHAMFERA
 40
0.0
  9
$CHAMFERB
 40
0.0
  9
$SKPOLY
 70
     0
  9
$TDCREATE
 40
2457997.6178317941
  9
$TDUPDATE
 40
2457997.7952052662
  9
$TDINDWG
 40
0.0717932407
  9
$TDUSRTIMER
 40
0.0717932407
  9
$USRTIMER
 70
     1
  9
$ANGBASE
 50
0.0
  9
$ANGDIR
 70
     0
  9
$PDMODE
 70
     0
  9
$PDSIZE
 40
0.3125
  9
$PLINEWID
 40
0.0
  9
$COORDS
 70
     1
  9
$SPLFRAME
 70
     0
  9
$SPLINETYPE
 70
     6
  9
$SPLINESEGS
 70
     8
  9
$ATTDIA
 70
     1
  9
$ATTREQ
 70
     1
  9
$HANDLING
 70
     1
  9
$HANDSEED
  5
957
  9
$SURFTAB1
 70
     6
  9
$SURFTAB2
 70
     6
  9
$SURFTYPE
 70
     6
  9
$SURFU
 70
     6
  9
$SURFV
 70
     6
  9
$UCSNAME
  2

  9
$UCSORG
 10
0.0
 20
0.0
 30
0.0
  9
$UCSXDIR
 10
1.0
 20
0.0
 30
0.0
  9
$UCSYDIR
 10
0.0
 20
1.0
 30
0.0
  9
$PUCSNAME
  2

  9
$PUCSORG
 10
0.0
 20
0.0
 30
0.0
  9
$PUCSXDIR
 10
1.0
 20
0.0
 30
0.0
  9
$PUCSYDIR
 10
0.0
 20
1.0
 30
0.0
  9
$USERI1
 70
     0
  9
$USERI2
 70
     0
  9
$USERI3
 70
     0
  9
$USERI4
 70
     0
  9
$USERI5
 70
     0
  9
$USERR1
 40
0.0
  9
$USERR2
 40
0.0
  9
$USERR3
 40
0.0
  9
$USERR4
 40
0.0
  9
$USERR5
 40
0.0
  9
$WORLDVIEW
 70
     1
  9
$SHADEDGE
 70
     3
  9
$SHADEDIF
 70
    70
  9
$TILEMODE
 70
     1
  9
$MAXACTVP
 70
    64
  9
$PLIMCHECK
 70
     0
  9
$PEXTMIN
 10
1.0000000000000000E+020
 20
1.0000000000000000E+020
 30
1.0000000000000000E+020
  9
$PEXTMAX
 10
-1.0000000000000000E+020
 20
-1.0000000000000000E+020
 30
-1.0000000000000000E+020
  9
$PLIMMIN
 10
0.0
 20
0.0
  9
$PLIMMAX
 10
12.0
 20
9.0
  9
$UNITMODE
 70
     0
  9
$VISRETAIN
 70
     1
  9
$PLINEGEN
 70
     0
  9
$PSLTSCALE
 70
     1
  0
ENDSEC
  0
SECTION
  2
TABLES
  0
TABLE
  2
VPORT
 70
     1
  0
VPORT
  2
*ACTIVE
 70
     0
 10
0.0
 20
0.0
 11
1.0
 21
1.0
 12
0.0
 22
0.0
 13
0.0
 23
0.0
 14
1.0
 24
1.0
 15
0.0
 25
0.0
 16
-0.0000000000000178
 26
0.0
 36
83.006536016379243
 17
9.6093924849486871
 27
13.017590278798719
 37
0.0
 40
34.430122045759482
 41
1.7101910828025471
 42
50.0
 43
0.0
 44
0.0
 50
0.0
 51
0.0
 71
     0
 72
  1000
 73
     1
 74
     1
 75
     0
 76
     0
 77
     0
 78
     0
  0
ENDTAB
  0
TABLE
  2
LTYPE
 70
     8
  0
LTYPE
  2
CONTINUOUS
 70
     0
  3
Solid line
 72
    65
 73
     0
 40
0.0
  0
LTYPE
  2
PHANTOM2
 70
     0
  3
___ _ _ ___ _ _ ___ _ _ ___ _ _
 72
    65
 73
     6
 40
1.25
 49
0.625
 49
-0.125
 49
0.125
 49
-0.125
 49
0.125
 49
-0.125
  0
ENDTAB
  0
TABLE
  2
LAYER
 70
     2
  0
LAYER
  2
0
 70
     0
 62
     7
  6
CONTINUOUS
  0
LAYER
  2
DEFPOINTS
 70
     0
 62
     7
  6
CONTINUOUS
  0
ENDTAB
  0
TABLE
  2
STYLE
 70
     3
  0
STYLE
  2
STANDARD
 70
     0
 40
0.0
 41
0.8
 50
0.0
 71
     0
 42
0.2
  3
txt
  4

  0
ENDTAB
  0
TABLE
  2
VIEW
 70
     0
  0
ENDTAB
  0
TABLE
  2
UCS
 70
     0
  0
ENDTAB
  0
TABLE
  2
APPID
 70
    16
  0
APPID
  2
ACAD
 70
     0
  0
APPID
  2
ACAD_NAV_VCDISPLAY
 70
     0
  0
APPID
  2
ACAD_DSTYLE_DIMJAG
 70
     0
  0
APPID
  2
ACAD_DSTYLE_DIMTALN
 70
     0
  0
APPID
  2
ACAD_EXEMPT_FROM_CAD_STANDARDS
 70
     0
  0
APPID
  2
MCAD_NO_VIS
 70
     0
  0
APPID
  2
ACAD_TEMP_GRAPHIC
 70
     0
  0
APPID
  2
ACATTRIBSERVICES
 70
     0
  0
APPID
  2
DESIGNERASSEMBLIES
 70
     0
  0
APPID
  2
ACAD_DSTYLE_DIMBREAK
 70
     0
  0
APPID
  2
ACAD_MLEADERVER
 70
     0
  0
APPID
  2
ACAD_DSTYLE_DIMARC_LENGTH_
 70
     0
  0
APPID
  2
ACAD_DSTYLE_DIM_LINETYPE
 70
     0
  0
APPID
  2
ACAD_DSTYLE_DIM_EXT1_LINETYPE
 70
     0
  0
APPID
  2
ACAD_DSTYLE_DIM_EXT2_LINETYPE
 70
     0
  0
APPID
  2
ACDBATTR
 70
     0
  0
ENDTAB
  0
TABLE
  2
DIMSTYLE
 70
     7
  0
DIMSTYLE
  2
STANDARD
 70
     0
  3
\X
  4

  5

  6

  7

 40
1.0
 41
0.1875
 42
0.0625
 43
0.38
 44
0.125
 45
0.0
 46
0.0
 47
0.01
 48
0.01
140
1.0
141
0.09
142
0.0
143
25.399999999999999
144
1.0
145
0.0
146
1.0
147
0.09
 71
     1
 72
     0
 73
     1
 74
     1
 75
     0
 76
     0
 77
     0
 78
     4
170
     1
171
     2
172
     0
173
     0
174
     0
175
     0
176
     0
177
     0
178
     0
  0
ENDTAB
  0
ENDSEC
  0
SECTION
  2
BLOCKS
  0
BLOCK
  8
0
  2
$MODEL_SPACE
 70
     0
 10
0.0
 20
0.0
 30
0.0
  3
$MODEL_SPACE
  1

  0
ENDBLK
  5
21
  8
0
  0
BLOCK
 67
     1
  8
0
  2
$PAPER_SPACE
 70
     0
 10
0.0
 20
0.0
 30
0.0
  3
$PAPER_SPACE
  1

  0
ENDBLK
  5
1D
 67
     1
  8
0
  0
ENDSEC
  0
SECTION
  2
ENTITIES
  0
LINE
  5
57A
  8
0
 10
16.900275433891579
 20
17.927616798700001
 30
0.0
 11
-6.3771082128474212
 21
17.927616003395428
 31
0.0
  0
ARC
  5
57B
  8
0
 10
-6.3771081957642437
 20
17.42761682048614
 30
0.0
 40
0.4999991829092923
 50
90.000001957590783
 51
170.00000279230889
  0
LINE
  5
57C
  8
0
 10
-6.8695112718244467
 20
17.51444074343603
 30
0.0
 11
-6.8902266683851936
 21
17.396957858054261
 31
0.0
  0
ARC
  5
57D
  8
0
 10
-6.8656065950760219
 20
17.392616676100001
 30
0.0
 40
0.0249998774098797
 50
170.0000027923073
 51
269.99838946738112
  0
ARC
  5
57F
  8
0
 10
-6.1493730550787919
 20
17.12761679859695
 30
0.0
 40
0.3800000002048011
 50
4.9999333951871971
 51
37.009077094401754
  0
ARC
  5
580
  8
0
 10
302462.83828006842
 20
26479.380801196661
 30
0.0
 40
303623.959168487
 50
184.99993339518721
 51
185.00006660486559
  0
ARC
  5
581
  8
0
 10
3552004.0540416269
 20
310781.2052628583
 30
0.0
 40
3565578.2262184308
 50
185.00006660486559
 51
185.00016084107941
  0
ARC
  5
582
  8
0
 10
-3.7867629289132272
 20
10.68538954608856
 30
0.0
 40
1.4131363239373169
 50
182.83858923165411
 51
248.69470337103311
  0
ARC
  5
583
  8
0
 10
-3.790372915197826
 20
10.738652358369521
 30
0.0
 40
1.413176853013272
 50
185.00318779949961
 51
246.14943144149819
  0
ARC
  5
584
  8
0
 10
-4.462740431472997
 20
9.217853148487265
 30
0.0
 40
0.2496244924012186
 50
4.0562126678061183
 51
66.147084872386131
  0
LINE
  5
585
  8
0
 10
-4.2137412153845348
 20
9.2355103734645372
 30
0.0
 11
-4.1388772290117704
 21
8.1634319205997681
 31
0.0
  0
ARC
  5
586
  8
0
 10
-4.0767751373672869
 20
8.1700276913110184
 30
0.0
 40
0.0624513729064069
 50
186.0625718520472
 51
267.9369396466027
  0
LINE
  5
587
  8
0
 10
-4.0790233502999991
 20
8.1076167986999987
 30
0.0
 11
-3.5609251641999999
 21
8.1076167987000005
 31
0.0
  0
ARC
  5
588
  8
0
 10
-3.5597375686353558
 20
8.1676271576655584
 30
0.0
 40
0.060022108979944
 50
268.86627352368839
 51
355.99156279852718
  0
LINE
  5
589
  8
0
 10
-3.4998622876999992
 20
8.1634314098999994
 30
0.0
 11
-3.4392147379
 21
9.0307317778999998
 31
0.0
  0
ARC
  5
58A
  8
0
 10
-3.1898716877449922
 20
9.0132891343495238
 30
0.0
 40
0.2499524004178229
 50
106.11343562711021
 51
175.99842699643531
  0
LINE
  5
62B
  8
0
 10
16.900275433891579
 20
17.927616798700001
 30
0.0
 11
25.595893617200002
 21
17.927616798700001
 31
0.0
  0
ARC
  5
62C
  8
0
 10
25.595890811724871
 20
17.427613455258221
 30
0.0
 40
0.5000033434496432
 50
10.0003214900063
 51
89.999678518380705
  0
ARC
  5
62D
  8
0
 10
-3405.2627607276631
 20
-587.61618289385149
 30
0.0
 40
3484.3009556407901
 50
9.9995095819751967
 51
10.00147127078095
  0
ARC
  5
62E
  8
0
 10
26.084390981184288
 20
17.392617259844759
 30
0.0
 40
0.0250004612040088
 50
270.0039442047152
 51
9.9982744471607674
  0
LINE
  5
62F
  8
0
 10
-3.261261978199999
 20
9.2528296061999988
 30
0.0
 11
15.5744688655
 21
8.5957342024999992
 31
0.0
  0
ARC
  5
630
  8
0
 10
15.530844463963611
 20
7.3464956166260462
 30
0.0
 40
1.250000059723857
 50
49.996115419854519
 51
87.999990034826496
  0
ARC
  5
631
  8
0
 10
16.379392565280721
 20
8.3576160222691378
 30
0.0
 40
0.069999223569271
 50
229.9958835963003
 51
270.00011207119798
  0
LINE
  5
632
  8
0
 10
16.3793932721
 20
8.2876167987000002
 30
0.0
 11
21.439390291500001
 21
8.2876167987000002
 31
0.0
  0
ARC
  5
633
  8
0
 10
21.439396222180161
 20
8.3575968351812246
 30
0.0
 40
0.0699800367325316
 50
269.99514428744402
 51
310.00983467461441
  0
ARC
  5
634
  8
0
 10
22.287940909185139
 20
7.34649567016739
 30
0.0
 40
1.249999998538923
 50
91.999999975141804
 51
130.003885061598
  0
LINE
  5
635
  8
0
 10
15.5744690542
 20
8.5957342024999992
 30
0.0
 11
22.244316536706489
 21
8.5957342024999992
 31
0.0
  0
LINE
  5
636
  8
0
 10
22.244316538830589
 20
8.5957342025741745
 30
0.0
 11
22.542951701387739
 21
8.606162772209867
 31
0.0
  0
LINE
  5
637
  8
0
 10
22.542951701387739
 20
8.606162772209867
 30
0.0
 11
22.615107709393129
 21
8.6086825155421725
 31
0.0
  0
ARC
  5
640
  8
0
 10
-4.4590000201428346
 20
9.1758413897808762
 30
0.0
 40
0.2499205784151475
 50
9.6162666489908162
 51
50.47812874107175
  0
LINE
  5
641
  8
0
 10
-4.2515397585353982
 20
9.350818885063088
 30
0.0
 11
-4.3002081471000011
 21
9.3688302888000017
 31
0.0
  0
ARC
  5
642
  8
0
 10
-4.3988914568170658
 20
-7.3299944325225814
 30
0.0
 40
16.776191808828969
 50
88.008928170512675
 51
89.873303402560126
  0
ARC
  5
643
  8
0
 10
-3.922392420113578
 20
7.2955695324991803
 30
0.0
 40
2.143140325831741
 50
69.728573795739692
 51
87.155532251871961
  0
ARC
  5
644
  8
0
 10
25.368158504191211
 20
17.12761677212406
 30
0.0
 40
0.3800000515894794
 50
140.83329045206699
 51
175.00006318504111
  0
LINE
  5
645
  8
0
 10
24.989604435500009
 20
17.160735540800001
 30
0.0
 11
24.371706826393229
 21
10.09833894787468
 31
0.0
  0
ARC
  5
646
  8
0
 10
22.934918687989601
 20
10.05542951343481
 30
0.0
 40
1.437446515940537
 50
285.66937517910259
 51
1.7105369203081131
  0
LINE
  5
647
  8
0
 10
23.323152644598661
 20
8.6714039063287665
 30
0.0
 11
23.29031431528934
 21
8.1634314098999994
 31
0.0
  0
ARC
  5
648
  8
0
 10
23.230358805794591
 20
8.1676652911543428
 30
0.0
 40
0.0601048157016462
 50
267.51937704431288
 51
355.96064656699838
  0
LINE
  5
649
  8
0
 10
23.227757374500001
 20
8.1076167987000005
 30
0.0
 11
22.7096591926
 21
8.1076167987000005
 31
0.0
  0
ARC
  5
64A
  8
0
 10
22.709659188700002
 20
8.1676167987000046
 30
0.0
 40
0.060000000000006
 50
184.00000038230479
 51
270.00000372422431
  0
LINE
  5
64B
  8
0
 10
22.649805345712331
 20
8.163431409875983
 30
0.0
 11
22.621898123400001
 21
8.5679647284999998
 31
0.0
  0
ARC
  5
64C
  8
0
 10
22.318469823617139
 20
8.5382877889063522
 30
0.0
 40
0.3048761270020713
 50
5.5860732078429702
 51
13.34983809267521
  0
ARC
  5
64D
  8
0
 10
-3.187000602110686
 20
9.0535756383372412
 30
0.0
 40
0.2524929463620277
 50
88.380149423654103
 51
184.1418741863483
  0
LINE
  5
64E
  8
0
 10
-3.1798631416397081
 20
9.3059676838152967
 30
0.0
 11
16.434161440086339
 21
8.7890971856202267
 31
0.0
  0
LINE
  5
64F
  8
0
 10
16.434161440086339
 20
8.7890971856202267
 30
0.0
 11
22.36892183332381
 21
8.7995555938862502
 31
0.0
  0
ARC
  5
650
  8
0
 10
23.181580151892831
 20
6.1720502634695711
 30
0.0
 40
2.7503076901989312
 50
83.719554495076892
 51
107.1861928059851
  0
ARC
  5
651
  8
0
 10
23.575687045651531
 20
8.6711590287143512
 30
0.0
 40
0.2525345197793267
 50
111.6665395629055
 51
179.94444143313851
  0
ARC
  5
652
  8
0
 10
22.962142165199989
 20
10.221663462800009
 30
0.0
 40
1.414949281800014
 50
291.57520095739977
 51
354.99985532130302
  0
ARC
  5
68C
  8
0
 10
22.371704198933841
 20
8.5489438368944892
 30
0.0
 40
0.2506271705750977
 50
13.789574883883491
 51
90.635322753446431
  0
ATTDEF
  5
7C1
  8
DEFPOINTS
 10
9.6047041479907822
 20
17.376701579681502
 30
0.0
 40
0.001
  1
K-5871-1A2
  3

  2
MODELNUMBER
 70
     0
1001
ACDBATTR
1070
     0
1070
     1
  0
ATTDEF
  5
7C2
  8
DEFPOINTS
 10
9.6047041479907822
 20
17.375034913014829
 30
0.0
 40
0.001
  1
RIVERBY
  3

  2
TRADENAME
 70
     0
1001
ACDBATTR
1070
     0
1070
     1
  0
ATTDEF
  5
7C3
  8
DEFPOINTS
 10
9.6047041479907822
 20
17.373368246348171
 30
0.0
 40
0.001
  1
KITCHEN SINK
  3

  2
PRODUCT
 70
     0
1001
ACDBATTR
1070
     0
1070
     1
  0
ATTDEF
  5
7C4
  8
DEFPOINTS
 10
9.6047041479907822
 20
17.371701579681499
 30
0.0
 40
0.001
  1
CAST IRON
  3

  2
MATERIAL
 70
     0
1001
ACDBATTR
1070
     0
1070
     1
  0
LINE
  5
80F
  8
0
 10
-6.8656072977999987
 20
17.367616798699999
 30
0.0
 11
26.084392702199999
 21
17.367616798699991
 31
0.0
  0
ENDSEC
  0
EOF
