  0
SECTION
  2
HEADER
  9
$ACADVER
  1
AC1009
  9
$INSBASE
 10
9.6093927021999992
 20
35.023524172899997
 30
0.0
  9
$EXTMIN
 10
-6.8906071464000131
 20
24.0235241894
 30
0.0
  9
$EXTMAX
 10
26.10939255080001
 20
46.023524156400008
 30
0.0
  9
$LIMMIN
 10
0.0
 20
0.0
  9
$LIMMAX
 10
22.0
 20
17.0
  9
$ORTHOMODE
 70
     0
  9
$REGENMODE
 70
     1
  9
$FILLMODE
 70
     1
  9
$QTEXTMODE
 70
     0
  9
$MIRRTEXT
 70
     0
  9
$DRAGMODE
 70
     2
  9
$LTSCALE
 40
1.2099999999999991
  9
$OSMODE
 70
  3071
  9
$ATTMODE
 70
     1
  9
$TEXTSIZE
 40
0.2
  9
$TRACEWID
 40
0.05
  9
$TEXTSTYLE
  7
STANDARD
  9
$CLAYER
  8
0
  9
$CELTYPE
  6
BYLAYER
  9
$CECOLOR
 62
   256
  9
$DIMSCALE
 40
1.0
  9
$DIMASZ
 40
0.1875
  9
$DIMEXO
 40
0.0625
  9
$DIMDLI
 40
0.8359999999999999
  9
$DIMRND
 40
0.0
  9
$DIMDLE
 40
0.0
  9
$DIMEXE
 40
0.125
  9
$DIMTP
 40
0.01
  9
$DIMTM
 40
0.01
  9
$DIMTXT
 40
1.0
  9
$DIMCEN
 40
0.198
  9
$DIMTSZ
 40
0.0
  9
$DIMTOL
 70
     1
  9
$DIMLIM
 70
     0
  9
$DIMTIH
 70
     1
  9
$DIMTOH
 70
     1
  9
$DIMSE1
 70
     0
  9
$DIMSE2
 70
     0
  9
$DIMTAD
 70
     0
  9
$DIMZIN
 70
     0
  9
$DIMBLK
  1

  9
$DIMASO
 70
     1
  9
$DIMSHO
 70
     1
  9
$DIMPOST
  1
\X
  9
$DIMAPOST
  1

  9
$DIMALT
 70
     1
  9
$DIMALTD
 70
     2
  9
$DIMALTF
 40
25.399999999999999
  9
$DIMLFAC
 40
1.0
  9
$DIMTOFL
 70
     0
  9
$DIMTVP
 40
0.0
  9
$DIMTIX
 70
     0
  9
$DIMSOXD
 70
     0
  9
$DIMSAH
 70
     0
  9
$DIMBLK1
  1

  9
$DIMBLK2
  1

  9
$DIMSTYLE
  2
STANDARD
  9
$DIMCLRD
 70
     0
  9
$DIMCLRE
 70
     0
  9
$DIMCLRT
 70
     0
  9
$DIMTFAC
 40
1.0
  9
$DIMGAP
 40
0.09
  9
$LUNITS
 70
     2
  9
$LUPREC
 70
     4
  9
$SKETCHINC
 40
0.1
  9
$FILLETRAD
 40
0.0
  9
$AUNITS
 70
     0
  9
$AUPREC
 70
     0
  9
$MENU
  1
.
  9
$ELEVATION
 40
0.0
  9
$PELEVATION
 40
0.0
  9
$THICKNESS
 40
0.0
  9
$LIMCHECK
 70
     0
  9
$BLIPMODE
 70
     0
  9
$CHAMFERA
 40
0.0
  9
$CHAMFERB
 40
0.0
  9
$SKPOLY
 70
     0
  9
$TDCREATE
 40
2457997.6178317941
  9
$TDUPDATE
 40
2457997.796222107
  9
$TDINDWG
 40
0.0714429167
  9
$TDUSRTIMER
 40
0.0714429167
  9
$USRTIMER
 70
     1
  9
$ANGBASE
 50
0.0
  9
$ANGDIR
 70
     0
  9
$PDMODE
 70
     0
  9
$PDSIZE
 40
0.3125
  9
$PLINEWID
 40
0.0
  9
$COORDS
 70
     1
  9
$SPLFRAME
 70
     0
  9
$SPLINETYPE
 70
     6
  9
$SPLINESEGS
 70
     8
  9
$ATTDIA
 70
     1
  9
$ATTREQ
 70
     1
  9
$HANDLING
 70
     1
  9
$HANDSEED
  5
955
  9
$SURFTAB1
 70
     6
  9
$SURFTAB2
 70
     6
  9
$SURFTYPE
 70
     6
  9
$SURFU
 70
     6
  9
$SURFV
 70
     6
  9
$UCSNAME
  2

  9
$UCSORG
 10
0.0
 20
0.0
 30
0.0
  9
$UCSXDIR
 10
1.0
 20
0.0
 30
0.0
  9
$UCSYDIR
 10
0.0
 20
1.0
 30
0.0
  9
$PUCSNAME
  2

  9
$PUCSORG
 10
0.0
 20
0.0
 30
0.0
  9
$PUCSXDIR
 10
1.0
 20
0.0
 30
0.0
  9
$PUCSYDIR
 10
0.0
 20
1.0
 30
0.0
  9
$USERI1
 70
     0
  9
$USERI2
 70
     0
  9
$USERI3
 70
     0
  9
$USERI4
 70
     0
  9
$USERI5
 70
     0
  9
$USERR1
 40
0.0
  9
$USERR2
 40
0.0
  9
$USERR3
 40
0.0
  9
$USERR4
 40
0.0
  9
$USERR5
 40
0.0
  9
$WORLDVIEW
 70
     1
  9
$SHADEDGE
 70
     3
  9
$SHADEDIF
 70
    70
  9
$TILEMODE
 70
     1
  9
$MAXACTVP
 70
    64
  9
$PLIMCHECK
 70
     0
  9
$PEXTMIN
 10
1.0000000000000000E+020
 20
1.0000000000000000E+020
 30
1.0000000000000000E+020
  9
$PEXTMAX
 10
-1.0000000000000000E+020
 20
-1.0000000000000000E+020
 30
-1.0000000000000000E+020
  9
$PLIMMIN
 10
0.0
 20
0.0
  9
$PLIMMAX
 10
12.0
 20
9.0
  9
$UNITMODE
 70
     0
  9
$VISRETAIN
 70
     1
  9
$PLINEGEN
 70
     0
  9
$PSLTSCALE
 70
     1
  0
ENDSEC
  0
SECTION
  2
TABLES
  0
TABLE
  2
VPORT
 70
     1
  0
VPORT
  2
*ACTIVE
 70
     0
 10
0.0
 20
0.0
 11
1.0
 21
1.0
 12
0.0
 22
0.0
 13
0.0
 23
0.0
 14
1.0
 24
1.0
 15
0.0
 25
0.0
 16
-0.0000000000000213
 26
0.0
 36
95.617654594857598
 17
9.6093927021999992
 27
35.023524172899997
 37
0.0
 40
39.661063759853853
 41
1.7101910828025471
 42
50.0
 43
0.0
 44
0.0
 50
0.0
 51
0.0
 71
     0
 72
  1000
 73
     1
 74
     1
 75
     0
 76
     0
 77
     0
 78
     0
  0
ENDTAB
  0
TABLE
  2
LTYPE
 70
     8
  0
LTYPE
  2
CONTINUOUS
 70
     0
  3
Solid line
 72
    65
 73
     0
 40
0.0
  0
LTYPE
  2
PHANTOM2
 70
     0
  3
___ _ _ ___ _ _ ___ _ _ ___ _ _
 72
    65
 73
     6
 40
1.25
 49
0.625
 49
-0.125
 49
0.125
 49
-0.125
 49
0.125
 49
-0.125
  0
ENDTAB
  0
TABLE
  2
LAYER
 70
     2
  0
LAYER
  2
0
 70
     0
 62
     7
  6
CONTINUOUS
  0
LAYER
  2
DEFPOINTS
 70
     0
 62
     7
  6
CONTINUOUS
  0
ENDTAB
  0
TABLE
  2
STYLE
 70
     2
  0
STYLE
  2
STANDARD
 70
     0
 40
0.0
 41
0.8
 50
0.0
 71
     0
 42
0.2
  3
txt
  4

  0
ENDTAB
  0
TABLE
  2
VIEW
 70
     0
  0
ENDTAB
  0
TABLE
  2
UCS
 70
     0
  0
ENDTAB
  0
TABLE
  2
APPID
 70
    16
  0
APPID
  2
ACAD
 70
     0
  0
APPID
  2
ACAD_NAV_VCDISPLAY
 70
     0
  0
APPID
  2
ACAD_DSTYLE_DIMJAG
 70
     0
  0
APPID
  2
ACAD_DSTYLE_DIMTALN
 70
     0
  0
APPID
  2
ACAD_EXEMPT_FROM_CAD_STANDARDS
 70
     0
  0
APPID
  2
MCAD_NO_VIS
 70
     0
  0
APPID
  2
ACAD_TEMP_GRAPHIC
 70
     0
  0
APPID
  2
ACATTRIBSERVICES
 70
     0
  0
APPID
  2
DESIGNERASSEMBLIES
 70
     0
  0
APPID
  2
ACAD_DSTYLE_DIMBREAK
 70
     0
  0
APPID
  2
ACAD_MLEADERVER
 70
     0
  0
APPID
  2
ACAD_DSTYLE_DIMARC_LENGTH_
 70
     0
  0
APPID
  2
ACAD_DSTYLE_DIM_LINETYPE
 70
     0
  0
APPID
  2
ACAD_DSTYLE_DIM_EXT1_LINETYPE
 70
     0
  0
APPID
  2
ACAD_DSTYLE_DIM_EXT2_LINETYPE
 70
     0
  0
APPID
  2
ACDBATTR
 70
     0
  0
ENDTAB
  0
TABLE
  2
DIMSTYLE
 70
     7
  0
DIMSTYLE
  2
STANDARD
 70
     0
  3
\X
  4

  5

  6

  7

 40
1.0
 41
0.1875
 42
0.0625
 43
0.38
 44
0.125
 45
0.0
 46
0.0
 47
0.01
 48
0.01
140
1.0
141
0.09
142
0.0
143
25.399999999999999
144
1.0
145
0.0
146
1.0
147
0.09
 71
     1
 72
     0
 73
     1
 74
     1
 75
     0
 76
     0
 77
     0
 78
     4
170
     1
171
     2
172
     0
173
     0
174
     0
175
     0
176
     0
177
     0
178
     0
  0
ENDTAB
  0
ENDSEC
  0
SECTION
  2
BLOCKS
  0
BLOCK
  8
0
  2
$MODEL_SPACE
 70
     0
 10
0.0
 20
0.0
 30
0.0
  3
$MODEL_SPACE
  1

  0
ENDBLK
  5
21
  8
0
  0
BLOCK
 67
     1
  8
0
  2
$PAPER_SPACE
 70
     0
 10
0.0
 20
0.0
 30
0.0
  3
$PAPER_SPACE
  1

  0
ENDBLK
  5
1D
 67
     1
  8
0
  0
ENDSEC
  0
SECTION
  2
ENTITIES
  0
CIRCLE
  5
320
  8
0
 10
9.6093927021999992
 20
43.963524141399994
 30
0.0
 40
0.6875
  0
LINE
  5
556
  8
0
 10
24.609392950400011
 20
46.023524156400008
 30
0.0
 11
-5.390607546
 21
46.023524156400008
 31
0.0
  0
ARC
  5
557
  8
0
 10
-5.3906076099569482
 20
44.523524619956937
 30
0.0
 40
1.4999995364430641
 50
89.999997557024017
 51
180.00001827787659
  0
LINE
  5
558
  8
0
 10
-6.8906071463999421
 20
44.523524141443403
 30
0.0
 11
-6.8906061441999986
 21
25.523524141399999
 31
0.0
  0
ARC
  5
559
  8
0
 10
-5.3905970774013987
 20
25.523533256191481
 30
0.0
 40
1.500009066826292
 50
180.00034815728409
 51
269.99960961271432
  0
LINE
  5
561
  8
0
 10
-5.3906072977784172
 20
24.0235241894
 30
0.0
 11
24.609392702178418
 21
24.02352418940001
 31
0.0
  0
LINE
  5
562
  8
0
 10
23.055613919199871
 20
41.062819056499791
 30
0.0
 11
-3.8900017684999999
 21
41.11599231000001
 31
0.0
  0
ARC
  5
563
  8
0
 10
-3.892845353929828
 20
40.122641197341679
 30
0.0
 40
0.9933551827003478
 50
89.835984480507875
 51
180.1640155092922
  0
LINE
  5
564
  8
0
 10
-4.8861964665886637
 20
40.119797612088689
 30
0.0
 11
-4.8897671525000002
 21
27.403667221199999
 31
0.0
  0
ARC
  5
565
  8
0
 10
-3.8157519226094689
 20
27.481344900335621
 30
0.0
 40
1.0768205680951239
 50
184.13668929803671
 51
265.85011970068803
  0
LINE
  5
566
  8
0
 10
-3.8936768663483838
 20
26.407347582361322
 30
0.0
 11
23.06699733279828
 21
26.452828813402419
 31
0.0
  0
LINE
  5
56C
  8
0
 10
23.4445159775
 20
41.825284054199997
 30
0.0
 11
-4.225730573518959
 21
41.825284064292667
 31
0.0
  0
ARC
  5
56D
  8
0
 10
-4.2257305764487381
 20
36.487217596824301
 30
0.0
 40
5.338066467468372
 50
89.999999968553453
 51
92.710678019460701
  0
ARC
  5
56E
  8
0
 10
-4.4283414993322907
 20
40.76662232618456
 30
0.0
 40
1.053868056593505
 50
92.710678019460687
 51
182.8566112056489
  0
ARC
  5
56F
  8
0
 10
-8.2535952479361061
 20
40.575747431632159
 30
0.0
 40
2.776144928577422
 50
355.1002744429037
 51
2.8566112056490001
  0
LINE
  5
570
  8
0
 10
-5.4875951709999997
 20
40.338630922599997
 30
0.0
 11
-5.4875951709999997
 21
27.188430131803141
 31
0.0
  0
ARC
  5
571
  8
0
 10
-18.507559485373221
 20
27.20617355056909
 30
0.0
 40
13.019976404604639
 50
358.20551361334088
 51
359.92191818997929
  0
ARC
  5
572
  8
0
 10
-4.436054663797881
 20
26.765314140504959
 30
0.0
 40
1.0584327726802729
 50
178.20551361334091
 51
267.71895137045072
  0
ARC
  5
578
  8
0
 10
-4.1671337672568356
 20
33.51654726188589
 30
0.0
 40
7.8150197149039364
 50
267.71895137045072
 51
269.57039377388969
  0
LINE
  5
579
  8
0
 10
-4.225730573099999
 20
25.7017472287
 30
0.0
 11
23.4445159775
 21
25.7017472287
 31
0.0
  0
ARC
  5
613
  8
0
 10
24.60939301435695
 20
44.523524619956937
 30
0.0
 40
1.4999995364430641
 50
359.99998172212349
 51
90.000002442975997
  0
LINE
  5
614
  8
0
 10
26.109392550799949
 20
44.523524141443403
 30
0.0
 11
26.109391548600001
 21
25.523524141399999
 31
0.0
  0
ARC
  5
615
  8
0
 10
24.609382481801401
 20
25.523533256191481
 30
0.0
 40
1.500009066826292
 50
270.00039038728568
 51
359.99965184271588
  0
LINE
  5
617
  8
0
 10
24.0518053274
 20
40.0666210686
 30
0.0
 11
24.063294082777631
 21
27.448938157477969
 31
0.0
  0
ARC
  5
618
  8
0
 10
23.078765234692149
 20
27.4373554651477
 30
0.0
 40
0.9845969792123657
 50
269.31518471303667
 51
0.674036897993414
  0
ARC
  5
619
  8
0
 10
23.444515980848742
 20
36.487217596824301
 30
0.0
 40
5.338066467468372
 50
87.289321980539228
 51
90.000000031446476
  0
ARC
  5
61A
  8
0
 10
23.647126903732289
 20
40.76662232618456
 30
0.0
 40
1.053868056593505
 50
357.1433887943511
 51
87.289321980539228
  0
ARC
  5
61B
  8
0
 10
27.47238065233611
 20
40.575747431632159
 30
0.0
 40
2.776144928577422
 50
177.14338879435101
 51
184.8997255570963
  0
LINE
  5
61C
  8
0
 10
24.706380575400001
 20
40.338630922599997
 30
0.0
 11
24.706380575400001
 21
27.188430131803141
 31
0.0
  0
ARC
  5
61D
  8
0
 10
37.726344889773223
 20
27.20617355056909
 30
0.0
 40
13.019976404604639
 50
180.07808181002059
 51
181.79448638665909
  0
ARC
  5
61E
  8
0
 10
23.654840068197881
 20
26.765314140504959
 30
0.0
 40
1.0584327726802729
 50
272.28104862954928
 51
1.794486386659117
  0
ARC
  5
61F
  8
0
 10
23.38591917165683
 20
33.51654726188589
 30
0.0
 40
7.8150197149039364
 50
270.42960622611042
 51
272.28104862954928
  0
ARC
  5
626
  8
0
 10
23.0543535959
 20
40.065367333099992
 30
0.0
 40
0.9974681418000091
 50
0.072016464500516
 51
89.926709264145487
  0
CIRCLE
  5
6A7
  8
0
 10
18.909392702200002
 20
36.023524141400003
 30
0.0
 40
0.31
  0
CIRCLE
  5
6A8
  8
0
 10
18.909392702200002
 20
36.023524141400003
 30
0.0
 40
0.281
  0
CIRCLE
  5
6A9
  8
0
 10
18.909392702200002
 20
36.023524141400003
 30
0.0
 40
1.7515000000000001
  0
CIRCLE
  5
6AA
  8
0
 10
18.909392702200002
 20
36.023524141400003
 30
0.0
 40
1.491383933499999
  0
ATTDEF
  5
821
  8
DEFPOINTS
 10
9.6044635651073058
 20
35.032792704091307
 30
0.0
 40
0.001
  1
K-5871-1A2
  3

  2
MODELNUMBER
 70
     0
1001
ACDBATTR
1070
     0
1070
     1
  0
ATTDEF
  5
822
  8
DEFPOINTS
 10
9.6044635651073058
 20
35.031126037424642
 30
0.0
 40
0.001
  1
RIVERBY
  3

  2
TRADENAME
 70
     0
1001
ACDBATTR
1070
     0
1070
     1
  0
ATTDEF
  5
823
  8
DEFPOINTS
 10
9.6044635651073058
 20
35.029459370757984
 30
0.0
 40
0.001
  1
KITCHEN SINK
  3

  2
PRODUCT
 70
     0
1001
ACDBATTR
1070
     0
1070
     1
  0
ATTDEF
  5
824
  8
DEFPOINTS
 10
9.6044635651073058
 20
35.027792704091311
 30
0.0
 40
0.001
  1
CAST IRON
  3

  2
MATERIAL
 70
     0
1001
ACDBATTR
1070
     0
1070
     1
  0
POINT
  5
874
  8
DEFPOINTS
 10
9.6093927021999992
 20
43.963524141399994
 30
0.0
  0
ENDSEC
  0
EOF
