  0
SECTION
  2
HEADER
  9
$ACADVER
  1
AC1009
  9
$INSBASE
 10
43.759172124629721
 20
17.367616838999549
 30
0.0
  9
$EXTMIN
 10
32.758989816358181
 20
8.1072195033290537
 30
0.0
  9
$EXTMAX
 10
54.758988499699257
 20
17.927616798700001
 30
0.0
  9
$LIMMIN
 10
0.0
 20
0.0
  9
$LIMMAX
 10
22.0
 20
17.0
  9
$ORTHOMODE
 70
     0
  9
$REGENMODE
 70
     1
  9
$FILLMODE
 70
     1
  9
$QTEXTMODE
 70
     0
  9
$MIRRTEXT
 70
     0
  9
$DRAGMODE
 70
     2
  9
$LTSCALE
 40
1.2099999999999991
  9
$OSMODE
 70
  3071
  9
$ATTMODE
 70
     1
  9
$TEXTSIZE
 40
0.2
  9
$TRACEWID
 40
0.05
  9
$TEXTSTYLE
  7
STANDARD
  9
$CLAYER
  8
0
  9
$CELTYPE
  6
BYLAYER
  9
$CECOLOR
 62
   256
  9
$DIMSCALE
 40
1.0
  9
$DIMASZ
 40
0.1875
  9
$DIMEXO
 40
0.0625
  9
$DIMDLI
 40
0.8359999999999999
  9
$DIMRND
 40
0.0
  9
$DIMDLE
 40
0.0
  9
$DIMEXE
 40
0.125
  9
$DIMTP
 40
0.01
  9
$DIMTM
 40
0.01
  9
$DIMTXT
 40
1.0
  9
$DIMCEN
 40
0.198
  9
$DIMTSZ
 40
0.0
  9
$DIMTOL
 70
     1
  9
$DIMLIM
 70
     0
  9
$DIMTIH
 70
     1
  9
$DIMTOH
 70
     1
  9
$DIMSE1
 70
     0
  9
$DIMSE2
 70
     0
  9
$DIMTAD
 70
     0
  9
$DIMZIN
 70
     0
  9
$DIMBLK
  1

  9
$DIMASO
 70
     1
  9
$DIMSHO
 70
     1
  9
$DIMPOST
  1
\X
  9
$DIMAPOST
  1

  9
$DIMALT
 70
     1
  9
$DIMALTD
 70
     2
  9
$DIMALTF
 40
25.399999999999999
  9
$DIMLFAC
 40
1.0
  9
$DIMTOFL
 70
     0
  9
$DIMTVP
 40
0.0
  9
$DIMTIX
 70
     0
  9
$DIMSOXD
 70
     0
  9
$DIMSAH
 70
     0
  9
$DIMBLK1
  1

  9
$DIMBLK2
  1

  9
$DIMSTYLE
  2
STANDARD
  9
$DIMCLRD
 70
     0
  9
$DIMCLRE
 70
     0
  9
$DIMCLRT
 70
     0
  9
$DIMTFAC
 40
1.0
  9
$DIMGAP
 40
0.09
  9
$LUNITS
 70
     2
  9
$LUPREC
 70
     4
  9
$SKETCHINC
 40
0.1
  9
$FILLETRAD
 40
0.0
  9
$AUNITS
 70
     0
  9
$AUPREC
 70
     0
  9
$MENU
  1
.
  9
$ELEVATION
 40
0.0
  9
$PELEVATION
 40
0.0
  9
$THICKNESS
 40
0.0
  9
$LIMCHECK
 70
     0
  9
$BLIPMODE
 70
     0
  9
$CHAMFERA
 40
0.0
  9
$CHAMFERB
 40
0.0
  9
$SKPOLY
 70
     0
  9
$TDCREATE
 40
2457997.6178317941
  9
$TDUPDATE
 40
2457997.7956962502
  9
$TDINDWG
 40
0.071635787
  9
$TDUSRTIMER
 40
0.071635787
  9
$USRTIMER
 70
     1
  9
$ANGBASE
 50
0.0
  9
$ANGDIR
 70
     0
  9
$PDMODE
 70
     0
  9
$PDSIZE
 40
0.3125
  9
$PLINEWID
 40
0.0
  9
$COORDS
 70
     1
  9
$SPLFRAME
 70
     0
  9
$SPLINETYPE
 70
     6
  9
$SPLINESEGS
 70
     8
  9
$ATTDIA
 70
     1
  9
$ATTREQ
 70
     1
  9
$HANDLING
 70
     1
  9
$HANDSEED
  5
90E
  9
$SURFTAB1
 70
     6
  9
$SURFTAB2
 70
     6
  9
$SURFTYPE
 70
     6
  9
$SURFU
 70
     6
  9
$SURFV
 70
     6
  9
$UCSNAME
  2

  9
$UCSORG
 10
0.0
 20
0.0
 30
0.0
  9
$UCSXDIR
 10
1.0
 20
0.0
 30
0.0
  9
$UCSYDIR
 10
0.0
 20
1.0
 30
0.0
  9
$PUCSNAME
  2

  9
$PUCSORG
 10
0.0
 20
0.0
 30
0.0
  9
$PUCSXDIR
 10
1.0
 20
0.0
 30
0.0
  9
$PUCSYDIR
 10
0.0
 20
1.0
 30
0.0
  9
$USERI1
 70
     0
  9
$USERI2
 70
     0
  9
$USERI3
 70
     0
  9
$USERI4
 70
     0
  9
$USERI5
 70
     0
  9
$USERR1
 40
0.0
  9
$USERR2
 40
0.0
  9
$USERR3
 40
0.0
  9
$USERR4
 40
0.0
  9
$USERR5
 40
0.0
  9
$WORLDVIEW
 70
     1
  9
$SHADEDGE
 70
     3
  9
$SHADEDIF
 70
    70
  9
$TILEMODE
 70
     1
  9
$MAXACTVP
 70
    64
  9
$PLIMCHECK
 70
     0
  9
$PEXTMIN
 10
1.0000000000000000E+020
 20
1.0000000000000000E+020
 30
1.0000000000000000E+020
  9
$PEXTMAX
 10
-1.0000000000000000E+020
 20
-1.0000000000000000E+020
 30
-1.0000000000000000E+020
  9
$PLIMMIN
 10
0.0
 20
0.0
  9
$PLIMMAX
 10
12.0
 20
9.0
  9
$UNITMODE
 70
     0
  9
$VISRETAIN
 70
     1
  9
$PLINEGEN
 70
     0
  9
$PSLTSCALE
 70
     1
  0
ENDSEC
  0
SECTION
  2
TABLES
  0
TABLE
  2
VPORT
 70
     1
  0
VPORT
  2
*ACTIVE
 70
     0
 10
0.0
 20
0.0
 11
1.0
 21
1.0
 12
0.0
 22
0.0
 13
0.0
 23
0.0
 14
1.0
 24
1.0
 15
0.0
 25
0.0
 16
-0.0000000000000142
 26
0.0
 36
58.08331675979381
 17
43.758989151832679
 27
13.017478446218171
 37
0.0
 40
24.092267679590851
 41
1.7101910828025471
 42
50.0
 43
0.0
 44
0.0
 50
0.0
 51
0.0
 71
     0
 72
  1000
 73
     1
 74
     1
 75
     0
 76
     0
 77
     0
 78
     0
  0
ENDTAB
  0
TABLE
  2
LTYPE
 70
     8
  0
LTYPE
  2
CONTINUOUS
 70
     0
  3
Solid line
 72
    65
 73
     0
 40
0.0
  0
LTYPE
  2
PHANTOM2
 70
     0
  3
___ _ _ ___ _ _ ___ _ _ ___ _ _
 72
    65
 73
     6
 40
1.25
 49
0.625
 49
-0.125
 49
0.125
 49
-0.125
 49
0.125
 49
-0.125
  0
ENDTAB
  0
TABLE
  2
LAYER
 70
     2
  0
LAYER
  2
0
 70
     0
 62
     7
  6
CONTINUOUS
  0
LAYER
  2
DEFPOINTS
 70
     0
 62
     7
  6
CONTINUOUS
  0
ENDTAB
  0
TABLE
  2
STYLE
 70
     3
  0
STYLE
  2
STANDARD
 70
     0
 40
0.0
 41
0.8
 50
0.0
 71
     0
 42
0.2
  3
txt
  4

  0
ENDTAB
  0
TABLE
  2
VIEW
 70
     0
  0
ENDTAB
  0
TABLE
  2
UCS
 70
     0
  0
ENDTAB
  0
TABLE
  2
APPID
 70
    16
  0
APPID
  2
ACAD
 70
     0
  0
APPID
  2
ACAD_NAV_VCDISPLAY
 70
     0
  0
APPID
  2
ACAD_DSTYLE_DIMJAG
 70
     0
  0
APPID
  2
ACAD_DSTYLE_DIMTALN
 70
     0
  0
APPID
  2
ACAD_EXEMPT_FROM_CAD_STANDARDS
 70
     0
  0
APPID
  2
MCAD_NO_VIS
 70
     0
  0
APPID
  2
ACAD_TEMP_GRAPHIC
 70
     0
  0
APPID
  2
ACATTRIBSERVICES
 70
     0
  0
APPID
  2
DESIGNERASSEMBLIES
 70
     0
  0
APPID
  2
ACAD_DSTYLE_DIMBREAK
 70
     0
  0
APPID
  2
ACAD_MLEADERVER
 70
     0
  0
APPID
  2
ACAD_DSTYLE_DIMARC_LENGTH_
 70
     0
  0
APPID
  2
ACAD_DSTYLE_DIM_LINETYPE
 70
     0
  0
APPID
  2
ACAD_DSTYLE_DIM_EXT1_LINETYPE
 70
     0
  0
APPID
  2
ACAD_DSTYLE_DIM_EXT2_LINETYPE
 70
     0
  0
APPID
  2
ACDBATTR
 70
     0
  0
ENDTAB
  0
TABLE
  2
DIMSTYLE
 70
     7
  0
DIMSTYLE
  2
STANDARD
 70
     0
  3
\X
  4

  5

  6

  7

 40
1.0
 41
0.1875
 42
0.0625
 43
0.38
 44
0.125
 45
0.0
 46
0.0
 47
0.01
 48
0.01
140
1.0
141
0.09
142
0.0
143
25.399999999999999
144
1.0
145
0.0
146
1.0
147
0.09
 71
     1
 72
     0
 73
     1
 74
     1
 75
     0
 76
     0
 77
     0
 78
     4
170
     1
171
     2
172
     0
173
     0
174
     0
175
     0
176
     0
177
     0
178
     0
  0
ENDTAB
  0
ENDSEC
  0
SECTION
  2
BLOCKS
  0
BLOCK
  8
0
  2
$MODEL_SPACE
 70
     0
 10
0.0
 20
0.0
 30
0.0
  3
$MODEL_SPACE
  1

  0
ENDBLK
  5
21
  8
0
  0
BLOCK
 67
     1
  8
0
  2
$PAPER_SPACE
 70
     0
 10
0.0
 20
0.0
 30
0.0
  3
$PAPER_SPACE
  1

  0
ENDBLK
  5
1D
 67
     1
  8
0
  0
ENDSEC
  0
SECTION
  2
ENTITIES
  0
ARC
  5
659
  8
0
 10
32.783990112812219
 20
17.39261709515154
 30
0.0
 40
0.0250002964540376
 50
170.00080955217919
 51
269.99919027764679
  0
ARC
  5
65A
  8
0
 10
13374.934236016319
 20
-2335.0976016098648
 30
0.0
 40
13547.98364380619
 50
169.99987386793171
 51
170.00037872227389
  0
ARC
  5
65B
  8
0
 10
33.27248994513964
 20
17.427615487002051
 30
0.0
 40
0.5000013116991593
 50
90.000126123681795
 51
169.9998738679314
  0
LINE
  5
65C
  8
0
 10
33.272488844500003
 20
17.927616798700001
 30
0.0
 11
54.245490674499131
 21
17.927615777599989
 31
0.0
  0
ARC
  5
65D
  8
0
 10
54.245487869024871
 20
17.427613455258221
 30
0.0
 40
0.5000033434496432
 50
10.000321490006231
 51
89.999678518381117
  0
ARC
  5
65E
  8
0
 10
-1556.427884119747
 20
-266.63627950812491
 30
0.0
 40
1636.030805003378
 50
9.9978474336617822
 51
10.00202531458258
  0
ARC
  5
65F
  8
0
 10
54.733988038474699
 20
17.392617259865322
 30
0.0
 40
0.0250004612245575
 50
270.0039442266629
 51
9.9971571197281612
  0
LINE
  5
660
  8
0
 10
54.733989759499998
 20
17.367616798699999
 30
0.0
 11
32.783989759527067
 21
17.367616879300432
 31
0.0
  0
LINE
  5
661
  8
0
 10
34.001533848500003
 20
17.367616798699999
 30
0.0
 11
34.218108752100001
 21
17.151041882600001
 31
0.0
  0
ARC
  5
662
  8
0
 10
34.083758602356539
 20
17.016691663921609
 30
0.0
 40
0.1899998526184202
 50
4.9999846833810189
 51
45.000014699199738
  0
ARC
  5
665
  8
0
 10
35.651870692349107
 20
8.6799124180097902
 30
0.0
 40
0.2532302431927089
 50
41.803693114128592
 51
67.482324516137126
  0
ARC
  5
666
  8
0
 10
35.658920841261278
 20
8.6861538848357416
 30
0.0
 40
0.243814393596384
 50
25.71630419456428
 51
41.814713644297363
  0
LINE
  5
667
  8
0
 10
35.87858629251464
 20
8.7919487242676944
 30
0.0
 11
35.922536504610662
 21
8.1634314098999994
 31
0.0
  0
ARC
  5
668
  8
0
 10
35.982390347718031
 20
8.1676167988809834
 30
0.0
 40
0.0600000002128558
 50
184.0000005183459
 51
246.77668777123131
  0
ARC
  5
66A
  8
0
 10
35.991505160600013
 20
8.2119748890236171
 30
0.0
 40
0.1047553856945635
 50
251.7683312630264
 51
274.99164345637109
  0
LINE
  5
66B
  8
0
 10
36.000619973608877
 20
8.1076167987007768
 30
0.0
 11
36.518718163199999
 21
8.1076167986999987
 31
0.0
  0
ARC
  5
66C
  8
0
 10
36.518718163139518
 20
8.1676167988535298
 30
0.0
 40
0.0600000001535298
 50
270.00000745165107
 51
355.99999950397262
  0
LINE
  5
66D
  8
0
 10
36.578572006272033
 20
8.1634314098999994
 30
0.0
 11
36.605849798000001
 21
8.5572154436000005
 31
0.0
  0
ARC
  5
66E
  8
0
 10
36.856223537433429
 20
8.5389249583356488
 30
0.0
 40
0.250785309998287
 50
88.487466333347186
 51
175.90472103292149
  0
LINE
  5
66F
  8
0
 10
36.863262809577812
 20
8.7892251152402192
 30
0.0
 11
44.75898975949999
 21
8.6221120016999997
 31
0.0
  0
LINE
  5
670
  8
0
 10
44.75898975949999
 20
8.6221120011999997
 30
0.0
 11
48.125062315699999
 21
8.6640561177999995
 31
0.0
  0
ARC
  5
671
  8
0
 10
48.128862888614698
 20
8.4129277264074211
 30
0.0
 40
0.2511569177381723
 50
4.1000452503201084
 51
90.875907287453202
  0
LINE
  5
672
  8
0
 10
48.379376903035798
 20
8.4308847024116833
 30
0.0
 11
48.398079059200001
 21
8.1634314098999994
 31
0.0
  0
ARC
  5
673
  8
0
 10
48.457932902099998
 20
8.1676167986999886
 30
0.0
 40
0.0599999999999962
 50
184.0000003908894
 51
270.0
  0
LINE
  5
674
  8
0
 10
48.457932902099998
 20
8.1076167986999916
 30
0.0
 11
49.003085420300003
 21
8.1076167986999987
 31
0.0
  0
ARC
  5
675
  8
0
 10
49.003085420286261
 20
8.1676167987226336
 30
0.0
 40
0.0600000000259174
 50
269.99940050827757
 51
355.99999962075327
  0
LINE
  5
676
  8
0
 10
49.062939263300002
 20
8.1634314098999994
 30
0.0
 11
49.098037214100003
 21
8.6713388774000002
 31
0.0
  0
ARC
  5
677
  8
0
 10
49.317469995805503
 20
8.5388263655617447
 30
0.0
 40
0.2563402260291982
 50
112.0938982983326
 51
148.87278553620391
  0
ARC
  5
678
  8
0
 10
48.81607155233641
 20
10.002289207834419
 30
0.0
 40
1.291105849095421
 50
288.2805954517151
 51
358.4358807712855
  0
LINE
  5
679
  8
0
 10
50.106696341342989
 20
9.9670476475666288
 30
0.0
 11
50.724925922641582
 21
17.03323822016576
 31
0.0
  0
ARC
  5
67A
  8
0
 10
50.914204053066548
 20
17.016691599592921
 30
0.0
 40
0.1900000034462016
 50
135.0027849438419
 51
175.0039263789329
  0
LINE
  5
67B
  8
0
 10
50.779853766899997
 20
17.151041882600001
 30
0.0
 11
50.996428670500002
 21
17.367616798699999
 31
0.0
  0
ARC
  5
67C
  8
0
 10
35.958814148794872
 20
5.739583469286095
 30
0.0
 40
3.181186900080613
 50
73.490855080199594
 51
93.784268179970837
  0
ARC
  5
67D
  8
0
 10
48.964504455342357
 20
5.8747741811474166
 30
0.0
 40
2.9128848879717761
 50
84.947335873839378
 51
106.7499734880347
  0
ARC
  5
67E
  8
0
 10
41.380441551999994
 20
7.3464956687999932
 30
0.0
 40
1.2500000000000031
 50
49.996114957689777
 51
87.999999902978729
  0
ARC
  5
67F
  8
0
 10
42.228989759379147
 20
8.3576167980146501
 30
0.0
 40
0.069999999314655
 50
229.99611472802911
 51
270.00000009891642
  0
LINE
  5
686
  8
0
 10
42.228989759499989
 20
8.2876167986999931
 30
0.0
 11
47.288989759499991
 21
8.2876167987000002
 31
0.0
  0
ARC
  5
687
  8
0
 10
47.288989759500012
 20
8.3576167986999899
 30
0.0
 40
0.0699999999999897
 50
270.00000207136912
 51
310.0038850382976
  0
ARC
  5
688
  8
0
 10
48.137537966485148
 20
7.3464956701673536
 30
0.0
 40
1.2499999985389569
 50
91.999999975142075
 51
130.00388560469
  0
LINE
  5
689
  8
0
 10
48.093913594006487
 20
8.5957342024999992
 30
0.0
 11
48.293393944107351
 21
8.6026837903475748
 31
0.0
  0
LINE
  5
68A
  8
0
 10
36.73699168080001
 20
8.7594104417
 30
0.0
 11
41.424065924993513
 21
8.5957342024999992
 31
0.0
  0
LINE
  5
68F
  8
0
 10
41.424065924993357
 20
8.5957342024999992
 30
0.0
 11
48.093913596200032
 21
8.5957342024999992
 31
0.0
  0
LINE
  5
6B8
  8
0
 10
34.273036596927902
 20
17.033238213657281
 30
0.0
 11
34.879914775037719
 21
10.09658923308244
 31
0.0
  0
ARC
  5
6B9
  8
0
 10
36.287504210055943
 20
10.186690679655159
 30
0.0
 40
1.4104702365698529
 50
183.66257295648131
 51
251.52010440198609
  0
ARC
  5
6BA
  8
0
 10
36.287133293163258
 20
10.21988000383319
 30
0.0
 40
1.412609158943217
 50
184.99561975368559
 51
247.6023249664434
  0
ATTDEF
  5
829
  8
DEFPOINTS
 10
43.754307632104243
 20
17.37739004910717
 30
0.0
 40
0.001
  1
K-5871-1A2
  3

  2
MODELNUMBER
 70
     0
1001
ACDBATTR
1070
     0
1070
     1
  0
ATTDEF
  5
82A
  8
DEFPOINTS
 10
43.754307632104243
 20
17.375723382440508
 30
0.0
 40
0.001
  1
RIVERBY
  3

  2
TRADENAME
 70
     0
1001
ACDBATTR
1070
     0
1070
     1
  0
ATTDEF
  5
82B
  8
DEFPOINTS
 10
43.754307632104243
 20
17.37405671577384
 30
0.0
 40
0.001
  1
KITCHEN SINK
  3

  2
PRODUCT
 70
     0
1001
ACDBATTR
1070
     0
1070
     1
  0
ATTDEF
  5
82C
  8
DEFPOINTS
 10
43.754307632104243
 20
17.372390049107171
 30
0.0
 40
0.001
  1
CAST IRON
  3

  2
MATERIAL
 70
     0
1001
ACDBATTR
1070
     0
1070
     1
  0
ENDSEC
  0
EOF
