  0
SECTION
  2
HEADER
  9
$ACADVER
  1
AC1009
  9
$INSBASE
 10
0.0
 20
0.0
 30
0.0
  9
$EXTMIN
 10
-0.3207880083956978
 20
-22.32925699879526
 30
0.0
  9
$EXTMAX
 10
25.33442429017488
 20
0.3259552997599222
 30
8.849999999999999
  9
$LIMMIN
 10
0.0
 20
0.0
  9
$LIMMAX
 10
12.0
 20
9.0
  9
$ORTHOMODE
 70
     1
  9
$REGENMODE
 70
     1
  9
$FILLMODE
 70
     1
  9
$QTEXTMODE
 70
     0
  9
$MIRRTEXT
 70
     1
  9
$DRAGMODE
 70
     2
  9
$LTSCALE
 40
1.0
  9
$OSMODE
 70
     0
  9
$ATTMODE
 70
     1
  9
$TEXTSIZE
 40
0.2
  9
$TRACEWID
 40
0.05
  9
$TEXTSTYLE
  7
STANDARD
  9
$CLAYER
  8
0
  9
$CELTYPE
  6
BYLAYER
  9
$CECOLOR
 62
   256
  9
$DIMSCALE
 40
1.0
  9
$DIMASZ
 40
0.18
  9
$DIMEXO
 40
0.0625
  9
$DIMDLI
 40
0.38
  9
$DIMRND
 40
0.0
  9
$DIMDLE
 40
0.0
  9
$DIMEXE
 40
0.18
  9
$DIMTP
 40
0.0
  9
$DIMTM
 40
0.0
  9
$DIMTXT
 40
0.18
  9
$DIMCEN
 40
0.09
  9
$DIMTSZ
 40
0.0
  9
$DIMTOL
 70
     0
  9
$DIMLIM
 70
     0
  9
$DIMTIH
 70
     1
  9
$DIMTOH
 70
     1
  9
$DIMSE1
 70
     0
  9
$DIMSE2
 70
     0
  9
$DIMTAD
 70
     0
  9
$DIMZIN
 70
     0
  9
$DIMBLK
  1

  9
$DIMASO
 70
     1
  9
$DIMSHO
 70
     1
  9
$DIMPOST
  1

  9
$DIMAPOST
  1

  9
$DIMALT
 70
     0
  9
$DIMALTD
 70
     2
  9
$DIMALTF
 40
25.4
  9
$DIMLFAC
 40
1.0
  9
$DIMTOFL
 70
     0
  9
$DIMTVP
 40
0.0
  9
$DIMTIX
 70
     0
  9
$DIMSOXD
 70
     0
  9
$DIMSAH
 70
     0
  9
$DIMBLK1
  1

  9
$DIMBLK2
  1

  9
$DIMSTYLE
  2
*UNNAMED
  9
$DIMCLRD
 70
     0
  9
$DIMCLRE
 70
     0
  9
$DIMCLRT
 70
     0
  9
$DIMTFAC
 40
1.0
  9
$DIMGAP
 40
0.09
  9
$LUNITS
 70
     2
  9
$LUPREC
 70
     4
  9
$SKETCHINC
 40
0.1
  9
$FILLETRAD
 40
0.0
  9
$AUNITS
 70
     0
  9
$AUPREC
 70
     0
  9
$MENU
  1
acad
  9
$ELEVATION
 40
0.0
  9
$PELEVATION
 40
0.0
  9
$THICKNESS
 40
0.0
  9
$LIMCHECK
 70
     0
  9
$BLIPMODE
 70
     1
  9
$CHAMFERA
 40
0.0
  9
$CHAMFERB
 40
0.0
  9
$SKPOLY
 70
     0
  9
$TDCREATE
 40
2449707.695645948
  9
$TDUPDATE
 40
2449757.606208333
  9
$TDINDWG
 40
0.0001087963
  9
$TDUSRTIMER
 40
0.0001087963
  9
$USRTIMER
 70
     1
  9
$ANGBASE
 50
0.0
  9
$ANGDIR
 70
     0
  9
$PDMODE
 70
     0
  9
$PDSIZE
 40
0.0
  9
$PLINEWID
 40
0.0
  9
$COORDS
 70
     1
  9
$SPLFRAME
 70
     0
  9
$SPLINETYPE
 70
     6
  9
$SPLINESEGS
 70
     8
  9
$ATTDIA
 70
     0
  9
$ATTREQ
 70
     1
  9
$HANDLING
 70
     0
  9
$HANDSEED
  5
0
  9
$SURFTAB1
 70
     6
  9
$SURFTAB2
 70
     6
  9
$SURFTYPE
 70
     6
  9
$SURFU
 70
     6
  9
$SURFV
 70
     6
  9
$UCSNAME
  2

  9
$UCSORG
 10
0.0
 20
0.0
 30
0.0
  9
$UCSXDIR
 10
1.0
 20
0.0
 30
0.0
  9
$UCSYDIR
 10
0.0
 20
1.0
 30
0.0
  9
$PUCSNAME
  2

  9
$PUCSORG
 10
0.0
 20
0.0
 30
0.0
  9
$PUCSXDIR
 10
1.0
 20
0.0
 30
0.0
  9
$PUCSYDIR
 10
0.0
 20
1.0
 30
0.0
  9
$USERI1
 70
     0
  9
$USERI2
 70
     0
  9
$USERI3
 70
     0
  9
$USERI4
 70
     0
  9
$USERI5
 70
     0
  9
$USERR1
 40
0.0
  9
$USERR2
 40
0.0
  9
$USERR3
 40
0.0
  9
$USERR4
 40
0.0
  9
$USERR5
 40
0.0
  9
$WORLDVIEW
 70
     1
  9
$SHADEDGE
 70
     3
  9
$SHADEDIF
 70
    70
  9
$TILEMODE
 70
     1
  9
$MAXACTVP
 70
    16
  9
$PINSBASE
 10
0.0
 20
0.0
 30
2.05828667539408
  9
$PLIMCHECK
 70
     0
  9
$PEXTMIN
 10
1.000000000000000E+20
 20
1.000000000000000E+20
 30
1.000000000000000E+20
  9
$PEXTMAX
 10
-1.000000000000000E+20
 20
-1.000000000000000E+20
 30
-1.000000000000000E+20
  9
$PLIMMIN
 10
0.0
 20
0.0
  9
$PLIMMAX
 10
12.0
 20
9.0
  9
$UNITMODE
 70
     0
  9
$VISRETAIN
 70
     0
  9
$PLINEGEN
 70
     0
  9
$PSLTSCALE
 70
     1
  9
$TREEDEPTH
 70
  3020
  9
$DWGCODEPAGE
  3
ascii
  0
ENDSEC
  0
SECTION
  2
TABLES
  0
TABLE
  2
VPORT
 70
     1
  0
VPORT
  2
*ACTIVE
 70
     0
 10
0.0
 20
0.0
 11
1.0
 21
1.0
 12
22.36401037111132
 22
-1.156810226819201
 13
0.0
 23
0.0
 14
1.0
 24
1.0
 15
0.0
 25
0.0
 16
-0.241844762647975
 26
-0.6644630243886748
 36
0.7071067811865475
 17
0.0
 27
0.0
 37
0.0
 40
26.92494647635275
 41
1.661211129296235
 42
50.0
 43
0.0
 44
0.0
 50
0.0
 51
0.0
 71
     0
 72
   100
 73
     1
 74
     0
 75
     0
 76
     0
 77
     0
 78
     0
  0
ENDTAB
  0
TABLE
  2
LTYPE
 70
     1
  0
LTYPE
  2
CONTINUOUS
 70
    64
  3
Solid line
 72
    65
 73
     0
 40
0.0
  0
ENDTAB
  0
TABLE
  2
LAYER
 70
     5
  0
LAYER
  2
0
 70
    64
 62
     7
  6
CONTINUOUS
  0
LAYER
  2
RK-SINKB
 70
    64
 62
     7
  6
CONTINUOUS
  0
LAYER
  2
RK-DRAIN
 70
    64
 62
     7
  6
CONTINUOUS
  0
LAYER
  2
CNTRCUTR
 70
    64
 62
     7
  6
CONTINUOUS
  0
LAYER
  2
FK-FOOTP
 70
    64
 62
     7
  6
CONTINUOUS
  0
ENDTAB
  0
TABLE
  2
STYLE
 70
     1
  0
STYLE
  2
STANDARD
 70
     0
 40
0.0
 41
1.0
 50
0.0
 71
     0
 42
0.2
  3
txt
  4

  0
ENDTAB
  0
TABLE
  2
VIEW
 70
     0
  0
ENDTAB
  0
TABLE
  2
UCS
 70
     0
  0
ENDTAB
  0
TABLE
  2
APPID
 70
     3
  0
APPID
  2
ACAD
 70
    64
  0
APPID
  2
CDKT-SIZ
 70
    64
  0
APPID
  2
CDKT-STR2
 70
    64
  0
ENDTAB
  0
TABLE
  2
DIMSTYLE
 70
     0
  0
ENDTAB
  0
ENDSEC
  0
SECTION
  2
BLOCKS
  0
BLOCK
  8
0
  2
05964PLN
 70
    64
 10
0.0
 20
0.0
 30
0.0
  3
05964PLN
  0
LINE
  8
FK-FOOTP
 10
20.57356608478803
 20
18.85162094763092
 30
0.0
 11
20.57356608478803
 21
18.85162094763092
 31
0.0
  0
LINE
  8
FK-FOOTP
 10
16.53678304239402
 20
18.85162094763092
 30
0.0
 11
16.53678304239402
 21
18.85162094763092
 31
0.0
  0
LINE
  8
FK-FOOTP
 10
12.5
 20
18.85162094763092
 30
0.0
 11
12.5
 21
18.85162094763092
 31
0.0
  0
LINE
  8
FK-FOOTP
 10
8.463216957605986
 20
18.85162094763092
 30
0.0
 11
8.463216957605986
 21
18.85162094763092
 31
0.0
  0
ARC
  8
FK-FOOTP
 10
20.66708229426434
 20
17.8073566084788
 30
0.0
 40
2.493765586034914
 50
0.1999999999942836
 51
89.79999999743332
  0
ARC
  8
FK-FOOTP
 10
20.66708229426434
 20
14.67456359102244
 30
0.0
 40
2.493765586034914
 50
0.1999999999942836
 51
89.79999999743332
  0
ARC
  8
FK-FOOTP
 10
20.66708229426434
 20
4.332917705735667
 30
0.0
 40
2.493765586034914
 50
270.1999999922771
 51
359.7999999897162
  0
ARC
  8
FK-FOOTP
 10
23.45698254364091
 20
1.543017456359102
 30
0.0
 40
1.543017456359103
 50
269.3999999922999
 51
0.5999999999828508
  0
ARC
  8
FK-FOOTP
 10
23.45698254364091
 20
20.45698254364089
 30
0.0
 40
1.543017456359103
 50
359.3999999897276
 51
90.59999999741046
  0
ARC
  8
FK-FOOTP
 10
4.33291770573566
 20
17.8073566084788
 30
0.0
 40
2.493765586034914
 50
90.19999999742191
 51
179.7999999948609
  0
ARC
  8
FK-FOOTP
 10
4.33291770573566
 20
14.67456359102244
 30
0.0
 40
2.493765586034914
 50
90.19999999742191
 51
179.7999999948609
  0
ARC
  8
FK-FOOTP
 10
4.33291770573566
 20
4.332917705735667
 30
0.0
 40
2.493765586034914
 50
180.1999999948495
 51
269.7999999922885
  0
ARC
  8
FK-FOOTP
 10
1.5430174563591
 20
1.543017456359102
 30
0.0
 40
1.543017456359103
 50
179.3999999948723
 51
270.5999999922657
  0
ARC
  8
FK-FOOTP
 10
1.5430174563591
 20
20.45698254364089
 30
0.0
 40
1.543017456359103
 50
89.39999999744477
 51
180.599999994838
  0
CIRCLE
  8
FK-FOOTP
 10
12.5
 20
9.499915395374571
 30
0.0
 40
1.745635910224439
  0
LINE
  8
FK-FOOTP
 10
0.0
 20
20.44139650872817
 30
0.0
 11
0.0
 21
1.558603491271824
 31
0.0
  0
LINE
  8
FK-FOOTP
 10
1.558603491271821
 20
0.0
 30
0.0
 11
23.44139650872818
 21
0.0
 31
0.0
  0
LINE
  8
FK-FOOTP
 10
23.16084788029925
 20
4.332917705735667
 30
0.0
 11
23.16084788029925
 21
17.8073566084788
 31
0.0
  0
LINE
  8
FK-FOOTP
 10
25.0
 20
20.44139650872817
 30
0.0
 11
25.0
 21
1.558603491271824
 31
0.0
  0
LINE
  8
FK-FOOTP
 10
20.66708229426434
 20
1.839152119700749
 30
0.0
 11
4.33291770573566
 21
1.839152119700749
 31
0.0
  0
LINE
  8
FK-FOOTP
 10
4.33291770573566
 20
17.16832917705734
 30
0.0
 11
20.66708229426434
 21
17.16832917705734
 31
0.0
  0
LINE
  8
FK-FOOTP
 10
1.839152119700747
 20
4.332917705735667
 30
0.0
 11
1.839152119700747
 21
17.8073566084788
 31
0.0
  0
LINE
  8
FK-FOOTP
 10
1.558603491271821
 20
22.0
 30
0.0
 11
23.44139650872818
 21
22.0
 31
0.0
  0
LINE
  8
FK-FOOTP
 10
20.66708229426434
 20
20.30112219451372
 30
0.0
 11
4.33291770573566
 21
20.30112219451372
 31
0.0
  0
ENDBLK
  8
0
  0
ENDSEC
  0
SECTION
  2
ENTITIES
  0
POLYLINE
  8
CNTRCUTR
 66
     1
 10
0.0
 20
0.0
 30
8.349999999999999
 70
     1
1001
CDKT-SIZ
1002
{
1010
24.999998
1020
-21.999999
1030
8.849999999999999
1002
}
1001
CDKT-STR2
1070
     2
1010
20.58214232340396
1020
-3.127056688351867
1030
8.609999999999999
1040
4.712388980384689
1070
     2
1010
16.53950797564498
1020
-3.159129169338422
1030
8.609999999999999
1040
4.712388980384689
1070
     2
1010
8.454239280127019
1020
-3.159129169338422
1030
8.609999999999999
1040
4.712388980384689
1070
    30
1010
12.496873627886
1020
-3.191201526012072
1030
8.609999999999999
1040
4.712388980384689
  0
VERTEX
  8
CNTRCUTR
 10
1.260109260550613
 20
-20.83874940928127
 30
8.349999999999999
  0
VERTEX
  8
CNTRCUTR
 10
23.79671764607099
 20
-20.83874940928127
 30
8.349999999999999
  0
VERTEX
  8
CNTRCUTR
 10
23.79671764607099
 20
-1.24043469696264
 30
8.349999999999999
  0
VERTEX
  8
CNTRCUTR
 10
1.220501856065389
 20
-1.24043469696264
 30
8.349999999999999
  0
SEQEND
  8
CNTRCUTR
  0
POLYLINE
  8
RK-SINKB
 66
     1
 10
0.0
 20
0.0
 30
0.0
 70
    64
 71
     6
 72
     3
  0
VERTEX
  8
RK-SINKB
 10
22.866789
 20
-17.999999
 30
1.830303999999999
 70
   192
  0
VERTEX
  8
RK-SINKB
 10
22.72468799999999
 20
-18.71438799999999
 30
1.830303999999999
 70
   192
  0
VERTEX
  8
RK-SINKB
 10
22.84775899999999
 20
-18.765366
 30
2.5
 70
   192
  0
VERTEX
  8
RK-SINKB
 10
23.0
 20
-17.999999
 30
2.5
 70
   192
  0
VERTEX
  8
RK-SINKB
 10
21.0
 20
-5.258210999999999
 30
1.830303999999999
 70
   192
  0
VERTEX
  8
RK-SINKB
 10
21.71438999999999
 20
-5.400309999999997
 30
1.830303999999999
 70
   192
  0
VERTEX
  8
RK-SINKB
 10
21.765368
 20
-5.277240000000002
 30
2.5
 70
   192
  0
VERTEX
  8
RK-SINKB
 10
21.0
 20
-5.125
 30
2.5
 70
   192
  0
VERTEX
  8
RK-SINKB
 10
22.320019
 20
-19.320018
 30
1.830303999999999
 70
   192
  0
VERTEX
  8
RK-SINKB
 10
21.71438999999999
 20
-19.724687
 30
1.830303999999999
 70
   192
  0
VERTEX
  8
RK-SINKB
 10
21.765368
 20
-19.84775799999999
 30
2.5
 70
   192
  0
VERTEX
  8
RK-SINKB
 10
22.414213
 20
-19.414213
 30
2.5
 70
   192
  0
VERTEX
  8
RK-SINKB
 10
21.569218
 20
-19.374212
 30
1.262563
 70
   192
  0
VERTEX
  8
RK-SINKB
 10
21.0
 20
-19.487436
 30
1.262563
 70
   192
  0
VERTEX
  8
RK-SINKB
 10
21.0
 20
-19.86678799999999
 30
1.830303999999999
 70
   192
  0
VERTEX
  8
RK-SINKB
 10
22.05177699999999
 20
-19.051776
 30
1.262563
 70
   192
  0
VERTEX
  8
RK-SINKB
 10
22.37421199999999
 20
-18.569217
 30
1.262563
 70
   192
  0
VERTEX
  8
RK-SINKB
 10
22.487436
 20
-17.999999
 30
1.262563
 70
   192
  0
VERTEX
  8
RK-SINKB
 10
21.35195199999999
 20
-18.849687
 30
0.8832109999999993
 70
   192
  0
VERTEX
  8
RK-SINKB
 10
21.0
 20
-18.919695
 30
0.8832109999999993
 70
   192
  0
VERTEX
  8
RK-SINKB
 10
21.650324
 20
-18.650322
 30
0.8832109999999993
 70
   192
  0
VERTEX
  8
RK-SINKB
 10
21.849688
 20
-18.351952
 30
0.8832109999999993
 70
   192
  0
VERTEX
  8
RK-SINKB
 10
21.919697
 20
-17.999999
 30
0.8832109999999993
 70
   192
  0
VERTEX
  8
RK-SINKB
 10
21.17677699999999
 20
-18.176776
 30
0.75
 70
   192
  0
VERTEX
  8
RK-SINKB
 10
21.095671
 20
-18.230969
 30
0.75
 70
   192
  0
VERTEX
  8
RK-SINKB
 10
21.23097
 20
-18.09567
 30
0.75
 70
   192
  0
VERTEX
  8
RK-SINKB
 10
21.0
 20
-19.999999
 30
2.5
 70
   192
  0
VERTEX
  8
RK-SINKB
 10
22.966374
 20
-17.999999
 30
2.158591999999999
 70
   192
  0
VERTEX
  8
RK-SINKB
 10
21.0
 20
-19.705071
 30
1.527752
 70
   192
  0
VERTEX
  8
RK-SINKB
 10
22.70507199999999
 20
-17.999999
 30
1.527752
 70
   192
  0
VERTEX
  8
RK-SINKB
 10
21.0
 20
-19.222247
 30
1.044927999999999
 70
   192
  0
VERTEX
  8
RK-SINKB
 10
22.222248
 20
-17.999999
 30
1.044927999999999
 70
   192
  0
VERTEX
  8
RK-SINKB
 10
21.0
 20
-18.249999
 30
0.75
 70
   192
  0
VERTEX
  8
RK-SINKB
 10
21.0
 20
-18.591407
 30
0.7836259999999991
 70
   192
  0
VERTEX
  8
RK-SINKB
 10
21.25
 20
-17.999999
 30
0.75
 70
   192
  0
VERTEX
  8
RK-SINKB
 10
21.591408
 20
-17.999999
 30
0.7836259999999991
 70
   192
  0
VERTEX
  8
RK-SINKB
 10
4.0
 20
-19.999999
 30
2.5
 70
   192
  0
VERTEX
  8
RK-SINKB
 10
4.0
 20
-19.86678799999999
 30
1.830303999999999
 70
   192
  0
VERTEX
  8
RK-SINKB
 10
4.0
 20
-19.487436
 30
1.262563
 70
   192
  0
VERTEX
  8
RK-SINKB
 10
4.0
 20
-18.919695
 30
0.8832109999999993
 70
   192
  0
VERTEX
  8
RK-SINKB
 10
4.0
 20
-18.249999
 30
0.75
 70
   192
  0
VERTEX
  8
RK-SINKB
 10
2.679980999999999
 20
-19.320018
 30
1.830303999999999
 70
   192
  0
VERTEX
  8
RK-SINKB
 10
2.275311
 20
-18.71438799999999
 30
1.830303999999999
 70
   192
  0
VERTEX
  8
RK-SINKB
 10
2.152241
 20
-18.765366
 30
2.5
 70
   192
  0
VERTEX
  8
RK-SINKB
 10
2.585787000000001
 20
-19.414213
 30
2.5
 70
   192
  0
VERTEX
  8
RK-SINKB
 10
3.285612
 20
-19.724687
 30
1.830303999999999
 70
   192
  0
VERTEX
  8
RK-SINKB
 10
3.234633
 20
-19.84775799999999
 30
2.5
 70
   192
  0
VERTEX
  8
RK-SINKB
 10
2.625788
 20
-18.569217
 30
1.262563
 70
   192
  0
VERTEX
  8
RK-SINKB
 10
2.512563999999999
 20
-17.999999
 30
1.262563
 70
   192
  0
VERTEX
  8
RK-SINKB
 10
2.133210999999999
 20
-17.999999
 30
1.830303999999999
 70
   192
  0
VERTEX
  8
RK-SINKB
 10
2.948222999999998
 20
-19.051776
 30
1.262563
 70
   192
  0
VERTEX
  8
RK-SINKB
 10
3.430782
 20
-19.374212
 30
1.262563
 70
   192
  0
VERTEX
  8
RK-SINKB
 10
3.150311
 20
-18.351952
 30
0.8832109999999993
 70
   192
  0
VERTEX
  8
RK-SINKB
 10
3.080305
 20
-17.999999
 30
0.8832109999999993
 70
   192
  0
VERTEX
  8
RK-SINKB
 10
3.349676
 20
-18.650322
 30
0.8832109999999993
 70
   192
  0
VERTEX
  8
RK-SINKB
 10
3.648047
 20
-18.849687
 30
0.8832109999999993
 70
   192
  0
VERTEX
  8
RK-SINKB
 10
3.823222999999998
 20
-18.176776
 30
0.75
 70
   192
  0
VERTEX
  8
RK-SINKB
 10
3.76903
 20
-18.09567
 30
0.75
 70
   192
  0
VERTEX
  8
RK-SINKB
 10
3.904329
 20
-18.230969
 30
0.75
 70
   192
  0
VERTEX
  8
RK-SINKB
 10
2.033625
 20
-17.999999
 30
2.158591999999999
 70
   192
  0
VERTEX
  8
RK-SINKB
 10
2.0
 20
-17.999999
 30
2.5
 70
   192
  0
VERTEX
  8
RK-SINKB
 10
4.0
 20
-19.966373
 30
2.158591999999999
 70
   192
  0
VERTEX
  8
RK-SINKB
 10
2.294928
 20
-17.999999
 30
1.527752
 70
   192
  0
VERTEX
  8
RK-SINKB
 10
4.0
 20
-19.705071
 30
1.527752
 70
   192
  0
VERTEX
  8
RK-SINKB
 10
2.777751999999999
 20
-17.999999
 30
1.044927999999999
 70
   192
  0
VERTEX
  8
RK-SINKB
 10
4.0
 20
-19.222247
 30
1.044927999999999
 70
   192
  0
VERTEX
  8
RK-SINKB
 10
3.75
 20
-17.999999
 30
0.75
 70
   192
  0
VERTEX
  8
RK-SINKB
 10
3.408592
 20
-17.999999
 30
0.7836259999999991
 70
   192
  0
VERTEX
  8
RK-SINKB
 10
4.0
 20
-18.591407
 30
0.7836259999999991
 70
   192
  0
VERTEX
  8
RK-SINKB
 10
3.754802999999999
 20
-18.04877199999999
 30
0.75
 70
   192
  0
VERTEX
  8
RK-SINKB
 10
3.792130999999999
 20
-18.138892
 30
0.75
 70
   192
  0
VERTEX
  8
RK-SINKB
 10
3.861107
 20
-18.207866
 30
0.75
 70
   192
  0
VERTEX
  8
RK-SINKB
 10
3.951227000000001
 20
-18.245195
 30
0.75
 70
   192
  0
VERTEX
  8
RK-SINKB
 10
2.133210999999999
 20
-7.125
 30
1.830303999999999
 70
   192
  0
VERTEX
  8
RK-SINKB
 10
2.0
 20
-7.125
 30
2.5
 70
   192
  0
VERTEX
  8
RK-SINKB
 10
2.512563999999999
 20
-7.125
 30
1.262563
 70
   192
  0
VERTEX
  8
RK-SINKB
 10
3.080305
 20
-7.125
 30
0.8832109999999993
 70
   192
  0
VERTEX
  8
RK-SINKB
 10
3.75
 20
-7.125
 30
0.75
 70
   192
  0
VERTEX
  8
RK-SINKB
 10
22.320019
 20
-5.804981000000001
 30
1.830303999999999
 70
   192
  0
VERTEX
  8
RK-SINKB
 10
22.72468799999999
 20
-6.410609999999998
 30
1.830303999999999
 70
   192
  0
VERTEX
  8
RK-SINKB
 10
22.84775899999999
 20
-6.359631999999997
 30
2.5
 70
   192
  0
VERTEX
  8
RK-SINKB
 10
22.414213
 20
-5.710785999999998
 30
2.5
 70
   192
  0
VERTEX
  8
RK-SINKB
 10
22.37421199999999
 20
-6.555782
 30
1.262563
 70
   192
  0
VERTEX
  8
RK-SINKB
 10
22.487436
 20
-7.125
 30
1.262563
 70
   192
  0
VERTEX
  8
RK-SINKB
 10
22.866789
 20
-7.125
 30
1.830303999999999
 70
   192
  0
VERTEX
  8
RK-SINKB
 10
22.05177699999999
 20
-6.073222999999998
 30
1.262563
 70
   192
  0
VERTEX
  8
RK-SINKB
 10
21.569218
 20
-5.750787000000002
 30
1.262563
 70
   192
  0
VERTEX
  8
RK-SINKB
 10
21.0
 20
-5.637561000000001
 30
1.262563
 70
   192
  0
VERTEX
  8
RK-SINKB
 10
21.849688
 20
-6.773046
 30
0.8832109999999993
 70
   192
  0
VERTEX
  8
RK-SINKB
 10
21.919697
 20
-7.125
 30
0.8832109999999993
 70
   192
  0
VERTEX
  8
RK-SINKB
 10
21.650324
 20
-6.474675999999998
 30
0.8832109999999993
 70
   192
  0
VERTEX
  8
RK-SINKB
 10
21.35195199999999
 20
-6.275309999999997
 30
0.8832109999999993
 70
   192
  0
VERTEX
  8
RK-SINKB
 10
21.0
 20
-6.205303
 30
0.8832109999999993
 70
   192
  0
VERTEX
  8
RK-SINKB
 10
21.17677699999999
 20
-6.948222999999998
 30
0.75
 70
   192
  0
VERTEX
  8
RK-SINKB
 10
21.23097
 20
-7.029329
 30
0.75
 70
   192
  0
VERTEX
  8
RK-SINKB
 10
21.095671
 20
-6.894028999999999
 30
0.75
 70
   192
  0
VERTEX
  8
RK-SINKB
 10
22.966374
 20
-7.125
 30
2.158591999999999
 70
   192
  0
VERTEX
  8
RK-SINKB
 10
23.0
 20
-7.125
 30
2.5
 70
   192
  0
VERTEX
  8
RK-SINKB
 10
21.0
 20
-5.158623999999999
 30
2.158591999999999
 70
   192
  0
VERTEX
  8
RK-SINKB
 10
22.70507199999999
 20
-7.125
 30
1.527752
 70
   192
  0
VERTEX
  8
RK-SINKB
 10
21.0
 20
-5.419927000000001
 30
1.527752
 70
   192
  0
VERTEX
  8
RK-SINKB
 10
22.222248
 20
-7.125
 30
1.044927999999999
 70
   192
  0
VERTEX
  8
RK-SINKB
 10
21.0
 20
-5.902750999999998
 30
1.044927999999999
 70
   192
  0
VERTEX
  8
RK-SINKB
 10
21.591408
 20
-7.125
 30
0.7836259999999991
 70
   192
  0
VERTEX
  8
RK-SINKB
 10
21.25
 20
-7.125
 30
0.75
 70
   192
  0
VERTEX
  8
RK-SINKB
 10
21.0
 20
-6.875
 30
0.75
 70
   192
  0
VERTEX
  8
RK-SINKB
 10
21.0
 20
-6.533591999999998
 30
0.7836259999999991
 70
   192
  0
VERTEX
  8
RK-SINKB
 10
2.679980999999999
 20
-5.804981000000001
 30
1.830303999999999
 70
   192
  0
VERTEX
  8
RK-SINKB
 10
3.285612
 20
-5.400309999999997
 30
1.830303999999999
 70
   192
  0
VERTEX
  8
RK-SINKB
 10
3.234633
 20
-5.277240000000002
 30
2.5
 70
   192
  0
VERTEX
  8
RK-SINKB
 10
2.585787000000001
 20
-5.710785999999998
 30
2.5
 70
   192
  0
VERTEX
  8
RK-SINKB
 10
2.275311
 20
-6.410609999999998
 30
1.830303999999999
 70
   192
  0
VERTEX
  8
RK-SINKB
 10
2.152241
 20
-6.359631999999997
 30
2.5
 70
   192
  0
VERTEX
  8
RK-SINKB
 10
3.430782
 20
-5.750787000000002
 30
1.262563
 70
   192
  0
VERTEX
  8
RK-SINKB
 10
4.0
 20
-5.637561000000001
 30
1.262563
 70
   192
  0
VERTEX
  8
RK-SINKB
 10
4.0
 20
-5.258210999999999
 30
1.830303999999999
 70
   192
  0
VERTEX
  8
RK-SINKB
 10
2.948222999999998
 20
-6.073222999999998
 30
1.262563
 70
   192
  0
VERTEX
  8
RK-SINKB
 10
2.625788
 20
-6.555782
 30
1.262563
 70
   192
  0
VERTEX
  8
RK-SINKB
 10
3.648047
 20
-6.275309999999997
 30
0.8832109999999993
 70
   192
  0
VERTEX
  8
RK-SINKB
 10
4.0
 20
-6.205303
 30
0.8832109999999993
 70
   192
  0
VERTEX
  8
RK-SINKB
 10
3.349676
 20
-6.474675999999998
 30
0.8832109999999993
 70
   192
  0
VERTEX
  8
RK-SINKB
 10
3.150311
 20
-6.773046
 30
0.8832109999999993
 70
   192
  0
VERTEX
  8
RK-SINKB
 10
3.823222999999998
 20
-6.948222999999998
 30
0.75
 70
   192
  0
VERTEX
  8
RK-SINKB
 10
3.904329
 20
-6.894028999999999
 30
0.75
 70
   192
  0
VERTEX
  8
RK-SINKB
 10
3.76903
 20
-7.029329
 30
0.75
 70
   192
  0
VERTEX
  8
RK-SINKB
 10
4.0
 20
-5.125
 30
2.5
 70
   192
  0
VERTEX
  8
RK-SINKB
 10
2.033625
 20
-7.125
 30
2.158591999999999
 70
   192
  0
VERTEX
  8
RK-SINKB
 10
4.0
 20
-5.419927000000001
 30
1.527752
 70
   192
  0
VERTEX
  8
RK-SINKB
 10
2.294928
 20
-7.125
 30
1.527752
 70
   192
  0
VERTEX
  8
RK-SINKB
 10
4.0
 20
-5.902750999999998
 30
1.044927999999999
 70
   192
  0
VERTEX
  8
RK-SINKB
 10
2.777751999999999
 20
-7.125
 30
1.044927999999999
 70
   192
  0
VERTEX
  8
RK-SINKB
 10
4.0
 20
-6.533591999999998
 30
0.7836259999999991
 70
   192
  0
VERTEX
  8
RK-SINKB
 10
4.0
 20
-6.875
 30
0.75
 70
   192
  0
VERTEX
  8
RK-SINKB
 10
3.408592
 20
-7.125
 30
0.7836259999999991
 70
   192
  0
VERTEX
  8
RK-SINKB
 10
3.951227000000001
 20
-6.879802000000001
 30
0.75
 70
   192
  0
VERTEX
  8
RK-SINKB
 10
3.861107
 20
-6.917132999999999
 30
0.75
 70
   192
  0
VERTEX
  8
RK-SINKB
 10
3.792130999999999
 20
-6.986105999999999
 30
0.75
 70
   192
  0
VERTEX
  8
RK-SINKB
 10
3.754802999999999
 20
-7.076226999999999
 30
0.75
 70
   192
  0
VERTEX
  8
RK-SINKB
 10
22.84775899999999
 20
-6.359631999999997
 30
8.349999999999999
 70
   192
  0
VERTEX
  8
RK-SINKB
 10
23.0
 20
-7.125
 30
8.349999999999999
 70
   192
  0
VERTEX
  8
RK-SINKB
 10
22.414213
 20
-5.710785999999998
 30
8.349999999999999
 70
   192
  0
VERTEX
  8
RK-SINKB
 10
21.765368
 20
-5.277240000000002
 30
8.349999999999999
 70
   192
  0
VERTEX
  8
RK-SINKB
 10
21.0
 20
-5.125
 30
8.349999999999999
 70
   192
  0
VERTEX
  8
RK-SINKB
 10
21.0
 20
-19.999999
 30
8.349999999999999
 70
   192
  0
VERTEX
  8
RK-SINKB
 10
21.765368
 20
-19.84775799999999
 30
8.349999999999999
 70
   192
  0
VERTEX
  8
RK-SINKB
 10
22.414213
 20
-19.414213
 30
8.349999999999999
 70
   192
  0
VERTEX
  8
RK-SINKB
 10
22.84775899999999
 20
-18.765366
 30
8.349999999999999
 70
   192
  0
VERTEX
  8
RK-SINKB
 10
23.0
 20
-17.999999
 30
8.349999999999999
 70
   192
  0
VERTEX
  8
RK-SINKB
 10
2.152241
 20
-18.765366
 30
8.349999999999999
 70
   192
  0
VERTEX
  8
RK-SINKB
 10
2.0
 20
-17.999999
 30
8.349999999999999
 70
   192
  0
VERTEX
  8
RK-SINKB
 10
2.585787000000001
 20
-19.414213
 30
8.349999999999999
 70
   192
  0
VERTEX
  8
RK-SINKB
 10
3.234633
 20
-19.84775799999999
 30
8.349999999999999
 70
   192
  0
VERTEX
  8
RK-SINKB
 10
4.0
 20
-19.999999
 30
8.349999999999999
 70
   192
  0
VERTEX
  8
RK-SINKB
 10
3.234633
 20
-5.277240000000002
 30
8.349999999999999
 70
   192
  0
VERTEX
  8
RK-SINKB
 10
4.0
 20
-5.125
 30
8.349999999999999
 70
   192
  0
VERTEX
  8
RK-SINKB
 10
2.585787000000001
 20
-5.710785999999998
 30
8.349999999999999
 70
   192
  0
VERTEX
  8
RK-SINKB
 10
2.152241
 20
-6.359631999999997
 30
8.349999999999999
 70
   192
  0
VERTEX
  8
RK-SINKB
 10
2.0
 20
-7.125
 30
8.349999999999999
 70
   192
  0
VERTEX
  8
RK-SINKB
 10
23.0
 20
-7.228550999999999
 30
8.349999999999999
 70
   192
  0
VERTEX
  8
RK-SINKB
 10
23.0
 20
-17.896446
 30
8.349999999999999
 70
   192
  0
VERTEX
  8
RK-SINKB
 10
4.103552
 20
-5.125
 30
8.349999999999999
 70
   192
  0
VERTEX
  8
RK-SINKB
 10
20.89644599999999
 20
-5.125
 30
8.349999999999999
 70
   192
  0
VERTEX
  8
RK-SINKB
 10
2.0
 20
-7.228550999999999
 30
8.349999999999999
 70
   192
  0
VERTEX
  8
RK-SINKB
 10
2.0
 20
-17.896446
 30
8.349999999999999
 70
   192
  0
VERTEX
  8
RK-SINKB
 10
20.89644599999999
 20
-19.999999
 30
8.349999999999999
 70
   192
  0
VERTEX
  8
RK-SINKB
 10
4.103552
 20
-19.999999
 30
8.349999999999999
 70
   192
  0
VERTEX
  8
RK-SINKB
 10
14.57873
 20
-13.361038
 30
0.75
 70
   192
  0
VERTEX
  8
RK-SINKB
 10
14.75
 20
-12.5
 30
0.75
 70
   192
  0
VERTEX
  8
RK-SINKB
 10
14.09099
 20
-14.09099
 30
0.75
 70
   192
  0
VERTEX
  8
RK-SINKB
 10
13.361038
 20
-14.578727
 30
0.75
 70
   192
  0
VERTEX
  8
RK-SINKB
 10
12.5
 20
-14.749999
 30
0.75
 70
   192
  0
VERTEX
  8
RK-SINKB
 10
11.63896199999999
 20
-14.578727
 30
0.75
 70
   192
  0
VERTEX
  8
RK-SINKB
 10
10.90900999999999
 20
-14.09099
 30
0.75
 70
   192
  0
VERTEX
  8
RK-SINKB
 10
10.42127
 20
-13.361038
 30
0.75
 70
   192
  0
VERTEX
  8
RK-SINKB
 10
10.25
 20
-12.5
 30
0.75
 70
   192
  0
VERTEX
  8
RK-SINKB
 10
10.42127
 20
-11.63896099999999
 30
0.75
 70
   192
  0
VERTEX
  8
RK-SINKB
 10
10.90900999999999
 20
-10.909009
 30
0.75
 70
   192
  0
VERTEX
  8
RK-SINKB
 10
14.57873
 20
-11.63896099999999
 30
0.75
 70
   192
  0
VERTEX
  8
RK-SINKB
 10
11.63896199999999
 20
-10.42127
 30
0.75
 70
   192
  0
VERTEX
  8
RK-SINKB
 10
12.5
 20
-10.25
 30
0.75
 70
   192
  0
VERTEX
  8
RK-SINKB
 10
14.09099
 20
-10.909009
 30
0.75
 70
   192
  0
VERTEX
  8
RK-SINKB
 10
13.361038
 20
-10.42127
 30
0.75
 70
   192
  0
VERTEX
  8
RK-SINKB
 10
21.667795
 20
-4.976385
 30
8.599999999999999
 70
   192
  0
VERTEX
  8
RK-SINKB
 10
21.520779
 20
-5.219784999999998
 30
8.349999999999999
 70
   192
  0
VERTEX
  8
RK-SINKB
 10
21.0
 20
-4.875
 30
8.599999999999999
 70
   192
  0
VERTEX
  8
RK-SINKB
 10
22.59098999999999
 20
-5.534009000000001
 30
8.599999999999999
 70
   192
  0
VERTEX
  8
RK-SINKB
 10
22.383883
 20
-5.741115
 30
8.349999999999999
 70
   192
  0
VERTEX
  8
RK-SINKB
 10
22.905214
 20
-6.604220999999999
 30
8.349999999999999
 70
   192
  0
VERTEX
  8
RK-SINKB
 10
23.148615
 20
-6.457201999999998
 30
8.599999999999999
 70
   192
  0
VERTEX
  8
RK-SINKB
 10
23.25
 20
-7.125
 30
8.599999999999999
 70
   192
  0
VERTEX
  8
RK-SINKB
 10
23.148615
 20
-18.667795
 30
8.599999999999999
 70
   192
  0
VERTEX
  8
RK-SINKB
 10
22.905214
 20
-18.520777
 30
8.349999999999999
 70
   192
  0
VERTEX
  8
RK-SINKB
 10
23.25
 20
-17.999999
 30
8.599999999999999
 70
   192
  0
VERTEX
  8
RK-SINKB
 10
22.59098999999999
 20
-19.590989
 30
8.599999999999999
 70
   192
  0
VERTEX
  8
RK-SINKB
 10
22.383883
 20
-19.383883
 30
8.349999999999999
 70
   192
  0
VERTEX
  8
RK-SINKB
 10
21.520779
 20
-19.905213
 30
8.349999999999999
 70
   192
  0
VERTEX
  8
RK-SINKB
 10
21.667795
 20
-20.148614
 30
8.599999999999999
 70
   192
  0
VERTEX
  8
RK-SINKB
 10
21.0
 20
-20.249999
 30
8.599999999999999
 70
   192
  0
VERTEX
  8
RK-SINKB
 10
3.332202999999999
 20
-20.148614
 30
8.599999999999999
 70
   192
  0
VERTEX
  8
RK-SINKB
 10
3.479222999999999
 20
-19.905213
 30
8.349999999999999
 70
   192
  0
VERTEX
  8
RK-SINKB
 10
4.0
 20
-20.249999
 30
8.599999999999999
 70
   192
  0
VERTEX
  8
RK-SINKB
 10
2.616115999999999
 20
-19.383883
 30
8.349999999999999
 70
   192
  0
VERTEX
  8
RK-SINKB
 10
2.40901
 20
-19.590989
 30
8.599999999999999
 70
   192
  0
VERTEX
  8
RK-SINKB
 10
1.851385
 20
-18.667795
 30
8.599999999999999
 70
   192
  0
VERTEX
  8
RK-SINKB
 10
2.094785999999999
 20
-18.520777
 30
8.349999999999999
 70
   192
  0
VERTEX
  8
RK-SINKB
 10
1.75
 20
-17.999999
 30
8.599999999999999
 70
   192
  0
VERTEX
  8
RK-SINKB
 10
1.851385
 20
-6.457201999999998
 30
8.599999999999999
 70
   192
  0
VERTEX
  8
RK-SINKB
 10
2.094785999999999
 20
-6.604220999999999
 30
8.349999999999999
 70
   192
  0
VERTEX
  8
RK-SINKB
 10
1.75
 20
-7.125
 30
8.599999999999999
 70
   192
  0
VERTEX
  8
RK-SINKB
 10
2.616115999999999
 20
-5.741115
 30
8.349999999999999
 70
   192
  0
VERTEX
  8
RK-SINKB
 10
2.40901
 20
-5.534009000000001
 30
8.599999999999999
 70
   192
  0
VERTEX
  8
RK-SINKB
 10
3.332202999999999
 20
-4.976385
 30
8.599999999999999
 70
   192
  0
VERTEX
  8
RK-SINKB
 10
3.479222999999999
 20
-5.219784999999998
 30
8.349999999999999
 70
   192
  0
VERTEX
  8
RK-SINKB
 10
4.0
 20
-4.875
 30
8.599999999999999
 70
   192
  0
VERTEX
  8
RK-SINKB
 10
1.856051
 20
-18.594976
 30
8.599999999999999
 70
   192
  0
VERTEX
  8
RK-SINKB
 10
2.439341
 20
-19.560659
 30
8.599999999999999
 70
   192
  0
VERTEX
  8
RK-SINKB
 10
3.405022
 20
-20.143948
 30
8.599999999999999
 70
   192
  0
VERTEX
  8
RK-SINKB
 10
21.594976
 20
-20.143948
 30
8.599999999999999
 70
   192
  0
VERTEX
  8
RK-SINKB
 10
22.56065899999999
 20
-19.560659
 30
8.599999999999999
 70
   192
  0
VERTEX
  8
RK-SINKB
 10
23.14395
 20
-18.594976
 30
8.599999999999999
 70
   192
  0
VERTEX
  8
RK-SINKB
 10
23.25
 20
-17.896446
 30
8.599999999999999
 70
   192
  0
VERTEX
  8
RK-SINKB
 10
23.38735
 20
-18.741995
 30
8.849999999999999
 70
   192
  0
VERTEX
  8
RK-SINKB
 10
23.5
 20
-17.999999
 30
8.849999999999999
 70
   192
  0
VERTEX
  8
RK-SINKB
 10
22.767767
 20
-19.767766
 30
8.849999999999999
 70
   192
  0
VERTEX
  8
RK-SINKB
 10
21.74199699999999
 20
-20.38734999999999
 30
8.849999999999999
 70
   192
  0
VERTEX
  8
RK-SINKB
 10
20.89644599999999
 20
-20.249999
 30
8.599999999999999
 70
   192
  0
VERTEX
  8
RK-SINKB
 10
21.0
 20
-20.499999
 30
8.849999999999999
 70
   192
  0
VERTEX
  8
RK-SINKB
 10
4.103552
 20
-20.249999
 30
8.599999999999999
 70
   192
  0
VERTEX
  8
RK-SINKB
 10
3.258005
 20
-20.38734999999999
 30
8.849999999999999
 70
   192
  0
VERTEX
  8
RK-SINKB
 10
4.0
 20
-20.499999
 30
8.849999999999999
 70
   192
  0
VERTEX
  8
RK-SINKB
 10
2.232233
 20
-19.767766
 30
8.849999999999999
 70
   192
  0
VERTEX
  8
RK-SINKB
 10
1.61265
 20
-18.741995
 30
8.849999999999999
 70
   192
  0
VERTEX
  8
RK-SINKB
 10
1.5
 20
-17.999999
 30
8.849999999999999
 70
   192
  0
VERTEX
  8
RK-SINKB
 10
1.75
 20
-17.896446
 30
8.599999999999999
 70
   192
  0
VERTEX
  8
RK-SINKB
 10
1.75
 20
-4.103551000000003
 30
8.599999999999999
 70
   192
  0
VERTEX
  8
RK-SINKB
 10
1.61265
 20
-3.258002999999998
 30
8.849999999999999
 70
   192
  0
VERTEX
  8
RK-SINKB
 10
1.5
 20
-4.0
 30
8.849999999999999
 70
   192
  0
VERTEX
  8
RK-SINKB
 10
1.856051
 20
-3.405020999999997
 30
8.599999999999999
 70
   192
  0
VERTEX
  8
RK-SINKB
 10
2.439341
 20
-2.439338000000002
 30
8.599999999999999
 70
   192
  0
VERTEX
  8
RK-SINKB
 10
2.232233
 20
-2.232233000000004
 30
8.849999999999999
 70
   192
  0
VERTEX
  8
RK-SINKB
 10
3.405022
 20
-1.856049999999999
 30
8.599999999999999
 70
   192
  0
VERTEX
  8
RK-SINKB
 10
3.258005
 20
-1.612649000000001
 30
8.849999999999999
 70
   192
  0
VERTEX
  8
RK-SINKB
 10
4.103552
 20
-1.75
 30
8.599999999999999
 70
   192
  0
VERTEX
  8
RK-SINKB
 10
4.0
 20
-1.5
 30
8.849999999999999
 70
   192
  0
VERTEX
  8
RK-SINKB
 10
21.594976
 20
-1.856049999999999
 30
8.599999999999999
 70
   192
  0
VERTEX
  8
RK-SINKB
 10
21.0
 20
-1.5
 30
8.849999999999999
 70
   192
  0
VERTEX
  8
RK-SINKB
 10
20.89644599999999
 20
-1.75
 30
8.599999999999999
 70
   192
  0
VERTEX
  8
RK-SINKB
 10
21.74199699999999
 20
-1.612649000000001
 30
8.849999999999999
 70
   192
  0
VERTEX
  8
RK-SINKB
 10
22.56065899999999
 20
-2.439338000000002
 30
8.599999999999999
 70
   192
  0
VERTEX
  8
RK-SINKB
 10
22.767767
 20
-2.232233000000004
 30
8.849999999999999
 70
   192
  0
VERTEX
  8
RK-SINKB
 10
23.14395
 20
-3.405020999999997
 30
8.599999999999999
 70
   192
  0
VERTEX
  8
RK-SINKB
 10
23.38735
 20
-3.258002999999998
 30
8.849999999999999
 70
   192
  0
VERTEX
  8
RK-SINKB
 10
23.25
 20
-4.103551000000003
 30
8.599999999999999
 70
   192
  0
VERTEX
  8
RK-SINKB
 10
23.5
 20
-4.0
 30
8.849999999999999
 70
   192
  0
VERTEX
  8
RK-SINKB
 10
0.0585790000000008
 20
-21.085837
 30
8.349999999999999
 70
   192
  0
VERTEX
  8
RK-SINKB
 10
0.5453799999999998
 20
-20.7918
 30
8.849999999999999
 70
   192
  0
VERTEX
  8
RK-SINKB
 10
0.5
 20
-20.492892
 30
8.849999999999999
 70
   192
  0
VERTEX
  8
RK-SINKB
 10
0.0
 20
-20.699999
 30
8.349999999999999
 70
   192
  0
VERTEX
  8
RK-SINKB
 10
0.3807620000000007
 20
-21.619238
 30
8.349999999999999
 70
   192
  0
VERTEX
  8
RK-SINKB
 10
0.794975
 20
-21.205024
 30
8.849999999999999
 70
   192
  0
VERTEX
  8
RK-SINKB
 10
0.914162000000001
 20
-21.941421
 30
8.349999999999999
 70
   192
  0
VERTEX
  8
RK-SINKB
 10
1.208199
 20
-21.454619
 30
8.849999999999999
 70
   192
  0
VERTEX
  8
RK-SINKB
 10
1.300000999999999
 20
-21.999999
 30
8.349999999999999
 70
   192
  0
VERTEX
  8
RK-SINKB
 10
1.507107000000001
 20
-21.499999
 30
8.849999999999999
 70
   192
  0
VERTEX
  8
RK-SINKB
 10
1.208199
 20
-0.5453790000000005
 30
8.849999999999999
 70
   192
  0
VERTEX
  8
RK-SINKB
 10
1.507107000000001
 20
-0.5
 30
8.849999999999999
 70
   192
  0
VERTEX
  8
RK-SINKB
 10
1.300000999999999
 20
0.0
 30
8.349999999999999
 70
   192
  0
VERTEX
  8
RK-SINKB
 10
0.914162000000001
 20
-0.0585760000000022
 30
8.349999999999999
 70
   192
  0
VERTEX
  8
RK-SINKB
 10
0.3807620000000007
 20
-0.3807599999999986
 30
8.349999999999999
 70
   192
  0
VERTEX
  8
RK-SINKB
 10
0.794975
 20
-0.7949750000000009
 30
8.849999999999999
 70
   192
  0
VERTEX
  8
RK-SINKB
 10
0.0585790000000008
 20
-0.914161
 30
8.349999999999999
 70
   192
  0
VERTEX
  8
RK-SINKB
 10
0.5453799999999998
 20
-1.208197999999999
 30
8.849999999999999
 70
   192
  0
VERTEX
  8
RK-SINKB
 10
0.0
 20
-1.299998999999999
 30
8.349999999999999
 70
   192
  0
VERTEX
  8
RK-SINKB
 10
0.5
 20
-1.507106
 30
8.849999999999999
 70
   192
  0
VERTEX
  8
RK-SINKB
 10
24.45462
 20
-1.208197999999999
 30
8.849999999999999
 70
   192
  0
VERTEX
  8
RK-SINKB
 10
24.5
 20
-1.507106
 30
8.849999999999999
 70
   192
  0
VERTEX
  8
RK-SINKB
 10
24.999998
 20
-1.299998999999999
 30
8.349999999999999
 70
   192
  0
VERTEX
  8
RK-SINKB
 10
24.941423
 20
-0.914161
 30
8.349999999999999
 70
   192
  0
VERTEX
  8
RK-SINKB
 10
24.61923999999999
 20
-0.3807599999999986
 30
8.349999999999999
 70
   192
  0
VERTEX
  8
RK-SINKB
 10
24.205025
 20
-0.7949750000000009
 30
8.849999999999999
 70
   192
  0
VERTEX
  8
RK-SINKB
 10
24.085838
 20
-0.0585760000000022
 30
8.349999999999999
 70
   192
  0
VERTEX
  8
RK-SINKB
 10
23.79180199999999
 20
-0.5453790000000005
 30
8.849999999999999
 70
   192
  0
VERTEX
  8
RK-SINKB
 10
23.700001
 20
0.0
 30
8.349999999999999
 70
   192
  0
VERTEX
  8
RK-SINKB
 10
23.492893
 20
-0.5
 30
8.849999999999999
 70
   192
  0
VERTEX
  8
RK-SINKB
 10
24.085838
 20
-21.941421
 30
8.349999999999999
 70
   192
  0
VERTEX
  8
RK-SINKB
 10
23.79180199999999
 20
-21.454619
 30
8.849999999999999
 70
   192
  0
VERTEX
  8
RK-SINKB
 10
23.492893
 20
-21.499999
 30
8.849999999999999
 70
   192
  0
VERTEX
  8
RK-SINKB
 10
23.700001
 20
-21.999999
 30
8.349999999999999
 70
   192
  0
VERTEX
  8
RK-SINKB
 10
24.61923999999999
 20
-21.619238
 30
8.349999999999999
 70
   192
  0
VERTEX
  8
RK-SINKB
 10
24.205025
 20
-21.205024
 30
8.849999999999999
 70
   192
  0
VERTEX
  8
RK-SINKB
 10
24.941423
 20
-21.085837
 30
8.349999999999999
 70
   192
  0
VERTEX
  8
RK-SINKB
 10
24.45462
 20
-20.7918
 30
8.849999999999999
 70
   192
  0
VERTEX
  8
RK-SINKB
 10
24.999998
 20
-20.699999
 30
8.349999999999999
 70
   192
  0
VERTEX
  8
RK-SINKB
 10
24.5
 20
-20.492892
 30
8.849999999999999
 70
   192
  0
VERTEX
  8
RK-SINKB
 10
23.955525
 20
-0.9007130000000032
 30
8.349999999999999
 70
   192
  0
VERTEX
  8
RK-SINKB
 10
1.044474000000001
 20
-0.9007130000000032
 30
8.349999999999999
 70
   192
  0
VERTEX
  8
RK-SINKB
 10
1.044474000000001
 20
-21.108772
 30
8.349999999999999
 70
   192
  0
VERTEX
  8
RK-SINKB
 10
23.955525
 20
-21.108772
 30
8.349999999999999
 70
   192
  0
VERTEX
  8
RK-SINKB
 10
0.0
 20
0.0
 30
0.0
 70
   128
 71
     2
 72
     3
 73
     4
 74
     1
  0
VERTEX
  8
RK-SINKB
 10
0.0
 20
0.0
 30
0.0
 70
   128
 71
     6
 72
     7
 73
     8
 74
     5
  0
VERTEX
  8
RK-SINKB
 10
0.0
 20
0.0
 30
0.0
 70
   128
 71
   -11
 72
     9
 73
    10
  0
VERTEX
  8
RK-SINKB
 10
0.0
 20
0.0
 30
0.0
 70
   128
 71
    12
 72
    -9
 73
    11
  0
VERTEX
  8
RK-SINKB
 10
0.0
 20
0.0
 30
0.0
 70
   128
 71
   -12
 72
     2
 73
     9
  0
VERTEX
  8
RK-SINKB
 10
0.0
 20
0.0
 30
0.0
 70
   128
 71
     3
 72
    -2
 73
    12
  0
VERTEX
  8
RK-SINKB
 10
0.0
 20
0.0
 30
0.0
 70
   128
 71
   -15
 72
    13
 73
    14
  0
VERTEX
  8
RK-SINKB
 10
0.0
 20
0.0
 30
0.0
 70
   128
 71
    10
 72
   -13
 73
    15
  0
VERTEX
  8
RK-SINKB
 10
0.0
 20
0.0
 30
0.0
 70
   128
 71
   -10
 72
    16
 73
    13
  0
VERTEX
  8
RK-SINKB
 10
0.0
 20
0.0
 30
0.0
 70
   128
 71
     9
 72
   -16
 73
    10
  0
VERTEX
  8
RK-SINKB
 10
0.0
 20
0.0
 30
0.0
 70
   128
 71
    -9
 72
    17
 73
    16
  0
VERTEX
  8
RK-SINKB
 10
0.0
 20
0.0
 30
0.0
 70
   128
 71
     2
 72
   -17
 73
     9
  0
VERTEX
  8
RK-SINKB
 10
0.0
 20
0.0
 30
0.0
 70
   128
 71
    -2
 72
    18
 73
    17
  0
VERTEX
  8
RK-SINKB
 10
0.0
 20
0.0
 30
0.0
 70
   128
 71
     1
 72
   -18
 73
     2
  0
VERTEX
  8
RK-SINKB
 10
0.0
 20
0.0
 30
0.0
 70
   128
 71
   -14
 72
    19
 73
    20
  0
VERTEX
  8
RK-SINKB
 10
0.0
 20
0.0
 30
0.0
 70
   128
 71
    13
 72
   -19
 73
    14
  0
VERTEX
  8
RK-SINKB
 10
0.0
 20
0.0
 30
0.0
 70
   128
 71
   -13
 72
    21
 73
    19
  0
VERTEX
  8
RK-SINKB
 10
0.0
 20
0.0
 30
0.0
 70
   128
 71
    16
 72
   -21
 73
    13
  0
VERTEX
  8
RK-SINKB
 10
0.0
 20
0.0
 30
0.0
 70
   128
 71
   -16
 72
    22
 73
    21
  0
VERTEX
  8
RK-SINKB
 10
0.0
 20
0.0
 30
0.0
 70
   128
 71
    17
 72
   -22
 73
    16
  0
VERTEX
  8
RK-SINKB
 10
0.0
 20
0.0
 30
0.0
 70
   128
 71
   -17
 72
    23
 73
    22
  0
VERTEX
  8
RK-SINKB
 10
0.0
 20
0.0
 30
0.0
 70
   128
 71
    18
 72
   -23
 73
    17
  0
VERTEX
  8
RK-SINKB
 10
0.0
 20
0.0
 30
0.0
 70
   128
 71
   -19
 72
    24
 73
    25
  0
VERTEX
  8
RK-SINKB
 10
0.0
 20
0.0
 30
0.0
 70
   128
 71
    21
 72
   -24
 73
    19
  0
VERTEX
  8
RK-SINKB
 10
0.0
 20
0.0
 30
0.0
 70
   128
 71
   -21
 72
    26
 73
    24
  0
VERTEX
  8
RK-SINKB
 10
0.0
 20
0.0
 30
0.0
 70
   128
 71
    22
 72
   -26
 73
    21
  0
VERTEX
  8
RK-SINKB
 10
0.0
 20
0.0
 30
0.0
 70
   128
 71
   -15
 72
    11
 73
    10
  0
VERTEX
  8
RK-SINKB
 10
0.0
 20
0.0
 30
0.0
 70
   128
 71
   -11
 72
    15
 73
    27
  0
VERTEX
  8
RK-SINKB
 10
0.0
 20
0.0
 30
0.0
 70
   128
 71
    28
 72
     1
 73
     4
  0
VERTEX
  8
RK-SINKB
 10
0.0
 20
0.0
 30
0.0
 70
   128
 71
    15
 72
    14
 73
    29
  0
VERTEX
  8
RK-SINKB
 10
0.0
 20
0.0
 30
0.0
 70
   128
 71
    30
 72
    18
 73
     1
  0
VERTEX
  8
RK-SINKB
 10
0.0
 20
0.0
 30
0.0
 70
   128
 71
    31
 72
    14
 73
    20
  0
VERTEX
  8
RK-SINKB
 10
0.0
 20
0.0
 30
0.0
 70
   128
 71
    18
 72
    23
 73
    32
  0
VERTEX
  8
RK-SINKB
 10
0.0
 20
0.0
 30
0.0
 70
   128
 71
    34
 72
    20
 73
    33
  0
VERTEX
  8
RK-SINKB
 10
0.0
 20
0.0
 30
0.0
 70
   128
 71
   -20
 72
    25
 73
    33
  0
VERTEX
  8
RK-SINKB
 10
0.0
 20
0.0
 30
0.0
 70
   128
 71
   -19
 72
   -25
 73
    20
  0
VERTEX
  8
RK-SINKB
 10
0.0
 20
0.0
 30
0.0
 70
   128
 71
   -35
 72
    22
 73
    23
  0
VERTEX
  8
RK-SINKB
 10
0.0
 20
0.0
 30
0.0
 70
   128
 71
   -35
 72
    26
 73
   -22
  0
VERTEX
  8
RK-SINKB
 10
0.0
 20
0.0
 30
0.0
 70
   128
 71
    23
 72
    36
 73
    35
  0
VERTEX
  8
RK-SINKB
 10
0.0
 20
0.0
 30
0.0
 70
   128
 71
    38
 72
   -37
 73
    15
  0
VERTEX
  8
RK-SINKB
 10
0.0
 20
0.0
 30
0.0
 70
   128
 71
    27
 72
   -15
 73
    37
  0
VERTEX
  8
RK-SINKB
 10
0.0
 20
0.0
 30
0.0
 70
   128
 71
    38
 72
   -15
 73
    39
  0
VERTEX
  8
RK-SINKB
 10
0.0
 20
0.0
 30
0.0
 70
   128
 71
    14
 72
   -39
 73
    15
  0
VERTEX
  8
RK-SINKB
 10
0.0
 20
0.0
 30
0.0
 70
   128
 71
    14
 72
   -20
 73
    39
  0
VERTEX
  8
RK-SINKB
 10
0.0
 20
0.0
 30
0.0
 70
   128
 71
    20
 72
    40
 73
   -39
  0
VERTEX
  8
RK-SINKB
 10
0.0
 20
0.0
 30
0.0
 70
   128
 71
    33
 72
   -41
 73
    20
  0
VERTEX
  8
RK-SINKB
 10
0.0
 20
0.0
 30
0.0
 70
   128
 71
   -20
 72
    41
 73
    40
  0
VERTEX
  8
RK-SINKB
 10
0.0
 20
0.0
 30
0.0
 70
   128
 71
   -44
 72
    42
 73
    43
  0
VERTEX
  8
RK-SINKB
 10
0.0
 20
0.0
 30
0.0
 70
   128
 71
    45
 72
   -42
 73
    44
  0
VERTEX
  8
RK-SINKB
 10
0.0
 20
0.0
 30
0.0
 70
   128
 71
   -45
 72
    46
 73
    42
  0
VERTEX
  8
RK-SINKB
 10
0.0
 20
0.0
 30
0.0
 70
   128
 71
    47
 72
   -46
 73
    45
  0
VERTEX
  8
RK-SINKB
 10
0.0
 20
0.0
 30
0.0
 70
   128
 71
   -50
 72
    48
 73
    49
  0
VERTEX
  8
RK-SINKB
 10
0.0
 20
0.0
 30
0.0
 70
   128
 71
    43
 72
   -48
 73
    50
  0
VERTEX
  8
RK-SINKB
 10
0.0
 20
0.0
 30
0.0
 70
   128
 71
   -43
 72
    51
 73
    48
  0
VERTEX
  8
RK-SINKB
 10
0.0
 20
0.0
 30
0.0
 70
   128
 71
    42
 72
   -51
 73
    43
  0
VERTEX
  8
RK-SINKB
 10
0.0
 20
0.0
 30
0.0
 70
   128
 71
   -42
 72
    52
 73
    51
  0
VERTEX
  8
RK-SINKB
 10
0.0
 20
0.0
 30
0.0
 70
   128
 71
    46
 72
   -52
 73
    42
  0
VERTEX
  8
RK-SINKB
 10
0.0
 20
0.0
 30
0.0
 70
   128
 71
   -46
 72
    39
 73
    52
  0
VERTEX
  8
RK-SINKB
 10
0.0
 20
0.0
 30
0.0
 70
   128
 71
    38
 72
   -39
 73
    46
  0
VERTEX
  8
RK-SINKB
 10
0.0
 20
0.0
 30
0.0
 70
   128
 71
   -49
 72
    53
 73
    54
  0
VERTEX
  8
RK-SINKB
 10
0.0
 20
0.0
 30
0.0
 70
   128
 71
    48
 72
   -53
 73
    49
  0
VERTEX
  8
RK-SINKB
 10
0.0
 20
0.0
 30
0.0
 70
   128
 71
   -48
 72
    55
 73
    53
  0
VERTEX
  8
RK-SINKB
 10
0.0
 20
0.0
 30
0.0
 70
   128
 71
    51
 72
   -55
 73
    48
  0
VERTEX
  8
RK-SINKB
 10
0.0
 20
0.0
 30
0.0
 70
   128
 71
   -51
 72
    56
 73
    55
  0
VERTEX
  8
RK-SINKB
 10
0.0
 20
0.0
 30
0.0
 70
   128
 71
    52
 72
   -56
 73
    51
  0
VERTEX
  8
RK-SINKB
 10
0.0
 20
0.0
 30
0.0
 70
   128
 71
   -52
 72
    40
 73
    56
  0
VERTEX
  8
RK-SINKB
 10
0.0
 20
0.0
 30
0.0
 70
   128
 71
    39
 72
   -40
 73
    52
  0
VERTEX
  8
RK-SINKB
 10
0.0
 20
0.0
 30
0.0
 70
   128
 71
   -53
 72
    57
 73
    58
  0
VERTEX
  8
RK-SINKB
 10
0.0
 20
0.0
 30
0.0
 70
   128
 71
    55
 72
   -57
 73
    53
  0
VERTEX
  8
RK-SINKB
 10
0.0
 20
0.0
 30
0.0
 70
   128
 71
   -55
 72
    59
 73
    57
  0
VERTEX
  8
RK-SINKB
 10
0.0
 20
0.0
 30
0.0
 70
   128
 71
    56
 72
   -59
 73
    55
  0
VERTEX
  8
RK-SINKB
 10
0.0
 20
0.0
 30
0.0
 70
   128
 71
    61
 72
    50
 73
    60
  0
VERTEX
  8
RK-SINKB
 10
0.0
 20
0.0
 30
0.0
 70
   128
 71
   -43
 72
    61
 73
    44
  0
VERTEX
  8
RK-SINKB
 10
0.0
 20
0.0
 30
0.0
 70
   128
 71
   -61
 72
    43
 73
    50
  0
VERTEX
  8
RK-SINKB
 10
0.0
 20
0.0
 30
0.0
 70
   128
 71
   -38
 72
    47
 73
    37
  0
VERTEX
  8
RK-SINKB
 10
0.0
 20
0.0
 30
0.0
 70
   128
 71
   -47
 72
    38
 73
    46
  0
VERTEX
  8
RK-SINKB
 10
0.0
 20
0.0
 30
0.0
 70
   128
 71
    37
 72
    38
 73
    62
  0
VERTEX
  8
RK-SINKB
 10
0.0
 20
0.0
 30
0.0
 70
   128
 71
    50
 72
    49
 73
    63
  0
VERTEX
  8
RK-SINKB
 10
0.0
 20
0.0
 30
0.0
 70
   128
 71
    38
 72
    39
 73
    64
  0
VERTEX
  8
RK-SINKB
 10
0.0
 20
0.0
 30
0.0
 70
   128
 71
    65
 72
    49
 73
    54
  0
VERTEX
  8
RK-SINKB
 10
0.0
 20
0.0
 30
0.0
 70
   128
 71
    66
 72
    39
 73
    40
  0
VERTEX
  8
RK-SINKB
 10
0.0
 20
0.0
 30
0.0
 70
   128
 71
    68
 72
    54
 73
    67
  0
VERTEX
  8
RK-SINKB
 10
0.0
 20
0.0
 30
0.0
 70
   128
 71
   -53
 72
    67
 73
    54
  0
VERTEX
  8
RK-SINKB
 10
0.0
 20
0.0
 30
0.0
 70
   128
 71
    53
 72
    58
 73
   -67
  0
VERTEX
  8
RK-SINKB
 10
0.0
 20
0.0
 30
0.0
 70
   128
 71
   -56
 72
    41
 73
    59
  0
VERTEX
  8
RK-SINKB
 10
0.0
 20
0.0
 30
0.0
 70
   128
 71
    40
 72
   -41
 73
    56
  0
VERTEX
  8
RK-SINKB
 10
0.0
 20
0.0
 30
0.0
 70
   128
 71
    69
 72
    40
 73
    41
  0
VERTEX
  8
RK-SINKB
 10
0.0
 20
0.0
 30
0.0
 70
   128
 71
    70
 72
    58
 73
    67
  0
VERTEX
  8
RK-SINKB
 10
0.0
 20
0.0
 30
0.0
 70
   128
 71
    71
 72
    57
 73
    58
  0
VERTEX
  8
RK-SINKB
 10
0.0
 20
0.0
 30
0.0
 70
   128
 71
    72
 72
    59
 73
    57
  0
VERTEX
  8
RK-SINKB
 10
0.0
 20
0.0
 30
0.0
 70
   128
 71
    73
 72
    41
 73
    59
  0
VERTEX
  8
RK-SINKB
 10
0.0
 20
0.0
 30
0.0
 70
   128
 71
    50
 72
   -74
 73
    61
  0
VERTEX
  8
RK-SINKB
 10
0.0
 20
0.0
 30
0.0
 70
   128
 71
    75
 72
   -61
 73
    74
  0
VERTEX
  8
RK-SINKB
 10
0.0
 20
0.0
 30
0.0
 70
   128
 71
    76
 72
   -74
 73
    49
  0
VERTEX
  8
RK-SINKB
 10
0.0
 20
0.0
 30
0.0
 70
   128
 71
    50
 72
   -49
 73
    74
  0
VERTEX
  8
RK-SINKB
 10
0.0
 20
0.0
 30
0.0
 70
   128
 71
    76
 72
   -49
 73
    77
  0
VERTEX
  8
RK-SINKB
 10
0.0
 20
0.0
 30
0.0
 70
   128
 71
    49
 72
    54
 73
   -77
  0
VERTEX
  8
RK-SINKB
 10
0.0
 20
0.0
 30
0.0
 70
   128
 71
    67
 72
   -78
 73
    54
  0
VERTEX
  8
RK-SINKB
 10
0.0
 20
0.0
 30
0.0
 70
   128
 71
   -54
 72
    78
 73
    77
  0
VERTEX
  8
RK-SINKB
 10
0.0
 20
0.0
 30
0.0
 70
   128
 71
   -81
 72
    79
 73
    80
  0
VERTEX
  8
RK-SINKB
 10
0.0
 20
0.0
 30
0.0
 70
   128
 71
    82
 72
   -79
 73
    81
  0
VERTEX
  8
RK-SINKB
 10
0.0
 20
0.0
 30
0.0
 70
   128
 71
   -82
 72
     6
 73
    79
  0
VERTEX
  8
RK-SINKB
 10
0.0
 20
0.0
 30
0.0
 70
   128
 71
     7
 72
    -6
 73
    82
  0
VERTEX
  8
RK-SINKB
 10
0.0
 20
0.0
 30
0.0
 70
   128
 71
   -85
 72
    83
 73
    84
  0
VERTEX
  8
RK-SINKB
 10
0.0
 20
0.0
 30
0.0
 70
   128
 71
    80
 72
   -83
 73
    85
  0
VERTEX
  8
RK-SINKB
 10
0.0
 20
0.0
 30
0.0
 70
   128
 71
   -80
 72
    86
 73
    83
  0
VERTEX
  8
RK-SINKB
 10
0.0
 20
0.0
 30
0.0
 70
   128
 71
    79
 72
   -86
 73
    80
  0
VERTEX
  8
RK-SINKB
 10
0.0
 20
0.0
 30
0.0
 70
   128
 71
   -79
 72
    87
 73
    86
  0
VERTEX
  8
RK-SINKB
 10
0.0
 20
0.0
 30
0.0
 70
   128
 71
     6
 72
   -87
 73
    79
  0
VERTEX
  8
RK-SINKB
 10
0.0
 20
0.0
 30
0.0
 70
   128
 71
    -6
 72
    88
 73
    87
  0
VERTEX
  8
RK-SINKB
 10
0.0
 20
0.0
 30
0.0
 70
   128
 71
     5
 72
   -88
 73
     6
  0
VERTEX
  8
RK-SINKB
 10
0.0
 20
0.0
 30
0.0
 70
   128
 71
   -84
 72
    89
 73
    90
  0
VERTEX
  8
RK-SINKB
 10
0.0
 20
0.0
 30
0.0
 70
   128
 71
    83
 72
   -89
 73
    84
  0
VERTEX
  8
RK-SINKB
 10
0.0
 20
0.0
 30
0.0
 70
   128
 71
   -83
 72
    91
 73
    89
  0
VERTEX
  8
RK-SINKB
 10
0.0
 20
0.0
 30
0.0
 70
   128
 71
    86
 72
   -91
 73
    83
  0
VERTEX
  8
RK-SINKB
 10
0.0
 20
0.0
 30
0.0
 70
   128
 71
   -86
 72
    92
 73
    91
  0
VERTEX
  8
RK-SINKB
 10
0.0
 20
0.0
 30
0.0
 70
   128
 71
    87
 72
   -92
 73
    86
  0
VERTEX
  8
RK-SINKB
 10
0.0
 20
0.0
 30
0.0
 70
   128
 71
   -87
 72
    93
 73
    92
  0
VERTEX
  8
RK-SINKB
 10
0.0
 20
0.0
 30
0.0
 70
   128
 71
    88
 72
   -93
 73
    87
  0
VERTEX
  8
RK-SINKB
 10
0.0
 20
0.0
 30
0.0
 70
   128
 71
   -89
 72
    94
 73
    95
  0
VERTEX
  8
RK-SINKB
 10
0.0
 20
0.0
 30
0.0
 70
   128
 71
    91
 72
   -94
 73
    89
  0
VERTEX
  8
RK-SINKB
 10
0.0
 20
0.0
 30
0.0
 70
   128
 71
   -91
 72
    96
 73
    94
  0
VERTEX
  8
RK-SINKB
 10
0.0
 20
0.0
 30
0.0
 70
   128
 71
    92
 72
   -96
 73
    91
  0
VERTEX
  8
RK-SINKB
 10
0.0
 20
0.0
 30
0.0
 70
   128
 71
    98
 72
    85
 73
    97
  0
VERTEX
  8
RK-SINKB
 10
0.0
 20
0.0
 30
0.0
 70
   128
 71
   -85
 72
    81
 73
    80
  0
VERTEX
  8
RK-SINKB
 10
0.0
 20
0.0
 30
0.0
 70
   128
 71
   -81
 72
    85
 73
    98
  0
VERTEX
  8
RK-SINKB
 10
0.0
 20
0.0
 30
0.0
 70
   128
 71
    99
 72
     5
 73
     8
  0
VERTEX
  8
RK-SINKB
 10
0.0
 20
0.0
 30
0.0
 70
   128
 71
   100
 72
    85
 73
    84
  0
VERTEX
  8
RK-SINKB
 10
0.0
 20
0.0
 30
0.0
 70
   128
 71
     5
 72
    88
 73
   101
  0
VERTEX
  8
RK-SINKB
 10
0.0
 20
0.0
 30
0.0
 70
   128
 71
   102
 72
    84
 73
    90
  0
VERTEX
  8
RK-SINKB
 10
0.0
 20
0.0
 30
0.0
 70
   128
 71
    88
 72
    93
 73
   103
  0
VERTEX
  8
RK-SINKB
 10
0.0
 20
0.0
 30
0.0
 70
   128
 71
    90
 72
   104
 73
   105
  0
VERTEX
  8
RK-SINKB
 10
0.0
 20
0.0
 30
0.0
 70
   128
 71
   -90
 72
    95
 73
   105
  0
VERTEX
  8
RK-SINKB
 10
0.0
 20
0.0
 30
0.0
 70
   128
 71
   -89
 72
   -95
 73
    90
  0
VERTEX
  8
RK-SINKB
 10
0.0
 20
0.0
 30
0.0
 70
   128
 71
  -106
 72
    92
 73
    93
  0
VERTEX
  8
RK-SINKB
 10
0.0
 20
0.0
 30
0.0
 70
   128
 71
  -106
 72
    96
 73
   -92
  0
VERTEX
  8
RK-SINKB
 10
0.0
 20
0.0
 30
0.0
 70
   128
 71
    93
 72
   107
 73
   106
  0
VERTEX
  8
RK-SINKB
 10
0.0
 20
0.0
 30
0.0
 70
   128
 71
     1
 72
    -4
 73
    85
  0
VERTEX
  8
RK-SINKB
 10
0.0
 20
0.0
 30
0.0
 70
   128
 71
    98
 72
   -85
 73
     4
  0
VERTEX
  8
RK-SINKB
 10
0.0
 20
0.0
 30
0.0
 70
   128
 71
     1
 72
   -85
 73
    18
  0
VERTEX
  8
RK-SINKB
 10
0.0
 20
0.0
 30
0.0
 70
   128
 71
    84
 72
   -18
 73
    85
  0
VERTEX
  8
RK-SINKB
 10
0.0
 20
0.0
 30
0.0
 70
   128
 71
    84
 72
   -90
 73
    18
  0
VERTEX
  8
RK-SINKB
 10
0.0
 20
0.0
 30
0.0
 70
   128
 71
    90
 72
    23
 73
   -18
  0
VERTEX
  8
RK-SINKB
 10
0.0
 20
0.0
 30
0.0
 70
   128
 71
   105
 72
   -35
 73
    90
  0
VERTEX
  8
RK-SINKB
 10
0.0
 20
0.0
 30
0.0
 70
   128
 71
   -90
 72
    35
 73
    23
  0
VERTEX
  8
RK-SINKB
 10
0.0
 20
0.0
 30
0.0
 70
   128
 71
  -110
 72
   108
 73
   109
  0
VERTEX
  8
RK-SINKB
 10
0.0
 20
0.0
 30
0.0
 70
   128
 71
   111
 72
  -108
 73
   110
  0
VERTEX
  8
RK-SINKB
 10
0.0
 20
0.0
 30
0.0
 70
   128
 71
  -111
 72
   112
 73
   108
  0
VERTEX
  8
RK-SINKB
 10
0.0
 20
0.0
 30
0.0
 70
   128
 71
   113
 72
  -112
 73
   111
  0
VERTEX
  8
RK-SINKB
 10
0.0
 20
0.0
 30
0.0
 70
   128
 71
  -116
 72
   114
 73
   115
  0
VERTEX
  8
RK-SINKB
 10
0.0
 20
0.0
 30
0.0
 70
   128
 71
   109
 72
  -114
 73
   116
  0
VERTEX
  8
RK-SINKB
 10
0.0
 20
0.0
 30
0.0
 70
   128
 71
  -109
 72
   117
 73
   114
  0
VERTEX
  8
RK-SINKB
 10
0.0
 20
0.0
 30
0.0
 70
   128
 71
   108
 72
  -117
 73
   109
  0
VERTEX
  8
RK-SINKB
 10
0.0
 20
0.0
 30
0.0
 70
   128
 71
  -108
 72
   118
 73
   117
  0
VERTEX
  8
RK-SINKB
 10
0.0
 20
0.0
 30
0.0
 70
   128
 71
   112
 72
  -118
 73
   108
  0
VERTEX
  8
RK-SINKB
 10
0.0
 20
0.0
 30
0.0
 70
   128
 71
  -112
 72
    76
 73
   118
  0
VERTEX
  8
RK-SINKB
 10
0.0
 20
0.0
 30
0.0
 70
   128
 71
    74
 72
   -76
 73
   112
  0
VERTEX
  8
RK-SINKB
 10
0.0
 20
0.0
 30
0.0
 70
   128
 71
  -115
 72
   119
 73
   120
  0
VERTEX
  8
RK-SINKB
 10
0.0
 20
0.0
 30
0.0
 70
   128
 71
   114
 72
  -119
 73
   115
  0
VERTEX
  8
RK-SINKB
 10
0.0
 20
0.0
 30
0.0
 70
   128
 71
  -114
 72
   121
 73
   119
  0
VERTEX
  8
RK-SINKB
 10
0.0
 20
0.0
 30
0.0
 70
   128
 71
   117
 72
  -121
 73
   114
  0
VERTEX
  8
RK-SINKB
 10
0.0
 20
0.0
 30
0.0
 70
   128
 71
  -117
 72
   122
 73
   121
  0
VERTEX
  8
RK-SINKB
 10
0.0
 20
0.0
 30
0.0
 70
   128
 71
   118
 72
  -122
 73
   117
  0
VERTEX
  8
RK-SINKB
 10
0.0
 20
0.0
 30
0.0
 70
   128
 71
  -118
 72
    77
 73
   122
  0
VERTEX
  8
RK-SINKB
 10
0.0
 20
0.0
 30
0.0
 70
   128
 71
    76
 72
   -77
 73
   118
  0
VERTEX
  8
RK-SINKB
 10
0.0
 20
0.0
 30
0.0
 70
   128
 71
  -119
 72
   123
 73
   124
  0
VERTEX
  8
RK-SINKB
 10
0.0
 20
0.0
 30
0.0
 70
   128
 71
   121
 72
  -123
 73
   119
  0
VERTEX
  8
RK-SINKB
 10
0.0
 20
0.0
 30
0.0
 70
   128
 71
  -121
 72
   125
 73
   123
  0
VERTEX
  8
RK-SINKB
 10
0.0
 20
0.0
 30
0.0
 70
   128
 71
   122
 72
  -125
 73
   121
  0
VERTEX
  8
RK-SINKB
 10
0.0
 20
0.0
 30
0.0
 70
   128
 71
  -126
 72
   109
 73
   116
  0
VERTEX
  8
RK-SINKB
 10
0.0
 20
0.0
 30
0.0
 70
   128
 71
  -110
 72
  -109
 73
   126
  0
VERTEX
  8
RK-SINKB
 10
0.0
 20
0.0
 30
0.0
 70
   128
 71
   -74
 72
   113
 73
    75
  0
VERTEX
  8
RK-SINKB
 10
0.0
 20
0.0
 30
0.0
 70
   128
 71
  -113
 72
    74
 73
   112
  0
VERTEX
  8
RK-SINKB
 10
0.0
 20
0.0
 30
0.0
 70
   128
 71
   127
 72
    74
 73
    75
  0
VERTEX
  8
RK-SINKB
 10
0.0
 20
0.0
 30
0.0
 70
   128
 71
   116
 72
   128
 73
   115
  0
VERTEX
  8
RK-SINKB
 10
0.0
 20
0.0
 30
0.0
 70
   128
 71
    74
 72
    76
 73
   129
  0
VERTEX
  8
RK-SINKB
 10
0.0
 20
0.0
 30
0.0
 70
   128
 71
   115
 72
   130
 73
   120
  0
VERTEX
  8
RK-SINKB
 10
0.0
 20
0.0
 30
0.0
 70
   128
 71
    76
 72
    77
 73
   131
  0
VERTEX
  8
RK-SINKB
 10
0.0
 20
0.0
 30
0.0
 70
   128
 71
   120
 72
   132
 73
   133
  0
VERTEX
  8
RK-SINKB
 10
0.0
 20
0.0
 30
0.0
 70
   128
 71
  -119
 72
   133
 73
   120
  0
VERTEX
  8
RK-SINKB
 10
0.0
 20
0.0
 30
0.0
 70
   128
 71
   119
 72
   124
 73
  -133
  0
VERTEX
  8
RK-SINKB
 10
0.0
 20
0.0
 30
0.0
 70
   128
 71
  -125
 72
    77
 73
    78
  0
VERTEX
  8
RK-SINKB
 10
0.0
 20
0.0
 30
0.0
 70
   128
 71
   122
 72
   -77
 73
   125
  0
VERTEX
  8
RK-SINKB
 10
0.0
 20
0.0
 30
0.0
 70
   128
 71
   134
 72
    77
 73
    78
  0
VERTEX
  8
RK-SINKB
 10
0.0
 20
0.0
 30
0.0
 70
   128
 71
   135
 72
   124
 73
   133
  0
VERTEX
  8
RK-SINKB
 10
0.0
 20
0.0
 30
0.0
 70
   128
 71
   136
 72
   123
 73
   124
  0
VERTEX
  8
RK-SINKB
 10
0.0
 20
0.0
 30
0.0
 70
   128
 71
   137
 72
   125
 73
   123
  0
VERTEX
  8
RK-SINKB
 10
0.0
 20
0.0
 30
0.0
 70
   128
 71
   138
 72
    78
 73
   125
  0
VERTEX
  8
RK-SINKB
 10
0.0
 20
0.0
 30
0.0
 70
   128
 71
     5
 72
    -8
 73
   116
  0
VERTEX
  8
RK-SINKB
 10
0.0
 20
0.0
 30
0.0
 70
   128
 71
   126
 72
  -116
 73
     8
  0
VERTEX
  8
RK-SINKB
 10
0.0
 20
0.0
 30
0.0
 70
   128
 71
    88
 72
    -5
 73
   115
  0
VERTEX
  8
RK-SINKB
 10
0.0
 20
0.0
 30
0.0
 70
   128
 71
   116
 72
  -115
 73
     5
  0
VERTEX
  8
RK-SINKB
 10
0.0
 20
0.0
 30
0.0
 70
   128
 71
    88
 72
  -115
 73
    93
  0
VERTEX
  8
RK-SINKB
 10
0.0
 20
0.0
 30
0.0
 70
   128
 71
   115
 72
   120
 73
   -93
  0
VERTEX
  8
RK-SINKB
 10
0.0
 20
0.0
 30
0.0
 70
   128
 71
   120
 72
  -133
 73
    93
  0
VERTEX
  8
RK-SINKB
 10
0.0
 20
0.0
 30
0.0
 70
   128
 71
   -93
 72
   133
 73
   106
  0
VERTEX
  8
RK-SINKB
 10
0.0
 20
0.0
 30
0.0
 70
   128
 71
    81
 72
   -98
 73
   139
  0
VERTEX
  8
RK-SINKB
 10
0.0
 20
0.0
 30
0.0
 70
   128
 71
   140
 72
  -139
 73
    98
  0
VERTEX
  8
RK-SINKB
 10
0.0
 20
0.0
 30
0.0
 70
   128
 71
    81
 72
  -139
 73
    82
  0
VERTEX
  8
RK-SINKB
 10
0.0
 20
0.0
 30
0.0
 70
   128
 71
   141
 72
   -82
 73
   139
  0
VERTEX
  8
RK-SINKB
 10
0.0
 20
0.0
 30
0.0
 70
   128
 71
   141
 72
  -142
 73
    82
  0
VERTEX
  8
RK-SINKB
 10
0.0
 20
0.0
 30
0.0
 70
   128
 71
   142
 72
     7
 73
   -82
  0
VERTEX
  8
RK-SINKB
 10
0.0
 20
0.0
 30
0.0
 70
   128
 71
   142
 72
  -143
 73
     7
  0
VERTEX
  8
RK-SINKB
 10
0.0
 20
0.0
 30
0.0
 70
   128
 71
    -7
 72
   143
 73
     8
  0
VERTEX
  8
RK-SINKB
 10
0.0
 20
0.0
 30
0.0
 70
   128
 71
   145
 72
   -11
 73
   144
  0
VERTEX
  8
RK-SINKB
 10
0.0
 20
0.0
 30
0.0
 70
   128
 71
    27
 72
  -144
 73
    11
  0
VERTEX
  8
RK-SINKB
 10
0.0
 20
0.0
 30
0.0
 70
   128
 71
    12
 72
   -11
 73
   146
  0
VERTEX
  8
RK-SINKB
 10
0.0
 20
0.0
 30
0.0
 70
   128
 71
   145
 72
  -146
 73
    11
  0
VERTEX
  8
RK-SINKB
 10
0.0
 20
0.0
 30
0.0
 70
   128
 71
    12
 72
  -146
 73
     3
  0
VERTEX
  8
RK-SINKB
 10
0.0
 20
0.0
 30
0.0
 70
   128
 71
   146
 72
   147
 73
    -3
  0
VERTEX
  8
RK-SINKB
 10
0.0
 20
0.0
 30
0.0
 70
   128
 71
   148
 72
    -4
 73
   147
  0
VERTEX
  8
RK-SINKB
 10
0.0
 20
0.0
 30
0.0
 70
   128
 71
  -147
 72
     4
 73
     3
  0
VERTEX
  8
RK-SINKB
 10
0.0
 20
0.0
 30
0.0
 70
   128
 71
    44
 72
   -61
 73
   149
  0
VERTEX
  8
RK-SINKB
 10
0.0
 20
0.0
 30
0.0
 70
   128
 71
   150
 72
  -149
 73
    61
  0
VERTEX
  8
RK-SINKB
 10
0.0
 20
0.0
 30
0.0
 70
   128
 71
    44
 72
  -149
 73
    45
  0
VERTEX
  8
RK-SINKB
 10
0.0
 20
0.0
 30
0.0
 70
   128
 71
   151
 72
   -45
 73
   149
  0
VERTEX
  8
RK-SINKB
 10
0.0
 20
0.0
 30
0.0
 70
   128
 71
   151
 72
  -152
 73
    45
  0
VERTEX
  8
RK-SINKB
 10
0.0
 20
0.0
 30
0.0
 70
   128
 71
   152
 72
    47
 73
   -45
  0
VERTEX
  8
RK-SINKB
 10
0.0
 20
0.0
 30
0.0
 70
   128
 71
   152
 72
  -153
 73
    47
  0
VERTEX
  8
RK-SINKB
 10
0.0
 20
0.0
 30
0.0
 70
   128
 71
   -47
 72
   153
 73
    37
  0
VERTEX
  8
RK-SINKB
 10
0.0
 20
0.0
 30
0.0
 70
   128
 71
   110
 72
  -126
 73
   154
  0
VERTEX
  8
RK-SINKB
 10
0.0
 20
0.0
 30
0.0
 70
   128
 71
   155
 72
  -154
 73
   126
  0
VERTEX
  8
RK-SINKB
 10
0.0
 20
0.0
 30
0.0
 70
   128
 71
   111
 72
  -110
 73
   156
  0
VERTEX
  8
RK-SINKB
 10
0.0
 20
0.0
 30
0.0
 70
   128
 71
   154
 72
  -156
 73
   110
  0
VERTEX
  8
RK-SINKB
 10
0.0
 20
0.0
 30
0.0
 70
   128
 71
   156
 72
  -157
 73
   111
  0
VERTEX
  8
RK-SINKB
 10
0.0
 20
0.0
 30
0.0
 70
   128
 71
   157
 72
   113
 73
  -111
  0
VERTEX
  8
RK-SINKB
 10
0.0
 20
0.0
 30
0.0
 70
   128
 71
   157
 72
  -158
 73
   113
  0
VERTEX
  8
RK-SINKB
 10
0.0
 20
0.0
 30
0.0
 70
   128
 71
  -113
 72
   158
 73
    75
  0
VERTEX
  8
RK-SINKB
 10
0.0
 20
0.0
 30
0.0
 70
   128
 71
     4
 72
  -148
 73
    98
  0
VERTEX
  8
RK-SINKB
 10
0.0
 20
0.0
 30
0.0
 70
   128
 71
   140
 72
   -98
 73
   159
  0
VERTEX
  8
RK-SINKB
 10
0.0
 20
0.0
 30
0.0
 70
   128
 71
   148
 72
  -160
 73
   -98
  0
VERTEX
  8
RK-SINKB
 10
0.0
 20
0.0
 30
0.0
 70
   128
 71
  -159
 72
   -98
 73
   160
  0
VERTEX
  8
RK-SINKB
 10
0.0
 20
0.0
 30
0.0
 70
   128
 71
     8
 72
  -143
 73
   126
  0
VERTEX
  8
RK-SINKB
 10
0.0
 20
0.0
 30
0.0
 70
   128
 71
   155
 72
  -126
 73
   161
  0
VERTEX
  8
RK-SINKB
 10
0.0
 20
0.0
 30
0.0
 70
   128
 71
   143
 72
  -162
 73
  -126
  0
VERTEX
  8
RK-SINKB
 10
0.0
 20
0.0
 30
0.0
 70
   128
 71
   162
 72
  -161
 73
  -126
  0
VERTEX
  8
RK-SINKB
 10
0.0
 20
0.0
 30
0.0
 70
   128
 71
   158
 72
  -163
 73
    75
  0
VERTEX
  8
RK-SINKB
 10
0.0
 20
0.0
 30
0.0
 70
   128
 71
   -75
 72
  -163
 73
    61
  0
VERTEX
  8
RK-SINKB
 10
0.0
 20
0.0
 30
0.0
 70
   128
 71
   150
 72
   -61
 73
   164
  0
VERTEX
  8
RK-SINKB
 10
0.0
 20
0.0
 30
0.0
 70
   128
 71
   163
 72
  -164
 73
   -61
  0
VERTEX
  8
RK-SINKB
 10
0.0
 20
0.0
 30
0.0
 70
   128
 71
    37
 72
  -153
 73
    27
  0
VERTEX
  8
RK-SINKB
 10
0.0
 20
0.0
 30
0.0
 70
   128
 71
   144
 72
   -27
 73
   165
  0
VERTEX
  8
RK-SINKB
 10
0.0
 20
0.0
 30
0.0
 70
   128
 71
   153
 72
  -166
 73
   -27
  0
VERTEX
  8
RK-SINKB
 10
0.0
 20
0.0
 30
0.0
 70
   128
 71
  -165
 72
   -27
 73
   166
  0
VERTEX
  8
RK-SINKB
 10
0.0
 20
0.0
 30
0.0
 70
   128
 71
   168
 72
  -167
 73
   -35
  0
VERTEX
  8
RK-SINKB
 10
0.0
 20
0.0
 30
0.0
 70
   128
 71
   167
 72
  -169
 73
   -35
  0
VERTEX
  8
RK-SINKB
 10
0.0
 20
0.0
 30
0.0
 70
   128
 71
   169
 72
  -170
 73
   -35
  0
VERTEX
  8
RK-SINKB
 10
0.0
 20
0.0
 30
0.0
 70
   128
 71
   170
 72
  -171
 73
   -35
  0
VERTEX
  8
RK-SINKB
 10
0.0
 20
0.0
 30
0.0
 70
   128
 71
   171
 72
  -172
 73
   -35
  0
VERTEX
  8
RK-SINKB
 10
0.0
 20
0.0
 30
0.0
 70
   128
 71
   -35
 72
  -172
 73
    26
  0
VERTEX
  8
RK-SINKB
 10
0.0
 20
0.0
 30
0.0
 70
   128
 71
   -26
 72
  -172
 73
    24
  0
VERTEX
  8
RK-SINKB
 10
0.0
 20
0.0
 30
0.0
 70
   128
 71
   -24
 72
  -172
 73
    25
  0
VERTEX
  8
RK-SINKB
 10
0.0
 20
0.0
 30
0.0
 70
   128
 71
   -25
 72
  -172
 73
    33
  0
VERTEX
  8
RK-SINKB
 10
0.0
 20
0.0
 30
0.0
 70
   128
 71
   -33
 72
  -172
 73
    41
  0
VERTEX
  8
RK-SINKB
 10
0.0
 20
0.0
 30
0.0
 70
   128
 71
    59
 72
   -41
 73
    57
  0
VERTEX
  8
RK-SINKB
 10
0.0
 20
0.0
 30
0.0
 70
   128
 71
    58
 72
   -57
 73
    67
  0
VERTEX
  8
RK-SINKB
 10
0.0
 20
0.0
 30
0.0
 70
   128
 71
    78
 72
   -67
 73
   125
  0
VERTEX
  8
RK-SINKB
 10
0.0
 20
0.0
 30
0.0
 70
   128
 71
   123
 72
  -125
 73
   124
  0
VERTEX
  8
RK-SINKB
 10
0.0
 20
0.0
 30
0.0
 70
   128
 71
   133
 72
  -124
 73
   106
  0
VERTEX
  8
RK-SINKB
 10
0.0
 20
0.0
 30
0.0
 70
   128
 71
    96
 72
  -106
 73
    94
  0
VERTEX
  8
RK-SINKB
 10
0.0
 20
0.0
 30
0.0
 70
   128
 71
    95
 72
   -94
 73
   105
  0
VERTEX
  8
RK-SINKB
 10
0.0
 20
0.0
 30
0.0
 70
   128
 71
    35
 72
  -105
 73
  -168
  0
VERTEX
  8
RK-SINKB
 10
0.0
 20
0.0
 30
0.0
 70
   128
 71
   172
 72
  -173
 73
   -41
  0
VERTEX
  8
RK-SINKB
 10
0.0
 20
0.0
 30
0.0
 70
   128
 71
   173
 72
  -174
 73
   -41
  0
VERTEX
  8
RK-SINKB
 10
0.0
 20
0.0
 30
0.0
 70
   128
 71
   174
 72
  -175
 73
   -41
  0
VERTEX
  8
RK-SINKB
 10
0.0
 20
0.0
 30
0.0
 70
   128
 71
   175
 72
  -176
 73
   -41
  0
VERTEX
  8
RK-SINKB
 10
0.0
 20
0.0
 30
0.0
 70
   128
 71
   176
 72
  -177
 73
   -41
  0
VERTEX
  8
RK-SINKB
 10
0.0
 20
0.0
 30
0.0
 70
   128
 71
   -41
 72
  -177
 73
   -57
  0
VERTEX
  8
RK-SINKB
 10
0.0
 20
0.0
 30
0.0
 70
   128
 71
   -57
 72
  -177
 73
   -67
  0
VERTEX
  8
RK-SINKB
 10
0.0
 20
0.0
 30
0.0
 70
   128
 71
  -125
 72
   -67
 73
  -124
  0
VERTEX
  8
RK-SINKB
 10
0.0
 20
0.0
 30
0.0
 70
   128
 71
  -106
 72
  -124
 73
   -94
  0
VERTEX
  8
RK-SINKB
 10
0.0
 20
0.0
 30
0.0
 70
   128
 71
  -105
 72
   -94
 73
  -168
  0
VERTEX
  8
RK-SINKB
 10
0.0
 20
0.0
 30
0.0
 70
   128
 71
  -168
 72
   -94
 73
   178
  0
VERTEX
  8
RK-SINKB
 10
0.0
 20
0.0
 30
0.0
 70
   128
 71
   -67
 72
  -177
 73
  -124
  0
VERTEX
  8
RK-SINKB
 10
0.0
 20
0.0
 30
0.0
 70
   128
 71
   177
 72
  -179
 73
  -124
  0
VERTEX
  8
RK-SINKB
 10
0.0
 20
0.0
 30
0.0
 70
   128
 71
   179
 72
  -180
 73
  -124
  0
VERTEX
  8
RK-SINKB
 10
0.0
 20
0.0
 30
0.0
 70
   128
 71
  -124
 72
  -180
 73
   -94
  0
VERTEX
  8
RK-SINKB
 10
0.0
 20
0.0
 30
0.0
 70
   128
 71
  -178
 72
   -94
 73
   181
  0
VERTEX
  8
RK-SINKB
 10
0.0
 20
0.0
 30
0.0
 70
   128
 71
   180
 72
  -182
 73
   -94
  0
VERTEX
  8
RK-SINKB
 10
0.0
 20
0.0
 30
0.0
 70
   128
 71
   182
 72
  -181
 73
   -94
  0
VERTEX
  8
RK-SINKB
 10
0.0
 20
0.0
 30
0.0
 70
   128
 71
   184
 72
  -183
 73
   162
  0
VERTEX
  8
RK-SINKB
 10
0.0
 20
0.0
 30
0.0
 70
   128
 71
  -162
 72
   183
 73
   185
  0
VERTEX
  8
RK-SINKB
 10
0.0
 20
0.0
 30
0.0
 70
   128
 71
   187
 72
  -186
 73
   184
  0
VERTEX
  8
RK-SINKB
 10
0.0
 20
0.0
 30
0.0
 70
   128
 71
   183
 72
  -184
 73
   186
  0
VERTEX
  8
RK-SINKB
 10
0.0
 20
0.0
 30
0.0
 70
   128
 71
   189
 72
  -186
 73
   188
  0
VERTEX
  8
RK-SINKB
 10
0.0
 20
0.0
 30
0.0
 70
   128
 71
   187
 72
  -188
 73
   186
  0
VERTEX
  8
RK-SINKB
 10
0.0
 20
0.0
 30
0.0
 70
   128
 71
   189
 72
  -188
 73
   190
  0
VERTEX
  8
RK-SINKB
 10
0.0
 20
0.0
 30
0.0
 70
   128
 71
   188
 72
   159
 73
  -190
  0
VERTEX
  8
RK-SINKB
 10
0.0
 20
0.0
 30
0.0
 70
   128
 71
   192
 72
  -191
 73
   160
  0
VERTEX
  8
RK-SINKB
 10
0.0
 20
0.0
 30
0.0
 70
   128
 71
  -160
 72
   191
 73
   193
  0
VERTEX
  8
RK-SINKB
 10
0.0
 20
0.0
 30
0.0
 70
   128
 71
   195
 72
  -194
 73
   192
  0
VERTEX
  8
RK-SINKB
 10
0.0
 20
0.0
 30
0.0
 70
   128
 71
   191
 72
  -192
 73
   194
  0
VERTEX
  8
RK-SINKB
 10
0.0
 20
0.0
 30
0.0
 70
   128
 71
   197
 72
  -194
 73
   196
  0
VERTEX
  8
RK-SINKB
 10
0.0
 20
0.0
 30
0.0
 70
   128
 71
   195
 72
  -196
 73
   194
  0
VERTEX
  8
RK-SINKB
 10
0.0
 20
0.0
 30
0.0
 70
   128
 71
   197
 72
  -196
 73
   198
  0
VERTEX
  8
RK-SINKB
 10
0.0
 20
0.0
 30
0.0
 70
   128
 71
   196
 72
   165
 73
  -198
  0
VERTEX
  8
RK-SINKB
 10
0.0
 20
0.0
 30
0.0
 70
   128
 71
   200
 72
  -199
 73
   166
  0
VERTEX
  8
RK-SINKB
 10
0.0
 20
0.0
 30
0.0
 70
   128
 71
  -166
 72
   199
 73
   201
  0
VERTEX
  8
RK-SINKB
 10
0.0
 20
0.0
 30
0.0
 70
   128
 71
   203
 72
  -199
 73
   202
  0
VERTEX
  8
RK-SINKB
 10
0.0
 20
0.0
 30
0.0
 70
   128
 71
   200
 72
  -202
 73
   199
  0
VERTEX
  8
RK-SINKB
 10
0.0
 20
0.0
 30
0.0
 70
   128
 71
   203
 72
  -202
 73
   204
  0
VERTEX
  8
RK-SINKB
 10
0.0
 20
0.0
 30
0.0
 70
   128
 71
   205
 72
  -204
 73
   202
  0
VERTEX
  8
RK-SINKB
 10
0.0
 20
0.0
 30
0.0
 70
   128
 71
   204
 72
  -205
 73
   206
  0
VERTEX
  8
RK-SINKB
 10
0.0
 20
0.0
 30
0.0
 70
   128
 71
   205
 72
   164
 73
  -206
  0
VERTEX
  8
RK-SINKB
 10
0.0
 20
0.0
 30
0.0
 70
   128
 71
   208
 72
  -207
 73
   163
  0
VERTEX
  8
RK-SINKB
 10
0.0
 20
0.0
 30
0.0
 70
   128
 71
  -163
 72
   207
 73
   209
  0
VERTEX
  8
RK-SINKB
 10
0.0
 20
0.0
 30
0.0
 70
   128
 71
   211
 72
  -207
 73
   210
  0
VERTEX
  8
RK-SINKB
 10
0.0
 20
0.0
 30
0.0
 70
   128
 71
   208
 72
  -210
 73
   207
  0
VERTEX
  8
RK-SINKB
 10
0.0
 20
0.0
 30
0.0
 70
   128
 71
   211
 72
  -210
 73
   212
  0
VERTEX
  8
RK-SINKB
 10
0.0
 20
0.0
 30
0.0
 70
   128
 71
   213
 72
  -212
 73
   210
  0
VERTEX
  8
RK-SINKB
 10
0.0
 20
0.0
 30
0.0
 70
   128
 71
   212
 72
  -213
 73
   214
  0
VERTEX
  8
RK-SINKB
 10
0.0
 20
0.0
 30
0.0
 70
   128
 71
   213
 72
   161
 73
  -214
  0
VERTEX
  8
RK-SINKB
 10
0.0
 20
0.0
 30
0.0
 70
   128
 71
   161
 72
  -162
 73
   214
  0
VERTEX
  8
RK-SINKB
 10
0.0
 20
0.0
 30
0.0
 70
   128
 71
   162
 72
   185
 73
  -214
  0
VERTEX
  8
RK-SINKB
 10
0.0
 20
0.0
 30
0.0
 70
   128
 71
  -216
 72
  -204
 73
   215
  0
VERTEX
  8
RK-SINKB
 10
0.0
 20
0.0
 30
0.0
 70
   128
 71
  -216
 72
   203
 73
  -204
  0
VERTEX
  8
RK-SINKB
 10
0.0
 20
0.0
 30
0.0
 70
   128
 71
  -217
 72
  -203
 73
   216
  0
VERTEX
  8
RK-SINKB
 10
0.0
 20
0.0
 30
0.0
 70
   128
 71
  -217
 72
   199
 73
  -203
  0
VERTEX
  8
RK-SINKB
 10
0.0
 20
0.0
 30
0.0
 70
   128
 71
  -219
 72
  -197
 73
   218
  0
VERTEX
  8
RK-SINKB
 10
0.0
 20
0.0
 30
0.0
 70
   128
 71
  -219
 72
   194
 73
  -197
  0
VERTEX
  8
RK-SINKB
 10
0.0
 20
0.0
 30
0.0
 70
   128
 71
  -220
 72
  -194
 73
   219
  0
VERTEX
  8
RK-SINKB
 10
0.0
 20
0.0
 30
0.0
 70
   128
 71
  -220
 72
   191
 73
  -194
  0
VERTEX
  8
RK-SINKB
 10
0.0
 20
0.0
 30
0.0
 70
   128
 71
   223
 72
  -221
 73
   222
  0
VERTEX
  8
RK-SINKB
 10
0.0
 20
0.0
 30
0.0
 70
   128
 71
   221
 72
   220
 73
  -222
  0
VERTEX
  8
RK-SINKB
 10
0.0
 20
0.0
 30
0.0
 70
   128
 71
   220
 72
  -219
 73
   222
  0
VERTEX
  8
RK-SINKB
 10
0.0
 20
0.0
 30
0.0
 70
   128
 71
  -222
 72
   219
 73
   224
  0
VERTEX
  8
RK-SINKB
 10
0.0
 20
0.0
 30
0.0
 70
   128
 71
   225
 72
  -224
 73
   218
  0
VERTEX
  8
RK-SINKB
 10
0.0
 20
0.0
 30
0.0
 70
   128
 71
   219
 72
  -218
 73
   224
  0
VERTEX
  8
RK-SINKB
 10
0.0
 20
0.0
 30
0.0
 70
   128
 71
   227
 72
  -225
 73
   226
  0
VERTEX
  8
RK-SINKB
 10
0.0
 20
0.0
 30
0.0
 70
   128
 71
   218
 72
  -226
 73
   225
  0
VERTEX
  8
RK-SINKB
 10
0.0
 20
0.0
 30
0.0
 70
   128
 71
   230
 72
  -228
 73
   229
  0
VERTEX
  8
RK-SINKB
 10
0.0
 20
0.0
 30
0.0
 70
   128
 71
   228
 72
   217
 73
  -229
  0
VERTEX
  8
RK-SINKB
 10
0.0
 20
0.0
 30
0.0
 70
   128
 71
   217
 72
  -216
 73
   229
  0
VERTEX
  8
RK-SINKB
 10
0.0
 20
0.0
 30
0.0
 70
   128
 71
  -229
 72
   216
 73
   231
  0
VERTEX
  8
RK-SINKB
 10
0.0
 20
0.0
 30
0.0
 70
   128
 71
   232
 72
  -231
 73
   215
  0
VERTEX
  8
RK-SINKB
 10
0.0
 20
0.0
 30
0.0
 70
   128
 71
   216
 72
  -215
 73
   231
  0
VERTEX
  8
RK-SINKB
 10
0.0
 20
0.0
 30
0.0
 70
   128
 71
   234
 72
  -233
 73
   215
  0
VERTEX
  8
RK-SINKB
 10
0.0
 20
0.0
 30
0.0
 70
   128
 71
   232
 72
  -215
 73
   233
  0
VERTEX
  8
RK-SINKB
 10
0.0
 20
0.0
 30
0.0
 70
   128
 71
   237
 72
  -235
 73
   236
  0
VERTEX
  8
RK-SINKB
 10
0.0
 20
0.0
 30
0.0
 70
   128
 71
   235
 72
   238
 73
  -236
  0
VERTEX
  8
RK-SINKB
 10
0.0
 20
0.0
 30
0.0
 70
   128
 71
   238
 72
  -239
 73
   236
  0
VERTEX
  8
RK-SINKB
 10
0.0
 20
0.0
 30
0.0
 70
   128
 71
  -236
 72
   239
 73
   240
  0
VERTEX
  8
RK-SINKB
 10
0.0
 20
0.0
 30
0.0
 70
   128
 71
   242
 72
  -240
 73
   241
  0
VERTEX
  8
RK-SINKB
 10
0.0
 20
0.0
 30
0.0
 70
   128
 71
   239
 72
  -241
 73
   240
  0
VERTEX
  8
RK-SINKB
 10
0.0
 20
0.0
 30
0.0
 70
   128
 71
   244
 72
  -242
 73
   243
  0
VERTEX
  8
RK-SINKB
 10
0.0
 20
0.0
 30
0.0
 70
   128
 71
   241
 72
  -243
 73
   242
  0
VERTEX
  8
RK-SINKB
 10
0.0
 20
0.0
 30
0.0
 70
   128
 71
   247
 72
  -245
 73
   246
  0
VERTEX
  8
RK-SINKB
 10
0.0
 20
0.0
 30
0.0
 70
   128
 71
   245
 72
   248
 73
  -246
  0
VERTEX
  8
RK-SINKB
 10
0.0
 20
0.0
 30
0.0
 70
   128
 71
   245
 72
  -249
 73
   248
  0
VERTEX
  8
RK-SINKB
 10
0.0
 20
0.0
 30
0.0
 70
   128
 71
  -248
 72
   249
 73
   250
  0
VERTEX
  8
RK-SINKB
 10
0.0
 20
0.0
 30
0.0
 70
   128
 71
   252
 72
  -250
 73
   251
  0
VERTEX
  8
RK-SINKB
 10
0.0
 20
0.0
 30
0.0
 70
   128
 71
   249
 72
  -251
 73
   250
  0
VERTEX
  8
RK-SINKB
 10
0.0
 20
0.0
 30
0.0
 70
   128
 71
   254
 72
  -252
 73
   253
  0
VERTEX
  8
RK-SINKB
 10
0.0
 20
0.0
 30
0.0
 70
   128
 71
   251
 72
  -253
 73
   252
  0
VERTEX
  8
RK-SINKB
 10
0.0
 20
0.0
 30
0.0
 70
   128
 71
   193
 72
  -221
 73
   160
  0
VERTEX
  8
RK-SINKB
 10
0.0
 20
0.0
 30
0.0
 70
   128
 71
   159
 72
  -160
 73
   190
  0
VERTEX
  8
RK-SINKB
 10
0.0
 20
0.0
 30
0.0
 70
   128
 71
   253
 72
  -190
 73
   254
  0
VERTEX
  8
RK-SINKB
 10
0.0
 20
0.0
 30
0.0
 70
   128
 71
  -254
 72
  -190
 73
   223
  0
VERTEX
  8
RK-SINKB
 10
0.0
 20
0.0
 30
0.0
 70
   128
 71
  -160
 72
  -221
 73
  -190
  0
VERTEX
  8
RK-SINKB
 10
0.0
 20
0.0
 30
0.0
 70
   128
 71
   221
 72
  -223
 73
  -190
  0
VERTEX
  8
RK-SINKB
 10
0.0
 20
0.0
 30
0.0
 70
   128
 71
   247
 72
  -246
 73
   243
  0
VERTEX
  8
RK-SINKB
 10
0.0
 20
0.0
 30
0.0
 70
   128
 71
   246
 72
   244
 73
  -243
  0
VERTEX
  8
RK-SINKB
 10
0.0
 20
0.0
 30
0.0
 70
   128
 71
   163
 72
  -209
 73
   164
  0
VERTEX
  8
RK-SINKB
 10
0.0
 20
0.0
 30
0.0
 70
   128
 71
   206
 72
  -164
 73
   234
  0
VERTEX
  8
RK-SINKB
 10
0.0
 20
0.0
 30
0.0
 70
   128
 71
   233
 72
  -234
 73
   237
  0
VERTEX
  8
RK-SINKB
 10
0.0
 20
0.0
 30
0.0
 70
   128
 71
   235
 72
  -237
 73
   209
  0
VERTEX
  8
RK-SINKB
 10
0.0
 20
0.0
 30
0.0
 70
   128
 71
  -209
 72
  -237
 73
  -164
  0
VERTEX
  8
RK-SINKB
 10
0.0
 20
0.0
 30
0.0
 70
   128
 71
  -164
 72
  -237
 73
  -234
  0
VERTEX
  8
RK-SINKB
 10
0.0
 20
0.0
 30
0.0
 70
   128
 71
   201
 72
  -228
 73
   166
  0
VERTEX
  8
RK-SINKB
 10
0.0
 20
0.0
 30
0.0
 70
   128
 71
   165
 72
  -166
 73
   198
  0
VERTEX
  8
RK-SINKB
 10
0.0
 20
0.0
 30
0.0
 70
   128
 71
   227
 72
  -226
 73
   230
  0
VERTEX
  8
RK-SINKB
 10
0.0
 20
0.0
 30
0.0
 70
   128
 71
  -230
 72
  -226
 73
   228
  0
VERTEX
  8
RK-SINKB
 10
0.0
 20
0.0
 30
0.0
 70
   128
 71
  -198
 72
  -166
 73
   226
  0
VERTEX
  8
RK-SINKB
 10
0.0
 20
0.0
 30
0.0
 70
   128
 71
  -166
 72
  -228
 73
  -226
  0
VERTEX
  8
RK-SINKB
 10
0.0
 20
0.0
 30
0.0
 70
   128
 71
   209
 72
  -207
 73
   235
  0
VERTEX
  8
RK-SINKB
 10
0.0
 20
0.0
 30
0.0
 70
   128
 71
   207
 72
  -211
 73
  -235
  0
VERTEX
  8
RK-SINKB
 10
0.0
 20
0.0
 30
0.0
 70
   128
 71
   211
 72
  -212
 73
  -235
  0
VERTEX
  8
RK-SINKB
 10
0.0
 20
0.0
 30
0.0
 70
   128
 71
   212
 72
  -214
 73
  -235
  0
VERTEX
  8
RK-SINKB
 10
0.0
 20
0.0
 30
0.0
 70
   128
 71
   214
 72
  -185
 73
  -235
  0
VERTEX
  8
RK-SINKB
 10
0.0
 20
0.0
 30
0.0
 70
   128
 71
   238
 72
  -235
 73
   239
  0
VERTEX
  8
RK-SINKB
 10
0.0
 20
0.0
 30
0.0
 70
   128
 71
   241
 72
  -239
 73
   243
  0
VERTEX
  8
RK-SINKB
 10
0.0
 20
0.0
 30
0.0
 70
   128
 71
   247
 72
  -243
 73
   245
  0
VERTEX
  8
RK-SINKB
 10
0.0
 20
0.0
 30
0.0
 70
   128
 71
   249
 72
  -245
 73
   251
  0
VERTEX
  8
RK-SINKB
 10
0.0
 20
0.0
 30
0.0
 70
   128
 71
   253
 72
  -251
 73
   190
  0
VERTEX
  8
RK-SINKB
 10
0.0
 20
0.0
 30
0.0
 70
   128
 71
  -235
 72
  -185
 73
  -239
  0
VERTEX
  8
RK-SINKB
 10
0.0
 20
0.0
 30
0.0
 70
   128
 71
  -239
 72
  -185
 73
  -243
  0
VERTEX
  8
RK-SINKB
 10
0.0
 20
0.0
 30
0.0
 70
   128
 71
   185
 72
  -183
 73
  -243
  0
VERTEX
  8
RK-SINKB
 10
0.0
 20
0.0
 30
0.0
 70
   128
 71
  -243
 72
  -183
 73
  -245
  0
VERTEX
  8
RK-SINKB
 10
0.0
 20
0.0
 30
0.0
 70
   128
 71
  -190
 72
  -251
 73
   189
  0
VERTEX
  8
RK-SINKB
 10
0.0
 20
0.0
 30
0.0
 70
   128
 71
  -189
 72
  -251
 73
   186
  0
VERTEX
  8
RK-SINKB
 10
0.0
 20
0.0
 30
0.0
 70
   128
 71
   183
 72
  -186
 73
  -245
  0
VERTEX
  8
RK-SINKB
 10
0.0
 20
0.0
 30
0.0
 70
   128
 71
  -245
 72
  -186
 73
  -251
  0
VERTEX
  8
RK-SINKB
 10
0.0
 20
0.0
 30
0.0
 70
   128
 71
  -257
 72
   255
 73
   256
  0
VERTEX
  8
RK-SINKB
 10
0.0
 20
0.0
 30
0.0
 70
   128
 71
   258
 72
  -255
 73
   257
  0
VERTEX
  8
RK-SINKB
 10
0.0
 20
0.0
 30
0.0
 70
   128
 71
  -260
 72
   255
 73
   259
  0
VERTEX
  8
RK-SINKB
 10
0.0
 20
0.0
 30
0.0
 70
   128
 71
  -255
 72
   260
 73
   256
  0
VERTEX
  8
RK-SINKB
 10
0.0
 20
0.0
 30
0.0
 70
   128
 71
  -261
 72
   260
 73
   259
  0
VERTEX
  8
RK-SINKB
 10
0.0
 20
0.0
 30
0.0
 70
   128
 71
  -260
 72
   261
 73
   262
  0
VERTEX
  8
RK-SINKB
 10
0.0
 20
0.0
 30
0.0
 70
   128
 71
  -263
 72
   262
 73
   261
  0
VERTEX
  8
RK-SINKB
 10
0.0
 20
0.0
 30
0.0
 70
   128
 71
   263
 72
   264
 73
  -262
  0
VERTEX
  8
RK-SINKB
 10
0.0
 20
0.0
 30
0.0
 70
   128
 71
  -267
 72
   265
 73
   266
  0
VERTEX
  8
RK-SINKB
 10
0.0
 20
0.0
 30
0.0
 70
   128
 71
   268
 72
  -265
 73
   267
  0
VERTEX
  8
RK-SINKB
 10
0.0
 20
0.0
 30
0.0
 70
   128
 71
  -265
 72
   269
 73
   270
  0
VERTEX
  8
RK-SINKB
 10
0.0
 20
0.0
 30
0.0
 70
   128
 71
  -269
 72
   265
 73
   268
  0
VERTEX
  8
RK-SINKB
 10
0.0
 20
0.0
 30
0.0
 70
   128
 71
  -272
 72
   269
 73
   271
  0
VERTEX
  8
RK-SINKB
 10
0.0
 20
0.0
 30
0.0
 70
   128
 71
  -269
 72
   272
 73
   270
  0
VERTEX
  8
RK-SINKB
 10
0.0
 20
0.0
 30
0.0
 70
   128
 71
  -273
 72
   272
 73
   271
  0
VERTEX
  8
RK-SINKB
 10
0.0
 20
0.0
 30
0.0
 70
   128
 71
   273
 72
   274
 73
  -272
  0
VERTEX
  8
RK-SINKB
 10
0.0
 20
0.0
 30
0.0
 70
   128
 71
  -277
 72
   275
 73
   276
  0
VERTEX
  8
RK-SINKB
 10
0.0
 20
0.0
 30
0.0
 70
   128
 71
   278
 72
  -275
 73
   277
  0
VERTEX
  8
RK-SINKB
 10
0.0
 20
0.0
 30
0.0
 70
   128
 71
  -280
 72
   278
 73
   279
  0
VERTEX
  8
RK-SINKB
 10
0.0
 20
0.0
 30
0.0
 70
   128
 71
  -278
 72
   280
 73
   275
  0
VERTEX
  8
RK-SINKB
 10
0.0
 20
0.0
 30
0.0
 70
   128
 71
  -281
 72
   280
 73
   279
  0
VERTEX
  8
RK-SINKB
 10
0.0
 20
0.0
 30
0.0
 70
   128
 71
  -280
 72
   281
 73
   282
  0
VERTEX
  8
RK-SINKB
 10
0.0
 20
0.0
 30
0.0
 70
   128
 71
  -283
 72
   282
 73
   281
  0
VERTEX
  8
RK-SINKB
 10
0.0
 20
0.0
 30
0.0
 70
   128
 71
   283
 72
   284
 73
  -282
  0
VERTEX
  8
RK-SINKB
 10
0.0
 20
0.0
 30
0.0
 70
   128
 71
  -287
 72
   285
 73
   286
  0
VERTEX
  8
RK-SINKB
 10
0.0
 20
0.0
 30
0.0
 70
   128
 71
   288
 72
  -285
 73
   287
  0
VERTEX
  8
RK-SINKB
 10
0.0
 20
0.0
 30
0.0
 70
   128
 71
  -286
 72
   289
 73
   290
  0
VERTEX
  8
RK-SINKB
 10
0.0
 20
0.0
 30
0.0
 70
   128
 71
  -289
 72
   286
 73
   285
  0
VERTEX
  8
RK-SINKB
 10
0.0
 20
0.0
 30
0.0
 70
   128
 71
  -291
 72
   290
 73
   289
  0
VERTEX
  8
RK-SINKB
 10
0.0
 20
0.0
 30
0.0
 70
   128
 71
  -290
 72
   291
 73
   292
  0
VERTEX
  8
RK-SINKB
 10
0.0
 20
0.0
 30
0.0
 70
   128
 71
  -293
 72
   292
 73
   291
  0
VERTEX
  8
RK-SINKB
 10
0.0
 20
0.0
 30
0.0
 70
   128
 71
   293
 72
   294
 73
  -292
  0
VERTEX
  8
RK-SINKB
 10
0.0
 20
0.0
 30
0.0
 70
   128
 71
  -274
 72
   258
 73
   257
  0
VERTEX
  8
RK-SINKB
 10
0.0
 20
0.0
 30
0.0
 70
   128
 71
   274
 72
   273
 73
  -258
  0
VERTEX
  8
RK-SINKB
 10
0.0
 20
0.0
 30
0.0
 70
   128
 71
  -267
 72
   284
 73
   283
  0
VERTEX
  8
RK-SINKB
 10
0.0
 20
0.0
 30
0.0
 70
   128
 71
  -284
 72
   267
 73
   266
  0
VERTEX
  8
RK-SINKB
 10
0.0
 20
0.0
 30
0.0
 70
   128
 71
  -277
 72
   294
 73
   293
  0
VERTEX
  8
RK-SINKB
 10
0.0
 20
0.0
 30
0.0
 70
   128
 71
  -294
 72
   277
 73
   276
  0
VERTEX
  8
RK-SINKB
 10
0.0
 20
0.0
 30
0.0
 70
   128
 71
  -264
 72
   288
 73
   287
  0
VERTEX
  8
RK-SINKB
 10
0.0
 20
0.0
 30
0.0
 70
   128
 71
   263
 72
  -288
 73
   264
  0
VERTEX
  8
RK-SINKB
 10
0.0
 20
0.0
 30
0.0
 70
   128
 71
  -257
 72
  -233
 73
   274
  0
VERTEX
  8
RK-SINKB
 10
0.0
 20
0.0
 30
0.0
 70
   128
 71
  -257
 72
   232
 73
  -233
  0
VERTEX
  8
RK-SINKB
 10
0.0
 20
0.0
 30
0.0
 70
   128
 71
  -257
 72
   231
 73
  -232
  0
VERTEX
  8
RK-SINKB
 10
0.0
 20
0.0
 30
0.0
 70
   128
 71
  -257
 72
   229
 73
  -231
  0
VERTEX
  8
RK-SINKB
 10
0.0
 20
0.0
 30
0.0
 70
   128
 71
  -257
 72
   230
 73
  -229
  0
VERTEX
  8
RK-SINKB
 10
0.0
 20
0.0
 30
0.0
 70
   128
 71
  -256
 72
  -230
 73
   257
  0
VERTEX
  8
RK-SINKB
 10
0.0
 20
0.0
 30
0.0
 70
   128
 71
  -256
 72
   227
 73
  -230
  0
VERTEX
  8
RK-SINKB
 10
0.0
 20
0.0
 30
0.0
 70
   128
 71
  -260
 72
  -227
 73
   256
  0
VERTEX
  8
RK-SINKB
 10
0.0
 20
0.0
 30
0.0
 70
   128
 71
  -262
 72
  -227
 73
   260
  0
VERTEX
  8
RK-SINKB
 10
0.0
 20
0.0
 30
0.0
 70
   128
 71
  -264
 72
  -227
 73
   262
  0
VERTEX
  8
RK-SINKB
 10
0.0
 20
0.0
 30
0.0
 70
   128
 71
  -287
 72
  -227
 73
   264
  0
VERTEX
  8
RK-SINKB
 10
0.0
 20
0.0
 30
0.0
 70
   128
 71
  -287
 72
   225
 73
  -227
  0
VERTEX
  8
RK-SINKB
 10
0.0
 20
0.0
 30
0.0
 70
   128
 71
  -287
 72
   224
 73
  -225
  0
VERTEX
  8
RK-SINKB
 10
0.0
 20
0.0
 30
0.0
 70
   128
 71
  -286
 72
  -224
 73
   287
  0
VERTEX
  8
RK-SINKB
 10
0.0
 20
0.0
 30
0.0
 70
   128
 71
  -292
 72
   286
 73
   290
  0
VERTEX
  8
RK-SINKB
 10
0.0
 20
0.0
 30
0.0
 70
   128
 71
  -276
 72
   292
 73
   294
  0
VERTEX
  8
RK-SINKB
 10
0.0
 20
0.0
 30
0.0
 70
   128
 71
  -280
 72
   276
 73
   275
  0
VERTEX
  8
RK-SINKB
 10
0.0
 20
0.0
 30
0.0
 70
   128
 71
  -284
 72
   280
 73
   282
  0
VERTEX
  8
RK-SINKB
 10
0.0
 20
0.0
 30
0.0
 70
   128
 71
  -265
 72
   284
 73
   266
  0
VERTEX
  8
RK-SINKB
 10
0.0
 20
0.0
 30
0.0
 70
   128
 71
  -272
 72
   265
 73
   270
  0
VERTEX
  8
RK-SINKB
 10
0.0
 20
0.0
 30
0.0
 70
   128
 71
  -233
 72
   272
 73
  -274
  0
VERTEX
  8
RK-SINKB
 10
0.0
 20
0.0
 30
0.0
 70
   128
 71
  -286
 72
   222
 73
  -224
  0
VERTEX
  8
RK-SINKB
 10
0.0
 20
0.0
 30
0.0
 70
   128
 71
  -286
 72
   223
 73
  -222
  0
VERTEX
  8
RK-SINKB
 10
0.0
 20
0.0
 30
0.0
 70
   128
 71
  -286
 72
   254
 73
  -223
  0
VERTEX
  8
RK-SINKB
 10
0.0
 20
0.0
 30
0.0
 70
   128
 71
  -292
 72
  -254
 73
  -286
  0
VERTEX
  8
RK-SINKB
 10
0.0
 20
0.0
 30
0.0
 70
   128
 71
  -276
 72
  -254
 73
  -292
  0
VERTEX
  8
RK-SINKB
 10
0.0
 20
0.0
 30
0.0
 70
   128
 71
  -276
 72
   252
 73
  -254
  0
VERTEX
  8
RK-SINKB
 10
0.0
 20
0.0
 30
0.0
 70
   128
 71
  -276
 72
   250
 73
  -252
  0
VERTEX
  8
RK-SINKB
 10
0.0
 20
0.0
 30
0.0
 70
   128
 71
  -276
 72
   248
 73
  -250
  0
VERTEX
  8
RK-SINKB
 10
0.0
 20
0.0
 30
0.0
 70
   128
 71
  -284
 72
  -276
 73
  -280
  0
VERTEX
  8
RK-SINKB
 10
0.0
 20
0.0
 30
0.0
 70
   128
 71
  -272
 72
  -284
 73
  -265
  0
VERTEX
  8
RK-SINKB
 10
0.0
 20
0.0
 30
0.0
 70
   128
 71
  -237
 72
  -272
 73
   233
  0
VERTEX
  8
RK-SINKB
 10
0.0
 20
0.0
 30
0.0
 70
   128
 71
  -276
 72
   246
 73
  -248
  0
VERTEX
  8
RK-SINKB
 10
0.0
 20
0.0
 30
0.0
 70
   128
 71
  -284
 72
  -246
 73
  -276
  0
VERTEX
  8
RK-SINKB
 10
0.0
 20
0.0
 30
0.0
 70
   128
 71
  -284
 72
   244
 73
  -246
  0
VERTEX
  8
RK-SINKB
 10
0.0
 20
0.0
 30
0.0
 70
   128
 71
  -272
 72
  -244
 73
  -284
  0
VERTEX
  8
RK-SINKB
 10
0.0
 20
0.0
 30
0.0
 70
   128
 71
  -236
 72
  -272
 73
   237
  0
VERTEX
  8
RK-SINKB
 10
0.0
 20
0.0
 30
0.0
 70
   128
 71
  -240
 72
  -272
 73
   236
  0
VERTEX
  8
RK-SINKB
 10
0.0
 20
0.0
 30
0.0
 70
   128
 71
  -272
 72
   242
 73
  -244
  0
VERTEX
  8
RK-SINKB
 10
0.0
 20
0.0
 30
0.0
 70
   128
 71
  -272
 72
   240
 73
  -242
  0
VERTEX
  8
RK-SINKB
 10
0.0
 20
0.0
 30
0.0
 70
   128
 71
  -293
 72
  -295
 73
   277
  0
VERTEX
  8
RK-SINKB
 10
0.0
 20
0.0
 30
0.0
 70
   128
 71
  -277
 72
  -295
 73
   278
  0
VERTEX
  8
RK-SINKB
 10
0.0
 20
0.0
 30
0.0
 70
   128
 71
  -278
 72
  -295
 73
   279
  0
VERTEX
  8
RK-SINKB
 10
0.0
 20
0.0
 30
0.0
 70
   128
 71
   281
 72
  -279
 73
   283
  0
VERTEX
  8
RK-SINKB
 10
0.0
 20
0.0
 30
0.0
 70
   128
 71
   267
 72
  -283
 73
   268
  0
VERTEX
  8
RK-SINKB
 10
0.0
 20
0.0
 30
0.0
 70
   128
 71
   269
 72
  -268
 73
   271
  0
VERTEX
  8
RK-SINKB
 10
0.0
 20
0.0
 30
0.0
 70
   128
 71
   273
 72
  -271
 73
   258
  0
VERTEX
  8
RK-SINKB
 10
0.0
 20
0.0
 30
0.0
 70
   128
 71
   255
 72
  -258
 73
   259
  0
VERTEX
  8
RK-SINKB
 10
0.0
 20
0.0
 30
0.0
 70
   128
 71
   261
 72
  -259
 73
   263
  0
VERTEX
  8
RK-SINKB
 10
0.0
 20
0.0
 30
0.0
 70
   128
 71
   288
 72
  -263
 73
   285
  0
VERTEX
  8
RK-SINKB
 10
0.0
 20
0.0
 30
0.0
 70
   128
 71
   289
 72
  -285
 73
   291
  0
VERTEX
  8
RK-SINKB
 10
0.0
 20
0.0
 30
0.0
 70
   128
 71
   293
 72
  -291
 73
  -295
  0
VERTEX
  8
RK-SINKB
 10
0.0
 20
0.0
 30
0.0
 70
   128
 71
  -279
 72
  -296
 73
  -283
  0
VERTEX
  8
RK-SINKB
 10
0.0
 20
0.0
 30
0.0
 70
   128
 71
  -283
 72
  -296
 73
  -268
  0
VERTEX
  8
RK-SINKB
 10
0.0
 20
0.0
 30
0.0
 70
   128
 71
  -268
 72
  -296
 73
  -271
  0
VERTEX
  8
RK-SINKB
 10
0.0
 20
0.0
 30
0.0
 70
   128
 71
  -258
 72
  -271
 73
  -259
  0
VERTEX
  8
RK-SINKB
 10
0.0
 20
0.0
 30
0.0
 70
   128
 71
  -263
 72
  -259
 73
  -285
  0
VERTEX
  8
RK-SINKB
 10
0.0
 20
0.0
 30
0.0
 70
   128
 71
  -291
 72
  -285
 73
  -295
  0
VERTEX
  8
RK-SINKB
 10
0.0
 20
0.0
 30
0.0
 70
   128
 71
  -271
 72
  -297
 73
  -259
  0
VERTEX
  8
RK-SINKB
 10
0.0
 20
0.0
 30
0.0
 70
   128
 71
  -285
 72
  -259
 73
  -298
  0
SEQEND
  8
RK-SINKB
  0
POLYLINE
  8
RK-DRAIN
 66
     1
 10
0.0
 20
0.0
 30
0.0
 70
    64
 71
     6
 72
     3
  0
VERTEX
  8
RK-DRAIN
 10
12.625
 20
-12.5
 30
0.5
 70
   192
  0
VERTEX
  8
RK-DRAIN
 10
12.625
 20
-12.5
 30
0.0
 70
   192
  0
VERTEX
  8
RK-DRAIN
 10
12.62074072828613
 20
-12.46764761936218
 30
0.0
 70
   192
  0
VERTEX
  8
RK-DRAIN
 10
12.62074072828613
 20
-12.46764761936218
 30
0.5
 70
   192
  0
VERTEX
  8
RK-DRAIN
 10
14.25
 20
-12.5
 30
0.0
 70
   192
  0
VERTEX
  8
RK-DRAIN
 10
14.25
 20
-12.5
 30
0.8125
 70
   192
  0
VERTEX
  8
RK-DRAIN
 10
14.19037019600587
 20
-12.04706667107059
 30
0.8125
 70
   192
  0
VERTEX
  8
RK-DRAIN
 10
14.19037019600587
 20
-12.04706667107059
 30
0.0
 70
   192
  0
VERTEX
  8
RK-DRAIN
 10
12.60825317547305
 20
-12.4375
 30
0.0
 70
   192
  0
VERTEX
  8
RK-DRAIN
 10
12.60825317547305
 20
-12.4375
 30
0.5
 70
   192
  0
VERTEX
  8
RK-DRAIN
 10
14.01554445662277
 20
-11.625
 30
0.8125
 70
   192
  0
VERTEX
  8
RK-DRAIN
 10
14.01554445662277
 20
-11.625
 30
0.0
 70
   192
  0
VERTEX
  8
RK-DRAIN
 10
12.58838834764832
 20
-12.41161165235168
 30
0.0
 70
   192
  0
VERTEX
  8
RK-DRAIN
 10
12.58838834764832
 20
-12.41161165235168
 30
0.5
 70
   192
  0
VERTEX
  8
RK-DRAIN
 10
13.73743686707645
 20
-11.26256313292354
 30
0.8125
 70
   192
  0
VERTEX
  8
RK-DRAIN
 10
13.73743686707645
 20
-11.26256313292354
 30
0.0
 70
   192
  0
VERTEX
  8
RK-DRAIN
 10
12.5625
 20
-12.39174682452694
 30
0.0
 70
   192
  0
VERTEX
  8
RK-DRAIN
 10
12.5625
 20
-12.39174682452694
 30
0.5
 70
   192
  0
VERTEX
  8
RK-DRAIN
 10
13.375
 20
-10.98445554337723
 30
0.8125
 70
   192
  0
VERTEX
  8
RK-DRAIN
 10
13.375
 20
-10.98445554337723
 30
0.0
 70
   192
  0
VERTEX
  8
RK-DRAIN
 10
12.53235238063781
 20
-12.37925927171386
 30
0.0
 70
   192
  0
VERTEX
  8
RK-DRAIN
 10
12.53235238063781
 20
-12.37925927171386
 30
0.5
 70
   192
  0
VERTEX
  8
RK-DRAIN
 10
12.95293332892941
 20
-10.80962980399413
 30
0.8125
 70
   192
  0
VERTEX
  8
RK-DRAIN
 10
12.95293332892941
 20
-10.80962980399413
 30
0.0
 70
   192
  0
VERTEX
  8
RK-DRAIN
 10
12.5
 20
-12.375
 30
0.0
 70
   192
  0
VERTEX
  8
RK-DRAIN
 10
12.5
 20
-12.375
 30
0.5
 70
   192
  0
VERTEX
  8
RK-DRAIN
 10
12.5
 20
-10.75
 30
0.8125
 70
   192
  0
VERTEX
  8
RK-DRAIN
 10
12.5
 20
-10.75
 30
0.0
 70
   192
  0
VERTEX
  8
RK-DRAIN
 10
12.46764761936218
 20
-12.37925927171386
 30
0.0
 70
   192
  0
VERTEX
  8
RK-DRAIN
 10
12.46764761936218
 20
-12.37925927171386
 30
0.5
 70
   192
  0
VERTEX
  8
RK-DRAIN
 10
12.04706667107058
 20
-10.80962980399413
 30
0.8125
 70
   192
  0
VERTEX
  8
RK-DRAIN
 10
12.04706667107058
 20
-10.80962980399413
 30
0.0
 70
   192
  0
VERTEX
  8
RK-DRAIN
 10
12.4375
 20
-12.39174682452694
 30
0.0
 70
   192
  0
VERTEX
  8
RK-DRAIN
 10
12.4375
 20
-12.39174682452694
 30
0.5
 70
   192
  0
VERTEX
  8
RK-DRAIN
 10
11.625
 20
-10.98445554337723
 30
0.8125
 70
   192
  0
VERTEX
  8
RK-DRAIN
 10
11.625
 20
-10.98445554337723
 30
0.0
 70
   192
  0
VERTEX
  8
RK-DRAIN
 10
12.41161165235168
 20
-12.41161165235168
 30
0.0
 70
   192
  0
VERTEX
  8
RK-DRAIN
 10
12.41161165235168
 20
-12.41161165235168
 30
0.5
 70
   192
  0
VERTEX
  8
RK-DRAIN
 10
11.26256313292354
 20
-11.26256313292354
 30
0.8125
 70
   192
  0
VERTEX
  8
RK-DRAIN
 10
11.26256313292354
 20
-11.26256313292354
 30
0.0
 70
   192
  0
VERTEX
  8
RK-DRAIN
 10
12.39174682452694
 20
-12.4375
 30
0.0
 70
   192
  0
VERTEX
  8
RK-DRAIN
 10
12.39174682452694
 20
-12.4375
 30
0.5
 70
   192
  0
VERTEX
  8
RK-DRAIN
 10
10.98445554337722
 20
-11.625
 30
0.8125
 70
   192
  0
VERTEX
  8
RK-DRAIN
 10
10.98445554337722
 20
-11.625
 30
0.0
 70
   192
  0
VERTEX
  8
RK-DRAIN
 10
12.37925927171386
 20
-12.46764761936218
 30
0.0
 70
   192
  0
VERTEX
  8
RK-DRAIN
 10
12.37925927171386
 20
-12.46764761936218
 30
0.5
 70
   192
  0
VERTEX
  8
RK-DRAIN
 10
10.80962980399412
 20
-12.04706667107059
 30
0.8125
 70
   192
  0
VERTEX
  8
RK-DRAIN
 10
10.80962980399412
 20
-12.04706667107059
 30
0.0
 70
   192
  0
VERTEX
  8
RK-DRAIN
 10
12.375
 20
-12.5
 30
0.0
 70
   192
  0
VERTEX
  8
RK-DRAIN
 10
12.37499999999999
 20
-12.5
 30
0.5
 70
   192
  0
VERTEX
  8
RK-DRAIN
 10
10.74999999999999
 20
-12.5
 30
0.8125
 70
   192
  0
VERTEX
  8
RK-DRAIN
 10
10.74999999999999
 20
-12.5
 30
0.0
 70
   192
  0
VERTEX
  8
RK-DRAIN
 10
12.37925927171386
 20
-12.53235238063781
 30
0.0
 70
   192
  0
VERTEX
  8
RK-DRAIN
 10
12.37925927171386
 20
-12.53235238063781
 30
0.5
 70
   192
  0
VERTEX
  8
RK-DRAIN
 10
10.80962980399413
 20
-12.95293332892941
 30
0.8125
 70
   192
  0
VERTEX
  8
RK-DRAIN
 10
10.80962980399413
 20
-12.95293332892941
 30
0.0
 70
   192
  0
VERTEX
  8
RK-DRAIN
 10
12.39174682452694
 20
-12.5625
 30
0.0
 70
   192
  0
VERTEX
  8
RK-DRAIN
 10
12.39174682452694
 20
-12.5625
 30
0.5
 70
   192
  0
VERTEX
  8
RK-DRAIN
 10
10.98445554337723
 20
-13.375
 30
0.8125
 70
   192
  0
VERTEX
  8
RK-DRAIN
 10
10.98445554337723
 20
-13.375
 30
0.0
 70
   192
  0
VERTEX
  8
RK-DRAIN
 10
12.41161165235168
 20
-12.58838834764832
 30
0.0
 70
   192
  0
VERTEX
  8
RK-DRAIN
 10
12.41161165235168
 20
-12.58838834764832
 30
0.5
 70
   192
  0
VERTEX
  8
RK-DRAIN
 10
11.26256313292354
 20
-13.73743686707646
 30
0.8125
 70
   192
  0
VERTEX
  8
RK-DRAIN
 10
11.26256313292354
 20
-13.73743686707646
 30
0.0
 70
   192
  0
VERTEX
  8
RK-DRAIN
 10
12.4375
 20
-12.60825317547306
 30
0.0
 70
   192
  0
VERTEX
  8
RK-DRAIN
 10
12.4375
 20
-12.60825317547306
 30
0.5
 70
   192
  0
VERTEX
  8
RK-DRAIN
 10
11.625
 20
-14.01554445662277
 30
0.8125
 70
   192
  0
VERTEX
  8
RK-DRAIN
 10
11.625
 20
-14.01554445662277
 30
0.0
 70
   192
  0
VERTEX
  8
RK-DRAIN
 10
12.46764761936218
 20
-12.62074072828614
 30
0.0
 70
   192
  0
VERTEX
  8
RK-DRAIN
 10
12.46764761936218
 20
-12.62074072828614
 30
0.5
 70
   192
  0
VERTEX
  8
RK-DRAIN
 10
12.04706667107058
 20
-14.19037019600587
 30
0.8125
 70
   192
  0
VERTEX
  8
RK-DRAIN
 10
12.04706667107058
 20
-14.19037019600587
 30
0.0
 70
   192
  0
VERTEX
  8
RK-DRAIN
 10
12.5
 20
-12.625
 30
0.0
 70
   192
  0
VERTEX
  8
RK-DRAIN
 10
12.5
 20
-12.625
 30
0.5
 70
   192
  0
VERTEX
  8
RK-DRAIN
 10
12.5
 20
-14.25
 30
0.8125
 70
   192
  0
VERTEX
  8
RK-DRAIN
 10
12.5
 20
-14.25
 30
0.0
 70
   192
  0
VERTEX
  8
RK-DRAIN
 10
12.53235238063781
 20
-12.62074072828614
 30
0.0
 70
   192
  0
VERTEX
  8
RK-DRAIN
 10
12.53235238063781
 20
-12.62074072828614
 30
0.5
 70
   192
  0
VERTEX
  8
RK-DRAIN
 10
12.95293332892941
 20
-14.19037019600587
 30
0.8125
 70
   192
  0
VERTEX
  8
RK-DRAIN
 10
12.95293332892941
 20
-14.19037019600587
 30
0.0
 70
   192
  0
VERTEX
  8
RK-DRAIN
 10
12.5625
 20
-12.60825317547306
 30
0.0
 70
   192
  0
VERTEX
  8
RK-DRAIN
 10
12.5625
 20
-12.60825317547306
 30
0.5
 70
   192
  0
VERTEX
  8
RK-DRAIN
 10
13.375
 20
-14.01554445662277
 30
0.8125
 70
   192
  0
VERTEX
  8
RK-DRAIN
 10
13.375
 20
-14.01554445662277
 30
0.0
 70
   192
  0
VERTEX
  8
RK-DRAIN
 10
12.58838834764832
 20
-12.58838834764832
 30
0.0
 70
   192
  0
VERTEX
  8
RK-DRAIN
 10
12.58838834764832
 20
-12.58838834764832
 30
0.5
 70
   192
  0
VERTEX
  8
RK-DRAIN
 10
13.73743686707645
 20
-13.73743686707646
 30
0.8125
 70
   192
  0
VERTEX
  8
RK-DRAIN
 10
13.73743686707645
 20
-13.73743686707646
 30
0.0
 70
   192
  0
VERTEX
  8
RK-DRAIN
 10
12.60825317547305
 20
-12.5625
 30
0.0
 70
   192
  0
VERTEX
  8
RK-DRAIN
 10
12.60825317547305
 20
-12.5625
 30
0.5
 70
   192
  0
VERTEX
  8
RK-DRAIN
 10
14.01554445662276
 20
-13.375
 30
0.8125
 70
   192
  0
VERTEX
  8
RK-DRAIN
 10
14.01554445662276
 20
-13.375
 30
0.0
 70
   192
  0
VERTEX
  8
RK-DRAIN
 10
12.62074072828613
 20
-12.53235238063781
 30
0.0
 70
   192
  0
VERTEX
  8
RK-DRAIN
 10
12.62074072828613
 20
-12.53235238063781
 30
0.5
 70
   192
  0
VERTEX
  8
RK-DRAIN
 10
14.19037019600587
 20
-12.95293332892941
 30
0.8125
 70
   192
  0
VERTEX
  8
RK-DRAIN
 10
14.19037019600587
 20
-12.95293332892941
 30
0.0
 70
   192
  0
VERTEX
  8
RK-DRAIN
 10
10.20592616256346
 20
-13.11469523211849
 30
0.8125
 70
   192
  0
VERTEX
  8
RK-DRAIN
 10
10.44318966601195
 20
-13.6875
 30
0.8125
 70
   192
  0
VERTEX
  8
RK-DRAIN
 10
10.20592616256346
 20
-13.11469523211849
 30
0.75
 70
   192
  0
VERTEX
  8
RK-DRAIN
 10
10.44318966601195
 20
-13.6875
 30
0.75
 70
   192
  0
VERTEX
  8
RK-DRAIN
 10
10.82062139468195
 20
-14.17937860531805
 30
0.8125
 70
   192
  0
VERTEX
  8
RK-DRAIN
 10
14.17937860531805
 20
-14.17937860531805
 30
0.8125
 70
   192
  0
VERTEX
  8
RK-DRAIN
 10
14.55681033398804
 20
-13.6875
 30
0.8125
 70
   192
  0
VERTEX
  8
RK-DRAIN
 10
14.79407383743653
 20
-13.11469523211849
 30
0.8125
 70
   192
  0
VERTEX
  8
RK-DRAIN
 10
14.55681033398804
 20
-13.6875
 30
0.75
 70
   192
  0
VERTEX
  8
RK-DRAIN
 10
14.79407383743653
 20
-13.11469523211849
 30
0.75
 70
   192
  0
VERTEX
  8
RK-DRAIN
 10
13.11469523211848
 20
-14.79407383743654
 30
0.8125
 70
   192
  0
VERTEX
  8
RK-DRAIN
 10
13.6875
 20
-14.55681033398804
 30
0.8125
 70
   192
  0
VERTEX
  8
RK-DRAIN
 10
13.11469523211848
 20
-14.79407383743654
 30
0.75
 70
   192
  0
VERTEX
  8
RK-DRAIN
 10
13.6875
 20
-14.55681033398804
 30
0.75
 70
   192
  0
VERTEX
  8
RK-DRAIN
 10
10.82062139468195
 20
-14.17937860531805
 30
0.75
 70
   192
  0
VERTEX
  8
RK-DRAIN
 10
11.3125
 20
-14.55681033398804
 30
0.75
 70
   192
  0
VERTEX
  8
RK-DRAIN
 10
11.3125
 20
-14.55681033398804
 30
0.8125
 70
   192
  0
VERTEX
  8
RK-DRAIN
 10
11.88530476788151
 20
-14.79407383743654
 30
0.75
 70
   192
  0
VERTEX
  8
RK-DRAIN
 10
11.88530476788151
 20
-14.79407383743654
 30
0.8125
 70
   192
  0
VERTEX
  8
RK-DRAIN
 10
12.5
 20
-14.875
 30
0.75
 70
   192
  0
VERTEX
  8
RK-DRAIN
 10
12.5
 20
-14.875
 30
0.8125
 70
   192
  0
VERTEX
  8
RK-DRAIN
 10
14.17937860531805
 20
-14.17937860531805
 30
0.75
 70
   192
  0
VERTEX
  8
RK-DRAIN
 10
13.6875
 20
-10.44318966601196
 30
0.8125
 70
   192
  0
VERTEX
  8
RK-DRAIN
 10
13.11469523211848
 20
-10.20592616256346
 30
0.8125
 70
   192
  0
VERTEX
  8
RK-DRAIN
 10
13.6875
 20
-10.44318966601196
 30
0.75
 70
   192
  0
VERTEX
  8
RK-DRAIN
 10
13.11469523211848
 20
-10.20592616256346
 30
0.75
 70
   192
  0
VERTEX
  8
RK-DRAIN
 10
11.88530476788151
 20
-10.20592616256346
 30
0.8125
 70
   192
  0
VERTEX
  8
RK-DRAIN
 10
11.3125
 20
-10.44318966601196
 30
0.8125
 70
   192
  0
VERTEX
  8
RK-DRAIN
 10
10.82062139468195
 20
-10.82062139468195
 30
0.8125
 70
   192
  0
VERTEX
  8
RK-DRAIN
 10
11.3125
 20
-10.44318966601196
 30
0.75
 70
   192
  0
VERTEX
  8
RK-DRAIN
 10
10.82062139468195
 20
-10.82062139468195
 30
0.75
 70
   192
  0
VERTEX
  8
RK-DRAIN
 10
12.75
 20
-12.5
 30
0.625
 70
   192
  0
VERTEX
  8
RK-DRAIN
 10
12.75
 20
-12.5
 30
0.5
 70
   192
  0
VERTEX
  8
RK-DRAIN
 10
12.74148145657227
 20
-12.43529523872437
 30
0.5
 70
   192
  0
VERTEX
  8
RK-DRAIN
 10
12.74148145657227
 20
-12.43529523872437
 30
0.625
 70
   192
  0
VERTEX
  8
RK-DRAIN
 10
12.71650635094611
 20
-12.375
 30
0.5
 70
   192
  0
VERTEX
  8
RK-DRAIN
 10
12.71650635094611
 20
-12.375
 30
0.625
 70
   192
  0
VERTEX
  8
RK-DRAIN
 10
12.67677669529663
 20
-12.32322330470336
 30
0.5
 70
   192
  0
VERTEX
  8
RK-DRAIN
 10
12.67677669529663
 20
-12.32322330470336
 30
0.625
 70
   192
  0
VERTEX
  8
RK-DRAIN
 10
12.625
 20
-12.28349364905389
 30
0.5
 70
   192
  0
VERTEX
  8
RK-DRAIN
 10
12.625
 20
-12.28349364905389
 30
0.625
 70
   192
  0
VERTEX
  8
RK-DRAIN
 10
12.56470476127563
 20
-12.25851854342773
 30
0.5
 70
   192
  0
VERTEX
  8
RK-DRAIN
 10
12.56470476127563
 20
-12.25851854342773
 30
0.625
 70
   192
  0
VERTEX
  8
RK-DRAIN
 10
12.5
 20
-12.25
 30
0.5
 70
   192
  0
VERTEX
  8
RK-DRAIN
 10
12.5
 20
-12.25
 30
0.625
 70
   192
  0
VERTEX
  8
RK-DRAIN
 10
12.43529523872436
 20
-12.25851854342773
 30
0.5
 70
   192
  0
VERTEX
  8
RK-DRAIN
 10
12.43529523872436
 20
-12.25851854342773
 30
0.625
 70
   192
  0
VERTEX
  8
RK-DRAIN
 10
12.375
 20
-12.28349364905389
 30
0.5
 70
   192
  0
VERTEX
  8
RK-DRAIN
 10
12.375
 20
-12.28349364905389
 30
0.625
 70
   192
  0
VERTEX
  8
RK-DRAIN
 10
12.32322330470336
 20
-12.32322330470336
 30
0.5
 70
   192
  0
VERTEX
  8
RK-DRAIN
 10
12.32322330470336
 20
-12.32322330470336
 30
0.625
 70
   192
  0
VERTEX
  8
RK-DRAIN
 10
12.28349364905388
 20
-12.375
 30
0.5
 70
   192
  0
VERTEX
  8
RK-DRAIN
 10
12.28349364905388
 20
-12.375
 30
0.625
 70
   192
  0
VERTEX
  8
RK-DRAIN
 10
12.25851854342772
 20
-12.43529523872437
 30
0.5
 70
   192
  0
VERTEX
  8
RK-DRAIN
 10
12.25851854342772
 20
-12.43529523872437
 30
0.625
 70
   192
  0
VERTEX
  8
RK-DRAIN
 10
12.24999999999999
 20
-12.5
 30
0.5
 70
   192
  0
VERTEX
  8
RK-DRAIN
 10
12.24999999999999
 20
-12.5
 30
0.625
 70
   192
  0
VERTEX
  8
RK-DRAIN
 10
12.25851854342772
 20
-12.56470476127563
 30
0.5
 70
   192
  0
VERTEX
  8
RK-DRAIN
 10
12.25851854342772
 20
-12.56470476127563
 30
0.625
 70
   192
  0
VERTEX
  8
RK-DRAIN
 10
12.28349364905388
 20
-12.625
 30
0.5
 70
   192
  0
VERTEX
  8
RK-DRAIN
 10
12.28349364905388
 20
-12.625
 30
0.625
 70
   192
  0
VERTEX
  8
RK-DRAIN
 10
12.32322330470336
 20
-12.67677669529664
 30
0.5
 70
   192
  0
VERTEX
  8
RK-DRAIN
 10
12.32322330470336
 20
-12.67677669529664
 30
0.625
 70
   192
  0
VERTEX
  8
RK-DRAIN
 10
12.375
 20
-12.71650635094611
 30
0.5
 70
   192
  0
VERTEX
  8
RK-DRAIN
 10
12.375
 20
-12.71650635094611
 30
0.625
 70
   192
  0
VERTEX
  8
RK-DRAIN
 10
12.43529523872436
 20
-12.74148145657227
 30
0.5
 70
   192
  0
VERTEX
  8
RK-DRAIN
 10
12.43529523872436
 20
-12.74148145657227
 30
0.625
 70
   192
  0
VERTEX
  8
RK-DRAIN
 10
12.5
 20
-12.75
 30
0.5
 70
   192
  0
VERTEX
  8
RK-DRAIN
 10
12.5
 20
-12.75
 30
0.625
 70
   192
  0
VERTEX
  8
RK-DRAIN
 10
12.56470476127563
 20
-12.74148145657227
 30
0.5
 70
   192
  0
VERTEX
  8
RK-DRAIN
 10
12.56470476127563
 20
-12.74148145657227
 30
0.625
 70
   192
  0
VERTEX
  8
RK-DRAIN
 10
12.625
 20
-12.71650635094611
 30
0.5
 70
   192
  0
VERTEX
  8
RK-DRAIN
 10
12.625
 20
-12.71650635094611
 30
0.625
 70
   192
  0
VERTEX
  8
RK-DRAIN
 10
12.67677669529663
 20
-12.67677669529664
 30
0.5
 70
   192
  0
VERTEX
  8
RK-DRAIN
 10
12.67677669529663
 20
-12.67677669529664
 30
0.625
 70
   192
  0
VERTEX
  8
RK-DRAIN
 10
12.71650635094611
 20
-12.625
 30
0.5
 70
   192
  0
VERTEX
  8
RK-DRAIN
 10
12.71650635094611
 20
-12.625
 30
0.625
 70
   192
  0
VERTEX
  8
RK-DRAIN
 10
12.74148145657227
 20
-12.56470476127563
 30
0.5
 70
   192
  0
VERTEX
  8
RK-DRAIN
 10
12.74148145657227
 20
-12.56470476127563
 30
0.625
 70
   192
  0
VERTEX
  8
RK-DRAIN
 10
12.5
 20
-12.5
 30
0.625
 70
   192
  0
VERTEX
  8
RK-DRAIN
 10
10.44318966601195
 20
-11.3125
 30
0.8125
 70
   192
  0
VERTEX
  8
RK-DRAIN
 10
10.44318966601195
 20
-11.3125
 30
0.75
 70
   192
  0
VERTEX
  8
RK-DRAIN
 10
10.20592616256346
 20
-11.88530476788151
 30
0.8125
 70
   192
  0
VERTEX
  8
RK-DRAIN
 10
10.12499999999999
 20
-12.5
 30
0.8125
 70
   192
  0
VERTEX
  8
RK-DRAIN
 10
10.20592616256346
 20
-11.88530476788151
 30
0.75
 70
   192
  0
VERTEX
  8
RK-DRAIN
 10
10.12499999999999
 20
-12.5
 30
0.75
 70
   192
  0
VERTEX
  8
RK-DRAIN
 10
12.5
 20
-10.125
 30
0.75
 70
   192
  0
VERTEX
  8
RK-DRAIN
 10
12.5
 20
-10.125
 30
0.8125
 70
   192
  0
VERTEX
  8
RK-DRAIN
 10
11.88530476788151
 20
-10.20592616256346
 30
0.75
 70
   192
  0
VERTEX
  8
RK-DRAIN
 10
14.17937860531805
 20
-10.82062139468195
 30
0.8125
 70
   192
  0
VERTEX
  8
RK-DRAIN
 10
14.17937860531805
 20
-10.82062139468195
 30
0.75
 70
   192
  0
VERTEX
  8
RK-DRAIN
 10
14.875
 20
-12.5
 30
0.8125
 70
   192
  0
VERTEX
  8
RK-DRAIN
 10
14.79407383743653
 20
-11.88530476788151
 30
0.8125
 70
   192
  0
VERTEX
  8
RK-DRAIN
 10
14.875
 20
-12.5
 30
0.75
 70
   192
  0
VERTEX
  8
RK-DRAIN
 10
14.79407383743653
 20
-11.88530476788151
 30
0.75
 70
   192
  0
VERTEX
  8
RK-DRAIN
 10
14.55681033398804
 20
-11.3125
 30
0.75
 70
   192
  0
VERTEX
  8
RK-DRAIN
 10
14.55681033398804
 20
-11.3125
 30
0.8125
 70
   192
  0
VERTEX
  8
RK-DRAIN
 10
0.0
 20
0.0
 30
0.0
 70
   128
 71
     2
 72
     3
 73
     4
 74
     1
  0
VERTEX
  8
RK-DRAIN
 10
0.0
 20
0.0
 30
0.0
 70
   128
 71
     6
 72
     7
 73
     8
 74
     5
  0
VERTEX
  8
RK-DRAIN
 10
0.0
 20
0.0
 30
0.0
 70
   128
 71
     3
 72
     9
 73
    10
 74
     4
  0
VERTEX
  8
RK-DRAIN
 10
0.0
 20
0.0
 30
0.0
 70
   128
 71
     7
 72
    11
 73
    12
 74
     8
  0
VERTEX
  8
RK-DRAIN
 10
0.0
 20
0.0
 30
0.0
 70
   128
 71
     9
 72
    13
 73
    14
 74
    10
  0
VERTEX
  8
RK-DRAIN
 10
0.0
 20
0.0
 30
0.0
 70
   128
 71
    11
 72
    15
 73
    16
 74
    12
  0
VERTEX
  8
RK-DRAIN
 10
0.0
 20
0.0
 30
0.0
 70
   128
 71
    13
 72
    17
 73
    18
 74
    14
  0
VERTEX
  8
RK-DRAIN
 10
0.0
 20
0.0
 30
0.0
 70
   128
 71
    15
 72
    19
 73
    20
 74
    16
  0
VERTEX
  8
RK-DRAIN
 10
0.0
 20
0.0
 30
0.0
 70
   128
 71
    17
 72
    21
 73
    22
 74
    18
  0
VERTEX
  8
RK-DRAIN
 10
0.0
 20
0.0
 30
0.0
 70
   128
 71
    19
 72
    23
 73
    24
 74
    20
  0
VERTEX
  8
RK-DRAIN
 10
0.0
 20
0.0
 30
0.0
 70
   128
 71
    21
 72
    25
 73
    26
 74
    22
  0
VERTEX
  8
RK-DRAIN
 10
0.0
 20
0.0
 30
0.0
 70
   128
 71
    23
 72
    27
 73
    28
 74
    24
  0
VERTEX
  8
RK-DRAIN
 10
0.0
 20
0.0
 30
0.0
 70
   128
 71
    25
 72
    29
 73
    30
 74
    26
  0
VERTEX
  8
RK-DRAIN
 10
0.0
 20
0.0
 30
0.0
 70
   128
 71
    27
 72
    31
 73
    32
 74
    28
  0
VERTEX
  8
RK-DRAIN
 10
0.0
 20
0.0
 30
0.0
 70
   128
 71
    29
 72
    33
 73
    34
 74
    30
  0
VERTEX
  8
RK-DRAIN
 10
0.0
 20
0.0
 30
0.0
 70
   128
 71
    31
 72
    35
 73
    36
 74
    32
  0
VERTEX
  8
RK-DRAIN
 10
0.0
 20
0.0
 30
0.0
 70
   128
 71
    33
 72
    37
 73
    38
 74
    34
  0
VERTEX
  8
RK-DRAIN
 10
0.0
 20
0.0
 30
0.0
 70
   128
 71
    35
 72
    39
 73
    40
 74
    36
  0
VERTEX
  8
RK-DRAIN
 10
0.0
 20
0.0
 30
0.0
 70
   128
 71
    37
 72
    41
 73
    42
 74
    38
  0
VERTEX
  8
RK-DRAIN
 10
0.0
 20
0.0
 30
0.0
 70
   128
 71
    39
 72
    43
 73
    44
 74
    40
  0
VERTEX
  8
RK-DRAIN
 10
0.0
 20
0.0
 30
0.0
 70
   128
 71
    41
 72
    45
 73
    46
 74
    42
  0
VERTEX
  8
RK-DRAIN
 10
0.0
 20
0.0
 30
0.0
 70
   128
 71
    43
 72
    47
 73
    48
 74
    44
  0
VERTEX
  8
RK-DRAIN
 10
0.0
 20
0.0
 30
0.0
 70
   128
 71
    45
 72
    49
 73
    50
 74
    46
  0
VERTEX
  8
RK-DRAIN
 10
0.0
 20
0.0
 30
0.0
 70
   128
 71
    47
 72
    51
 73
    52
 74
    48
  0
VERTEX
  8
RK-DRAIN
 10
0.0
 20
0.0
 30
0.0
 70
   128
 71
    49
 72
    53
 73
    54
 74
    50
  0
VERTEX
  8
RK-DRAIN
 10
0.0
 20
0.0
 30
0.0
 70
   128
 71
    51
 72
    55
 73
    56
 74
    52
  0
VERTEX
  8
RK-DRAIN
 10
0.0
 20
0.0
 30
0.0
 70
   128
 71
    53
 72
    57
 73
    58
 74
    54
  0
VERTEX
  8
RK-DRAIN
 10
0.0
 20
0.0
 30
0.0
 70
   128
 71
    55
 72
    59
 73
    60
 74
    56
  0
VERTEX
  8
RK-DRAIN
 10
0.0
 20
0.0
 30
0.0
 70
   128
 71
    57
 72
    61
 73
    62
 74
    58
  0
VERTEX
  8
RK-DRAIN
 10
0.0
 20
0.0
 30
0.0
 70
   128
 71
    59
 72
    63
 73
    64
 74
    60
  0
VERTEX
  8
RK-DRAIN
 10
0.0
 20
0.0
 30
0.0
 70
   128
 71
    61
 72
    65
 73
    66
 74
    62
  0
VERTEX
  8
RK-DRAIN
 10
0.0
 20
0.0
 30
0.0
 70
   128
 71
    63
 72
    67
 73
    68
 74
    64
  0
VERTEX
  8
RK-DRAIN
 10
0.0
 20
0.0
 30
0.0
 70
   128
 71
    65
 72
    69
 73
    70
 74
    66
  0
VERTEX
  8
RK-DRAIN
 10
0.0
 20
0.0
 30
0.0
 70
   128
 71
    67
 72
    71
 73
    72
 74
    68
  0
VERTEX
  8
RK-DRAIN
 10
0.0
 20
0.0
 30
0.0
 70
   128
 71
    69
 72
    73
 73
    74
 74
    70
  0
VERTEX
  8
RK-DRAIN
 10
0.0
 20
0.0
 30
0.0
 70
   128
 71
    71
 72
    75
 73
    76
 74
    72
  0
VERTEX
  8
RK-DRAIN
 10
0.0
 20
0.0
 30
0.0
 70
   128
 71
    73
 72
    77
 73
    78
 74
    74
  0
VERTEX
  8
RK-DRAIN
 10
0.0
 20
0.0
 30
0.0
 70
   128
 71
    75
 72
    79
 73
    80
 74
    76
  0
VERTEX
  8
RK-DRAIN
 10
0.0
 20
0.0
 30
0.0
 70
   128
 71
    77
 72
    81
 73
    82
 74
    78
  0
VERTEX
  8
RK-DRAIN
 10
0.0
 20
0.0
 30
0.0
 70
   128
 71
    79
 72
    83
 73
    84
 74
    80
  0
VERTEX
  8
RK-DRAIN
 10
0.0
 20
0.0
 30
0.0
 70
   128
 71
    81
 72
    85
 73
    86
 74
    82
  0
VERTEX
  8
RK-DRAIN
 10
0.0
 20
0.0
 30
0.0
 70
   128
 71
    83
 72
    87
 73
    88
 74
    84
  0
VERTEX
  8
RK-DRAIN
 10
0.0
 20
0.0
 30
0.0
 70
   128
 71
    85
 72
    89
 73
    90
 74
    86
  0
VERTEX
  8
RK-DRAIN
 10
0.0
 20
0.0
 30
0.0
 70
   128
 71
    87
 72
    91
 73
    92
 74
    88
  0
VERTEX
  8
RK-DRAIN
 10
0.0
 20
0.0
 30
0.0
 70
   128
 71
    89
 72
    93
 73
    94
 74
    90
  0
VERTEX
  8
RK-DRAIN
 10
0.0
 20
0.0
 30
0.0
 70
   128
 71
    91
 72
    95
 73
    96
 74
    92
  0
VERTEX
  8
RK-DRAIN
 10
0.0
 20
0.0
 30
0.0
 70
   128
 71
    93
 72
     2
 73
     1
 74
    94
  0
VERTEX
  8
RK-DRAIN
 10
0.0
 20
0.0
 30
0.0
 70
   128
 71
    95
 72
     6
 73
     5
 74
    96
  0
VERTEX
  8
RK-DRAIN
 10
0.0
 20
0.0
 30
0.0
 70
   128
 71
    60
 72
   -64
 73
    61
 74
   -57
  0
VERTEX
  8
RK-DRAIN
 10
0.0
 20
0.0
 30
0.0
 70
   128
 71
    64
 72
   -68
 73
    65
 74
   -61
  0
VERTEX
  8
RK-DRAIN
 10
0.0
 20
0.0
 30
0.0
 70
   128
 71
    68
 72
   -72
 73
    69
 74
   -65
  0
VERTEX
  8
RK-DRAIN
 10
0.0
 20
0.0
 30
0.0
 70
   128
 71
    72
 72
   -76
 73
    73
 74
   -69
  0
VERTEX
  8
RK-DRAIN
 10
0.0
 20
0.0
 30
0.0
 70
   128
 71
    76
 72
   -80
 73
    77
 74
   -73
  0
VERTEX
  8
RK-DRAIN
 10
0.0
 20
0.0
 30
0.0
 70
   128
 71
    80
 72
   -84
 73
    81
 74
   -77
  0
VERTEX
  8
RK-DRAIN
 10
0.0
 20
0.0
 30
0.0
 70
   128
 71
    84
 72
   -88
 73
    85
 74
   -81
  0
VERTEX
  8
RK-DRAIN
 10
0.0
 20
0.0
 30
0.0
 70
   128
 71
    88
 72
   -92
 73
    89
 74
   -85
  0
VERTEX
  8
RK-DRAIN
 10
0.0
 20
0.0
 30
0.0
 70
   128
 71
     5
 72
    -8
 73
     3
 74
    -2
  0
VERTEX
  8
RK-DRAIN
 10
0.0
 20
0.0
 30
0.0
 70
   128
 71
     8
 72
   -12
 73
     9
 74
    -3
  0
VERTEX
  8
RK-DRAIN
 10
0.0
 20
0.0
 30
0.0
 70
   128
 71
    12
 72
   -16
 73
    13
 74
    -9
  0
VERTEX
  8
RK-DRAIN
 10
0.0
 20
0.0
 30
0.0
 70
   128
 71
    16
 72
   -20
 73
    17
 74
   -13
  0
VERTEX
  8
RK-DRAIN
 10
0.0
 20
0.0
 30
0.0
 70
   128
 71
    20
 72
   -24
 73
    21
 74
   -17
  0
VERTEX
  8
RK-DRAIN
 10
0.0
 20
0.0
 30
0.0
 70
   128
 71
    92
 72
   -96
 73
    93
 74
   -89
  0
VERTEX
  8
RK-DRAIN
 10
0.0
 20
0.0
 30
0.0
 70
   128
 71
    96
 72
    -5
 73
     2
 74
   -93
  0
VERTEX
  8
RK-DRAIN
 10
0.0
 20
0.0
 30
0.0
 70
   128
 71
    24
 72
   -28
 73
    25
 74
   -21
  0
VERTEX
  8
RK-DRAIN
 10
0.0
 20
0.0
 30
0.0
 70
   128
 71
    28
 72
   -32
 73
    29
 74
   -25
  0
VERTEX
  8
RK-DRAIN
 10
0.0
 20
0.0
 30
0.0
 70
   128
 71
    32
 72
   -36
 73
    33
 74
   -29
  0
VERTEX
  8
RK-DRAIN
 10
0.0
 20
0.0
 30
0.0
 70
   128
 71
    36
 72
   -40
 73
    37
 74
   -33
  0
VERTEX
  8
RK-DRAIN
 10
0.0
 20
0.0
 30
0.0
 70
   128
 71
    40
 72
   -44
 73
    41
 74
   -37
  0
VERTEX
  8
RK-DRAIN
 10
0.0
 20
0.0
 30
0.0
 70
   128
 71
    44
 72
   -48
 73
    45
 74
   -41
  0
VERTEX
  8
RK-DRAIN
 10
0.0
 20
0.0
 30
0.0
 70
   128
 71
    48
 72
   -52
 73
    49
 74
   -45
  0
VERTEX
  8
RK-DRAIN
 10
0.0
 20
0.0
 30
0.0
 70
   128
 71
    52
 72
   -56
 73
    53
 74
   -49
  0
VERTEX
  8
RK-DRAIN
 10
0.0
 20
0.0
 30
0.0
 70
   128
 71
    56
 72
   -60
 73
    57
 74
   -53
  0
VERTEX
  8
RK-DRAIN
 10
0.0
 20
0.0
 30
0.0
 70
   128
 71
    97
 72
   -98
 73
    59
 74
   -55
  0
VERTEX
  8
RK-DRAIN
 10
0.0
 20
0.0
 30
0.0
 70
   128
 71
    99
 72
   100
 73
    98
 74
    97
  0
VERTEX
  8
RK-DRAIN
 10
0.0
 20
0.0
 30
0.0
 70
   128
 71
    98
 72
  -101
 73
    63
 74
   -59
  0
VERTEX
  8
RK-DRAIN
 10
0.0
 20
0.0
 30
0.0
 70
   128
 71
   102
 72
  -103
 73
    91
 74
   -87
  0
VERTEX
  8
RK-DRAIN
 10
0.0
 20
0.0
 30
0.0
 70
   128
 71
   103
 72
  -104
 73
    95
 74
   -91
  0
VERTEX
  8
RK-DRAIN
 10
0.0
 20
0.0
 30
0.0
 70
   128
 71
   105
 72
   106
 73
   104
 74
   103
  0
VERTEX
  8
RK-DRAIN
 10
0.0
 20
0.0
 30
0.0
 70
   128
 71
   107
 72
  -108
 73
    83
 74
   -79
  0
VERTEX
  8
RK-DRAIN
 10
0.0
 20
0.0
 30
0.0
 70
   128
 71
   109
 72
   110
 73
   108
 74
   107
  0
VERTEX
  8
RK-DRAIN
 10
0.0
 20
0.0
 30
0.0
 70
   128
 71
   100
 72
   111
 73
   101
 74
    98
  0
VERTEX
  8
RK-DRAIN
 10
0.0
 20
0.0
 30
0.0
 70
   128
 71
   111
 72
   112
 73
   113
 74
   101
  0
VERTEX
  8
RK-DRAIN
 10
0.0
 20
0.0
 30
0.0
 70
   128
 71
   112
 72
   114
 73
   115
 74
   113
  0
VERTEX
  8
RK-DRAIN
 10
0.0
 20
0.0
 30
0.0
 70
   128
 71
   114
 72
   116
 73
   117
 74
   115
  0
VERTEX
  8
RK-DRAIN
 10
0.0
 20
0.0
 30
0.0
 70
   128
 71
   116
 72
   109
 73
   107
 74
   117
  0
VERTEX
  8
RK-DRAIN
 10
0.0
 20
0.0
 30
0.0
 70
   128
 71
   113
 72
  -115
 73
    71
 74
   -67
  0
VERTEX
  8
RK-DRAIN
 10
0.0
 20
0.0
 30
0.0
 70
   128
 71
   115
 72
  -117
 73
    75
 74
   -71
  0
VERTEX
  8
RK-DRAIN
 10
0.0
 20
0.0
 30
0.0
 70
   128
 71
   101
 72
  -113
 73
    67
 74
   -63
  0
VERTEX
  8
RK-DRAIN
 10
0.0
 20
0.0
 30
0.0
 70
   128
 71
   117
 72
  -107
 73
    79
 74
   -75
  0
VERTEX
  8
RK-DRAIN
 10
0.0
 20
0.0
 30
0.0
 70
   128
 71
   110
 72
   118
 73
   102
 74
   108
  0
VERTEX
  8
RK-DRAIN
 10
0.0
 20
0.0
 30
0.0
 70
   128
 71
   118
 72
   105
 73
   103
 74
   102
  0
VERTEX
  8
RK-DRAIN
 10
0.0
 20
0.0
 30
0.0
 70
   128
 71
   108
 72
  -102
 73
    87
 74
   -83
  0
VERTEX
  8
RK-DRAIN
 10
0.0
 20
0.0
 30
0.0
 70
   128
 71
   119
 72
  -120
 73
    23
 74
   -19
  0
VERTEX
  8
RK-DRAIN
 10
0.0
 20
0.0
 30
0.0
 70
   128
 71
   121
 72
   122
 73
   120
 74
   119
  0
VERTEX
  8
RK-DRAIN
 10
0.0
 20
0.0
 30
0.0
 70
   128
 71
   123
 72
  -124
 73
    35
 74
   -31
  0
VERTEX
  8
RK-DRAIN
 10
0.0
 20
0.0
 30
0.0
 70
   128
 71
   124
 72
  -125
 73
    39
 74
   -35
  0
VERTEX
  8
RK-DRAIN
 10
0.0
 20
0.0
 30
0.0
 70
   128
 71
   126
 72
   127
 73
   125
 74
   124
  0
VERTEX
  8
RK-DRAIN
 10
0.0
 20
0.0
 30
0.0
 70
   128
 71
   129
 72
   130
 73
   131
 74
   128
  0
VERTEX
  8
RK-DRAIN
 10
0.0
 20
0.0
 30
0.0
 70
   128
 71
   130
 72
   132
 73
   133
 74
   131
  0
VERTEX
  8
RK-DRAIN
 10
0.0
 20
0.0
 30
0.0
 70
   128
 71
   132
 72
   134
 73
   135
 74
   133
  0
VERTEX
  8
RK-DRAIN
 10
0.0
 20
0.0
 30
0.0
 70
   128
 71
   134
 72
   136
 73
   137
 74
   135
  0
VERTEX
  8
RK-DRAIN
 10
0.0
 20
0.0
 30
0.0
 70
   128
 71
   136
 72
   138
 73
   139
 74
   137
  0
VERTEX
  8
RK-DRAIN
 10
0.0
 20
0.0
 30
0.0
 70
   128
 71
   138
 72
   140
 73
   141
 74
   139
  0
VERTEX
  8
RK-DRAIN
 10
0.0
 20
0.0
 30
0.0
 70
   128
 71
   140
 72
   142
 73
   143
 74
   141
  0
VERTEX
  8
RK-DRAIN
 10
0.0
 20
0.0
 30
0.0
 70
   128
 71
   142
 72
   144
 73
   145
 74
   143
  0
VERTEX
  8
RK-DRAIN
 10
0.0
 20
0.0
 30
0.0
 70
   128
 71
   144
 72
   146
 73
   147
 74
   145
  0
VERTEX
  8
RK-DRAIN
 10
0.0
 20
0.0
 30
0.0
 70
   128
 71
   146
 72
   148
 73
   149
 74
   147
  0
VERTEX
  8
RK-DRAIN
 10
0.0
 20
0.0
 30
0.0
 70
   128
 71
   148
 72
   150
 73
   151
 74
   149
  0
VERTEX
  8
RK-DRAIN
 10
0.0
 20
0.0
 30
0.0
 70
   128
 71
   150
 72
   152
 73
   153
 74
   151
  0
VERTEX
  8
RK-DRAIN
 10
0.0
 20
0.0
 30
0.0
 70
   128
 71
   152
 72
   154
 73
   155
 74
   153
  0
VERTEX
  8
RK-DRAIN
 10
0.0
 20
0.0
 30
0.0
 70
   128
 71
   154
 72
   156
 73
   157
 74
   155
  0
VERTEX
  8
RK-DRAIN
 10
0.0
 20
0.0
 30
0.0
 70
   128
 71
   156
 72
   158
 73
   159
 74
   157
  0
VERTEX
  8
RK-DRAIN
 10
0.0
 20
0.0
 30
0.0
 70
   128
 71
   158
 72
   160
 73
   161
 74
   159
  0
VERTEX
  8
RK-DRAIN
 10
0.0
 20
0.0
 30
0.0
 70
   128
 71
   160
 72
   162
 73
   163
 74
   161
  0
VERTEX
  8
RK-DRAIN
 10
0.0
 20
0.0
 30
0.0
 70
   128
 71
   162
 72
   164
 73
   165
 74
   163
  0
VERTEX
  8
RK-DRAIN
 10
0.0
 20
0.0
 30
0.0
 70
   128
 71
   164
 72
   166
 73
   167
 74
   165
  0
VERTEX
  8
RK-DRAIN
 10
0.0
 20
0.0
 30
0.0
 70
   128
 71
   166
 72
   168
 73
   169
 74
   167
  0
VERTEX
  8
RK-DRAIN
 10
0.0
 20
0.0
 30
0.0
 70
   128
 71
   168
 72
   170
 73
   171
 74
   169
  0
VERTEX
  8
RK-DRAIN
 10
0.0
 20
0.0
 30
0.0
 70
   128
 71
   170
 72
   172
 73
   173
 74
   171
  0
VERTEX
  8
RK-DRAIN
 10
0.0
 20
0.0
 30
0.0
 70
   128
 71
   172
 72
   174
 73
   175
 74
   173
  0
VERTEX
  8
RK-DRAIN
 10
0.0
 20
0.0
 30
0.0
 70
   128
 71
   174
 72
   129
 73
   128
 74
   175
  0
VERTEX
  8
RK-DRAIN
 10
0.0
 20
0.0
 30
0.0
 70
   128
 71
     4
 72
   -10
 73
   132
 74
  -130
  0
VERTEX
  8
RK-DRAIN
 10
0.0
 20
0.0
 30
0.0
 70
   128
 71
    10
 72
   -14
 73
   134
 74
  -132
  0
VERTEX
  8
RK-DRAIN
 10
0.0
 20
0.0
 30
0.0
 70
   128
 71
    14
 72
   -18
 73
   136
 74
  -134
  0
VERTEX
  8
RK-DRAIN
 10
0.0
 20
0.0
 30
0.0
 70
   128
 71
    18
 72
   -22
 73
   138
 74
  -136
  0
VERTEX
  8
RK-DRAIN
 10
0.0
 20
0.0
 30
0.0
 70
   128
 71
    78
 72
   -82
 73
   168
 74
  -166
  0
VERTEX
  8
RK-DRAIN
 10
0.0
 20
0.0
 30
0.0
 70
   128
 71
    82
 72
   -86
 73
   170
 74
  -168
  0
VERTEX
  8
RK-DRAIN
 10
0.0
 20
0.0
 30
0.0
 70
   128
 71
    86
 72
   -90
 73
   172
 74
  -170
  0
VERTEX
  8
RK-DRAIN
 10
0.0
 20
0.0
 30
0.0
 70
   128
 71
    90
 72
   -94
 73
   174
 74
  -172
  0
VERTEX
  8
RK-DRAIN
 10
0.0
 20
0.0
 30
0.0
 70
   128
 71
    54
 72
   -58
 73
   156
 74
  -154
  0
VERTEX
  8
RK-DRAIN
 10
0.0
 20
0.0
 30
0.0
 70
   128
 71
    58
 72
   -62
 73
   158
 74
  -156
  0
VERTEX
  8
RK-DRAIN
 10
0.0
 20
0.0
 30
0.0
 70
   128
 71
    70
 72
   -74
 73
   164
 74
  -162
  0
VERTEX
  8
RK-DRAIN
 10
0.0
 20
0.0
 30
0.0
 70
   128
 71
    74
 72
   -78
 73
   166
 74
  -164
  0
VERTEX
  8
RK-DRAIN
 10
0.0
 20
0.0
 30
0.0
 70
   128
 71
    66
 72
   -70
 73
   162
 74
  -160
  0
VERTEX
  8
RK-DRAIN
 10
0.0
 20
0.0
 30
0.0
 70
   128
 71
    62
 72
   -66
 73
   160
 74
  -158
  0
VERTEX
  8
RK-DRAIN
 10
0.0
 20
0.0
 30
0.0
 70
   128
 71
    38
 72
   -42
 73
   148
 74
  -146
  0
VERTEX
  8
RK-DRAIN
 10
0.0
 20
0.0
 30
0.0
 70
   128
 71
    42
 72
   -46
 73
   150
 74
  -148
  0
VERTEX
  8
RK-DRAIN
 10
0.0
 20
0.0
 30
0.0
 70
   128
 71
    46
 72
   -50
 73
   152
 74
  -150
  0
VERTEX
  8
RK-DRAIN
 10
0.0
 20
0.0
 30
0.0
 70
   128
 71
    50
 72
   -54
 73
   154
 74
  -152
  0
VERTEX
  8
RK-DRAIN
 10
0.0
 20
0.0
 30
0.0
 70
   128
 71
    34
 72
   -38
 73
   146
 74
  -144
  0
VERTEX
  8
RK-DRAIN
 10
0.0
 20
0.0
 30
0.0
 70
   128
 71
    26
 72
   -30
 73
   142
 74
  -140
  0
VERTEX
  8
RK-DRAIN
 10
0.0
 20
0.0
 30
0.0
 70
   128
 71
    30
 72
   -34
 73
   144
 74
  -142
  0
VERTEX
  8
RK-DRAIN
 10
0.0
 20
0.0
 30
0.0
 70
   128
 71
    22
 72
   -26
 73
   140
 74
  -138
  0
VERTEX
  8
RK-DRAIN
 10
0.0
 20
0.0
 30
0.0
 70
   128
 71
     1
 72
    -4
 73
   130
 74
  -129
  0
VERTEX
  8
RK-DRAIN
 10
0.0
 20
0.0
 30
0.0
 70
   128
 71
    94
 72
    -1
 73
   129
 74
  -174
  0
VERTEX
  8
RK-DRAIN
 10
0.0
 20
0.0
 30
0.0
 70
   128
 71
  -176
 72
   128
 73
  -131
  0
VERTEX
  8
RK-DRAIN
 10
0.0
 20
0.0
 30
0.0
 70
   128
 71
  -176
 72
   131
 73
  -133
  0
VERTEX
  8
RK-DRAIN
 10
0.0
 20
0.0
 30
0.0
 70
   128
 71
  -176
 72
   133
 73
  -135
  0
VERTEX
  8
RK-DRAIN
 10
0.0
 20
0.0
 30
0.0
 70
   128
 71
  -176
 72
   135
 73
  -137
  0
VERTEX
  8
RK-DRAIN
 10
0.0
 20
0.0
 30
0.0
 70
   128
 71
  -176
 72
   137
 73
  -139
  0
VERTEX
  8
RK-DRAIN
 10
0.0
 20
0.0
 30
0.0
 70
   128
 71
  -176
 72
   167
 73
  -169
  0
VERTEX
  8
RK-DRAIN
 10
0.0
 20
0.0
 30
0.0
 70
   128
 71
  -176
 72
   169
 73
  -171
  0
VERTEX
  8
RK-DRAIN
 10
0.0
 20
0.0
 30
0.0
 70
   128
 71
  -176
 72
   171
 73
  -173
  0
VERTEX
  8
RK-DRAIN
 10
0.0
 20
0.0
 30
0.0
 70
   128
 71
  -176
 72
   173
 73
  -175
  0
VERTEX
  8
RK-DRAIN
 10
0.0
 20
0.0
 30
0.0
 70
   128
 71
  -176
 72
   175
 73
  -128
  0
VERTEX
  8
RK-DRAIN
 10
0.0
 20
0.0
 30
0.0
 70
   128
 71
  -176
 72
   155
 73
  -157
  0
VERTEX
  8
RK-DRAIN
 10
0.0
 20
0.0
 30
0.0
 70
   128
 71
  -176
 72
   157
 73
  -159
  0
VERTEX
  8
RK-DRAIN
 10
0.0
 20
0.0
 30
0.0
 70
   128
 71
  -176
 72
   159
 73
  -161
  0
VERTEX
  8
RK-DRAIN
 10
0.0
 20
0.0
 30
0.0
 70
   128
 71
  -176
 72
   161
 73
  -163
  0
VERTEX
  8
RK-DRAIN
 10
0.0
 20
0.0
 30
0.0
 70
   128
 71
  -176
 72
   163
 73
  -165
  0
VERTEX
  8
RK-DRAIN
 10
0.0
 20
0.0
 30
0.0
 70
   128
 71
  -176
 72
   165
 73
  -167
  0
VERTEX
  8
RK-DRAIN
 10
0.0
 20
0.0
 30
0.0
 70
   128
 71
  -176
 72
   147
 73
  -149
  0
VERTEX
  8
RK-DRAIN
 10
0.0
 20
0.0
 30
0.0
 70
   128
 71
  -176
 72
   149
 73
  -151
  0
VERTEX
  8
RK-DRAIN
 10
0.0
 20
0.0
 30
0.0
 70
   128
 71
  -176
 72
   151
 73
  -153
  0
VERTEX
  8
RK-DRAIN
 10
0.0
 20
0.0
 30
0.0
 70
   128
 71
  -176
 72
   153
 73
  -155
  0
VERTEX
  8
RK-DRAIN
 10
0.0
 20
0.0
 30
0.0
 70
   128
 71
  -176
 72
   139
 73
  -141
  0
VERTEX
  8
RK-DRAIN
 10
0.0
 20
0.0
 30
0.0
 70
   128
 71
  -176
 72
   141
 73
  -143
  0
VERTEX
  8
RK-DRAIN
 10
0.0
 20
0.0
 30
0.0
 70
   128
 71
  -176
 72
   143
 73
  -145
  0
VERTEX
  8
RK-DRAIN
 10
0.0
 20
0.0
 30
0.0
 70
   128
 71
  -176
 72
   145
 73
  -147
  0
VERTEX
  8
RK-DRAIN
 10
0.0
 20
0.0
 30
0.0
 70
   128
 71
   125
 72
  -177
 73
    43
 74
   -39
  0
VERTEX
  8
RK-DRAIN
 10
0.0
 20
0.0
 30
0.0
 70
   128
 71
   127
 72
   178
 73
   177
 74
   125
  0
VERTEX
  8
RK-DRAIN
 10
0.0
 20
0.0
 30
0.0
 70
   128
 71
   177
 72
  -179
 73
    47
 74
   -43
  0
VERTEX
  8
RK-DRAIN
 10
0.0
 20
0.0
 30
0.0
 70
   128
 71
   179
 72
  -180
 73
    51
 74
   -47
  0
VERTEX
  8
RK-DRAIN
 10
0.0
 20
0.0
 30
0.0
 70
   128
 71
   180
 72
   -97
 73
    55
 74
   -51
  0
VERTEX
  8
RK-DRAIN
 10
0.0
 20
0.0
 30
0.0
 70
   128
 71
   181
 72
   182
 73
   180
 74
   179
  0
VERTEX
  8
RK-DRAIN
 10
0.0
 20
0.0
 30
0.0
 70
   128
 71
   182
 72
    99
 73
    97
 74
   180
  0
VERTEX
  8
RK-DRAIN
 10
0.0
 20
0.0
 30
0.0
 70
   128
 71
   178
 72
   181
 73
   179
 74
   177
  0
VERTEX
  8
RK-DRAIN
 10
0.0
 20
0.0
 30
0.0
 70
   128
 71
   122
 72
   183
 73
   184
 74
   120
  0
VERTEX
  8
RK-DRAIN
 10
0.0
 20
0.0
 30
0.0
 70
   128
 71
   183
 72
   185
 73
   123
 74
   184
  0
VERTEX
  8
RK-DRAIN
 10
0.0
 20
0.0
 30
0.0
 70
   128
 71
   185
 72
   126
 73
   124
 74
   123
  0
VERTEX
  8
RK-DRAIN
 10
0.0
 20
0.0
 30
0.0
 70
   128
 71
   184
 72
  -123
 73
    31
 74
   -27
  0
VERTEX
  8
RK-DRAIN
 10
0.0
 20
0.0
 30
0.0
 70
   128
 71
   120
 72
  -184
 73
    27
 74
   -23
  0
VERTEX
  8
RK-DRAIN
 10
0.0
 20
0.0
 30
0.0
 70
   128
 71
   186
 72
  -119
 73
    19
 74
   -15
  0
VERTEX
  8
RK-DRAIN
 10
0.0
 20
0.0
 30
0.0
 70
   128
 71
   187
 72
   121
 73
   119
 74
   186
  0
VERTEX
  8
RK-DRAIN
 10
0.0
 20
0.0
 30
0.0
 70
   128
 71
   188
 72
  -189
 73
     7
 74
    -6
  0
VERTEX
  8
RK-DRAIN
 10
0.0
 20
0.0
 30
0.0
 70
   128
 71
   190
 72
   191
 73
   189
 74
   188
  0
VERTEX
  8
RK-DRAIN
 10
0.0
 20
0.0
 30
0.0
 70
   128
 71
   106
 72
   190
 73
   188
 74
   104
  0
VERTEX
  8
RK-DRAIN
 10
0.0
 20
0.0
 30
0.0
 70
   128
 71
   104
 72
  -188
 73
     6
 74
   -95
  0
VERTEX
  8
RK-DRAIN
 10
0.0
 20
0.0
 30
0.0
 70
   128
 71
   191
 72
   192
 73
   193
 74
   189
  0
VERTEX
  8
RK-DRAIN
 10
0.0
 20
0.0
 30
0.0
 70
   128
 71
   192
 72
   187
 73
   186
 74
   193
  0
VERTEX
  8
RK-DRAIN
 10
0.0
 20
0.0
 30
0.0
 70
   128
 71
   189
 72
  -193
 73
    11
 74
    -7
  0
VERTEX
  8
RK-DRAIN
 10
0.0
 20
0.0
 30
0.0
 70
   128
 71
   193
 72
  -186
 73
    15
 74
   -11
  0
SEQEND
  8
RK-DRAIN
  0
INSERT
  8
0
  2
05964PLN
 10
0.0068181408553105
 20
-22.00165084948969
 30
8.349999999999999
  0
LINE
  8
RK-DRAIN
 10
12.5
 20
-10.125
 30
0.75
 11
12.5
 21
-10.25
 31
0.75
  0
ENDSEC
  0
EOF
