  0
SECTION
  2
HEADER
  9
$ACADVER
  1
AC1009
  9
$INSBASE
 10
0.0
 20
0.0
 30
0.0
  9
$EXTMIN
 10
-12.827606
 20
-11.327606
 30
0.0
  9
$EXTMAX
 10
12.827606
 20
11.327606
 30
0.0
  9
$LIMMIN
 10
0.0
 20
0.0
  9
$LIMMAX
 10
12.0
 20
9.0
  9
$ORTHOMODE
 70
     0
  9
$REGENMODE
 70
     1
  9
$FILLMODE
 70
     1
  9
$QTEXTMODE
 70
     0
  9
$MIRRTEXT
 70
     1
  9
$DRAGMODE
 70
     2
  9
$LTSCALE
 40
1.0
  9
$OSMODE
 70
     0
  9
$ATTMODE
 70
     1
  9
$TEXTSIZE
 40
0.001
  9
$TRACEWID
 40
0.05
  9
$TEXTSTYLE
  7
STANDARD
  9
$CLAYER
  8
0
  9
$CELTYPE
  6
BYLAYER
  9
$CECOLOR
 62
     7
  9
$DIMSCALE
 40
1.0
  9
$DIMASZ
 40
0.18
  9
$DIMEXO
 40
0.0625
  9
$DIMDLI
 40
0.38
  9
$DIMRND
 40
0.0
  9
$DIMDLE
 40
0.0
  9
$DIMEXE
 40
0.18
  9
$DIMTP
 40
0.0
  9
$DIMTM
 40
0.0
  9
$DIMTXT
 40
0.18
  9
$DIMCEN
 40
0.09
  9
$DIMTSZ
 40
0.0
  9
$DIMTOL
 70
     0
  9
$DIMLIM
 70
     0
  9
$DIMTIH
 70
     1
  9
$DIMTOH
 70
     1
  9
$DIMSE1
 70
     0
  9
$DIMSE2
 70
     0
  9
$DIMTAD
 70
     0
  9
$DIMZIN
 70
     0
  9
$DIMBLK
  1

  9
$DIMASO
 70
     1
  9
$DIMSHO
 70
     0
  9
$DIMPOST
  1

  9
$DIMAPOST
  1

  9
$DIMALT
 70
     0
  9
$DIMALTD
 70
     2
  9
$DIMALTF
 40
25.4
  9
$DIMLFAC
 40
1.0
  9
$DIMTOFL
 70
     0
  9
$DIMTVP
 40
0.0
  9
$DIMTIX
 70
     0
  9
$DIMSOXD
 70
     0
  9
$DIMSAH
 70
     0
  9
$DIMBLK1
  1

  9
$DIMBLK2
  1

  9
$DIMSTYLE
  2
*UNNAMED
  9
$DIMCLRD
 70
     0
  9
$DIMCLRE
 70
     0
  9
$DIMCLRT
 70
     0
  9
$DIMTFAC
 40
1.0
  9
$DIMGAP
 40
0.09
  9
$LUNITS
 70
     2
  9
$LUPREC
 70
     4
  9
$SKETCHINC
 40
0.1
  9
$FILLETRAD
 40
0.0
  9
$AUNITS
 70
     0
  9
$AUPREC
 70
     0
  9
$MENU
  1
acad
  9
$ELEVATION
 40
0.0
  9
$PELEVATION
 40
0.0
  9
$THICKNESS
 40
0.0
  9
$LIMCHECK
 70
     0
  9
$BLIPMODE
 70
     1
  9
$CHAMFERA
 40
0.0
  9
$CHAMFERB
 40
0.0
  9
$SKPOLY
 70
     0
  9
$TDCREATE
 40
2450945.575657291
  9
$TDUPDATE
 40
2450945.575657291
  9
$TDINDWG
 40
0.0000000000
  9
$TDUSRTIMER
 40
0.0000000000
  9
$USRTIMER
 70
     1
  9
$ANGBASE
 50
0.0
  9
$ANGDIR
 70
     0
  9
$PDMODE
 70
     0
  9
$PDSIZE
 40
0.0
  9
$PLINEWID
 40
0.0
  9
$COORDS
 70
     0
  9
$SPLFRAME
 70
     0
  9
$SPLINETYPE
 70
     6
  9
$SPLINESEGS
 70
     8
  9
$ATTDIA
 70
     0
  9
$ATTREQ
 70
     1
  9
$HANDLING
 70
     0
  9
$HANDSEED
  5
0
  9
$SURFTAB1
 70
     6
  9
$SURFTAB2
 70
     6
  9
$SURFTYPE
 70
     6
  9
$SURFU
 70
     6
  9
$SURFV
 70
     6
  9
$UCSNAME
  2

  9
$UCSORG
 10
0.0
 20
0.0
 30
0.0
  9
$UCSXDIR
 10
1.0
 20
0.0
 30
0.0
  9
$UCSYDIR
 10
0.0
 20
1.0
 30
0.0
  9
$PUCSNAME
  2

  9
$PUCSORG
 10
0.0
 20
0.0
 30
0.0
  9
$PUCSXDIR
 10
1.0
 20
0.0
 30
0.0
  9
$PUCSYDIR
 10
0.0
 20
1.0
 30
0.0
  9
$USERI1
 70
     0
  9
$USERI2
 70
     0
  9
$USERI3
 70
     0
  9
$USERI4
 70
     0
  9
$USERI5
 70
     0
  9
$USERR1
 40
0.0
  9
$USERR2
 40
0.0
  9
$USERR3
 40
0.0
  9
$USERR4
 40
0.0
  9
$USERR5
 40
0.0
  9
$WORLDVIEW
 70
     1
  9
$SHADEDGE
 70
     3
  9
$SHADEDIF
 70
    70
  9
$TILEMODE
 70
     1
  9
$MAXACTVP
 70
    16
  9
$PINSBASE
 10
0.0
 20
0.0
 30
0.0
  9
$PLIMCHECK
 70
     0
  9
$PEXTMIN
 10
1.000000E+20
 20
1.000000E+20
 30
1.000000E+20
  9
$PEXTMAX
 10
-1.000000E+20
 20
-1.000000E+20
 30
-1.000000E+20
  9
$PLIMMIN
 10
0.0
 20
0.0
  9
$PLIMMAX
 10
12.0
 20
9.0
  9
$UNITMODE
 70
     0
  9
$VISRETAIN
 70
     0
  9
$PLINEGEN
 70
     0
  9
$PSLTSCALE
 70
     0
  9
$TREEDEPTH
 70
  3020
  9
$DWGCODEPAGE
  3
undefined
  0
ENDSEC
  0
SECTION
  2
TABLES
  0
TABLE
  2
VPORT
 70
     2
  0
VPORT
  2
*ACTIVE
 70
     0
 10
0.0
 20
0.0
 11
1.0
 21
1.0
 12
4.950772
 22
0.0
 13
0.0
 23
0.0
 14
1.0
 24
1.0
 15
0.0
 25
0.0
 16
0.0
 26
0.0
 36
1.0
 17
0.0
 27
0.0
 37
0.0
 40
24.444444
 41
1.573846
 42
50.0
 43
0.0
 44
0.0
 50
0.0
 51
0.0
 71
     0
 72
   100
 73
     1
 74
     1
 75
     0
 76
     0
 77
     0
 78
     0
  0
ENDTAB
  0
TABLE
  2
LTYPE
 70
     1
  0
LTYPE
  2
CONTINUOUS
 70
    64
  3
Solid line
 72
    65
 73
     0
 40
0.0
  0
ENDTAB
  0
TABLE
  2
LAYER
 70
     1
  0
LAYER
  2
0
 70
    64
 62
     7
  6
CONTINUOUS
  0
ENDTAB
  0
TABLE
  2
STYLE
 70
     1
  0
STYLE
  2
STANDARD
 70
    64
 40
0.0
 41
1.0
 50
0.0
 71
     0
 42
0.001
  3
txt
  4

  0
ENDTAB
  0
TABLE
  2
VIEW
 70
     0
  0
ENDTAB
  0
TABLE
  2
UCS
 70
     0
  0
ENDTAB
  0
TABLE
  2
APPID
 70
     1
  0
APPID
  2
ACAD
 70
    64
  0
ENDTAB
  0
TABLE
  2
DIMSTYLE
 70
     0
  0
ENDTAB
  0
ENDSEC
  0
SECTION
  2
BLOCKS
  0
ENDSEC
  0
SECTION
  2
ENTITIES
  0
LINE
  8
0
 10
8.167082
 20
9.301122
 30
0.0
 11
-8.167082
 21
9.301122
 31
0.0
  0
LINE
  8
0
 10
-10.941397
 20
11.0
 30
0.0
 11
10.941397
 21
11.0
 31
0.0
  0
LINE
  8
0
 10
-10.660848
 20
-6.667082
 30
0.0
 11
-10.660848
 21
6.807357
 31
0.0
  0
LINE
  8
0
 10
-8.167082
 20
6.168329
 30
0.0
 11
8.167082
 21
6.168329
 31
0.0
  0
LINE
  8
0
 10
8.167082
 20
-9.160848
 30
0.0
 11
-8.167082
 21
-9.160848
 31
0.0
  0
LINE
  8
0
 10
12.5
 20
9.441397
 30
0.0
 11
12.5
 21
-9.441397
 31
0.0
  0
LINE
  8
0
 10
10.660848
 20
-6.667082
 30
0.0
 11
10.660848
 21
6.807357
 31
0.0
  0
LINE
  8
0
 10
-10.941397
 20
-11.0
 30
0.0
 11
10.941397
 21
-11.0
 31
0.0
  0
LINE
  8
0
 10
-12.5
 20
9.441397
 30
0.0
 11
-12.5
 21
-9.441397
 31
0.0
  0
CIRCLE
  8
0
 10
0.0
 20
-1.500085
 30
0.0
 40
1.745636
  0
ARC
  8
0
 10
-10.956983
 20
9.456983
 30
0.0
 40
1.543017
 50
89.4
 51
180.6
  0
ARC
  8
0
 10
-10.956983
 20
-9.456983
 30
0.0
 40
1.543017
 50
179.4
 51
270.6
  0
ARC
  8
0
 10
-8.167082
 20
-6.667082
 30
0.0
 40
2.493766
 50
180.2
 51
269.8
  0
ARC
  8
0
 10
-8.167082
 20
3.674564
 30
0.0
 40
2.493766
 50
90.2
 51
179.8
  0
ARC
  8
0
 10
-8.167082
 20
6.807357
 30
0.0
 40
2.493766
 50
90.2
 51
179.8
  0
ARC
  8
0
 10
10.956983
 20
9.456983
 30
0.0
 40
1.543017
 50
359.4
 51
90.6
  0
ARC
  8
0
 10
10.956983
 20
-9.456983
 30
0.0
 40
1.543017
 50
269.4
 51
0.6
  0
ARC
  8
0
 10
8.167082
 20
-6.667082
 30
0.0
 40
2.493766
 50
270.2
 51
359.8
  0
ARC
  8
0
 10
8.167082
 20
3.674564
 30
0.0
 40
2.493766
 50
0.2
 51
89.8
  0
ARC
  8
0
 10
8.167082
 20
6.807357
 30
0.0
 40
2.493766
 50
0.2
 51
89.8
  0
LINE
  8
0
 10
-4.036783
 20
7.851621
 30
0.0
 11
-4.036783
 21
7.851621
 31
0.0
  0
LINE
  8
0
 10
0.0
 20
7.851621
 30
0.0
 11
0.0
 21
7.851621
 31
0.0
  0
LINE
  8
0
 10
4.036783
 20
7.851621
 30
0.0
 11
4.036783
 21
7.851621
 31
0.0
  0
LINE
  8
0
 10
8.073566
 20
7.851621
 30
0.0
 11
8.073566
 21
7.851621
 31
0.0
  0
ATTDEF
  8
0
 62
     7
 10
0.0
 20
0.0
 30
0.0
 40
0.001
  1
K-5964-4
  3

  2
MODELNUMBER
 70
     8
  0
ATTDEF
  8
0
 62
     7
 10
0.0
 20
-0.0017
 30
0.0
 40
0.001
  1
MAYFIELD
  3

  2
TRADENAME
 70
     8
  0
ATTDEF
  8
0
 62
     7
 10
0.0
 20
-0.0034
 30
0.0
 40
0.001
  1
SINKS
  3

  2
PRODUCT
 70
     8
  0
ATTDEF
  8
0
 62
     7
 10
0.0
 20
-0.0051
 30
0.0
 40
0.001
  1
CAST IRON
  3

  2
MATERIAL
 70
     8
  0
ENDSEC
  0
EOF
