  0
SECTION
  2
HEADER
  9
$ACADVER
  1
AC1009
  9
$INSBASE
 10
6.0983263808499997
 20
-1.5941090425999991
 30
0.0
  9
$EXTMIN
 10
4.7833519014999988
 20
-1.6084803954043949
 30
0.0
  9
$EXTMAX
 10
7.4133519014999987
 20
7.3008909574000009
 30
0.0
  9
$LIMMIN
 10
0.0
 20
0.0
  9
$LIMMAX
 10
11.692913385800001
 20
8.2677165353999982
  9
$ORTHOMODE
 70
     0
  9
$REGENMODE
 70
     1
  9
$FILLMODE
 70
     1
  9
$QTEXTMODE
 70
     0
  9
$MIRRTEXT
 70
     0
  9
$DRAGMODE
 70
     2
  9
$LTSCALE
 40
0.6431102362
  9
$OSMODE
 70
  3071
  9
$ATTMODE
 70
     1
  9
$TEXTSIZE
 40
0.2
  9
$TRACEWID
 40
0.05
  9
$TEXTSTYLE
  7
STANDARD
  9
$CLAYER
  8
0
  9
$CELTYPE
  6
BYLAYER
  9
$CECOLOR
 62
   256
  9
$DIMSCALE
 40
1.0
  9
$DIMASZ
 40
0.1875
  9
$DIMEXO
 40
0.0625
  9
$DIMDLI
 40
0.4443307087
  9
$DIMRND
 40
0.0
  9
$DIMDLE
 40
0.0
  9
$DIMEXE
 40
0.125
  9
$DIMTP
 40
0.01
  9
$DIMTM
 40
0.01
  9
$DIMTXT
 40
0.15625
  9
$DIMCEN
 40
0.1052362205
  9
$DIMTSZ
 40
0.0
  9
$DIMTOL
 70
     1
  9
$DIMLIM
 70
     0
  9
$DIMTIH
 70
     1
  9
$DIMTOH
 70
     1
  9
$DIMSE1
 70
     0
  9
$DIMSE2
 70
     0
  9
$DIMTAD
 70
     0
  9
$DIMZIN
 70
     0
  9
$DIMBLK
  1

  9
$DIMASO
 70
     1
  9
$DIMSHO
 70
     1
  9
$DIMPOST
  1

  9
$DIMAPOST
  1

  9
$DIMALT
 70
     0
  9
$DIMALTD
 70
     2
  9
$DIMALTF
 40
25.399999999999999
  9
$DIMLFAC
 40
1.0
  9
$DIMTOFL
 70
     0
  9
$DIMTVP
 40
0.0
  9
$DIMTIX
 70
     0
  9
$DIMSOXD
 70
     0
  9
$DIMSAH
 70
     0
  9
$DIMBLK1
  1

  9
$DIMBLK2
  1

  9
$DIMSTYLE
  2
STANDARD
  9
$DIMCLRD
 70
     0
  9
$DIMCLRE
 70
     0
  9
$DIMCLRT
 70
     0
  9
$DIMTFAC
 40
1.0
  9
$DIMGAP
 40
0.09
  9
$LUNITS
 70
     2
  9
$LUPREC
 70
     4
  9
$SKETCHINC
 40
0.1
  9
$FILLETRAD
 40
0.0
  9
$AUNITS
 70
     0
  9
$AUPREC
 70
     0
  9
$MENU
  1
.
  9
$ELEVATION
 40
0.0
  9
$PELEVATION
 40
0.0
  9
$THICKNESS
 40
0.0
  9
$LIMCHECK
 70
     0
  9
$BLIPMODE
 70
     0
  9
$CHAMFERA
 40
0.0
  9
$CHAMFERB
 40
0.0
  9
$SKPOLY
 70
     0
  9
$TDCREATE
 40
2457730.5201203008
  9
$TDUPDATE
 40
2457731.6510530789
  9
$TDINDWG
 40
0.1489643056
  9
$TDUSRTIMER
 40
0.1489643056
  9
$USRTIMER
 70
     1
  9
$ANGBASE
 50
0.0
  9
$ANGDIR
 70
     0
  9
$PDMODE
 70
     0
  9
$PDSIZE
 40
0.3125
  9
$PLINEWID
 40
0.0
  9
$COORDS
 70
     1
  9
$SPLFRAME
 70
     0
  9
$SPLINETYPE
 70
     6
  9
$SPLINESEGS
 70
     8
  9
$ATTDIA
 70
     1
  9
$ATTREQ
 70
     1
  9
$HANDLING
 70
     1
  9
$HANDSEED
  5
1BC1
  9
$SURFTAB1
 70
     6
  9
$SURFTAB2
 70
     6
  9
$SURFTYPE
 70
     6
  9
$SURFU
 70
     6
  9
$SURFV
 70
     6
  9
$UCSNAME
  2

  9
$UCSORG
 10
0.0
 20
0.0
 30
0.0
  9
$UCSXDIR
 10
1.0
 20
0.0
 30
0.0
  9
$UCSYDIR
 10
0.0
 20
1.0
 30
0.0
  9
$PUCSNAME
  2

  9
$PUCSORG
 10
0.0
 20
0.0
 30
0.0
  9
$PUCSXDIR
 10
1.0
 20
0.0
 30
0.0
  9
$PUCSYDIR
 10
0.0
 20
1.0
 30
0.0
  9
$USERI1
 70
     0
  9
$USERI2
 70
     0
  9
$USERI3
 70
     0
  9
$USERI4
 70
     0
  9
$USERI5
 70
     0
  9
$USERR1
 40
0.0
  9
$USERR2
 40
0.0
  9
$USERR3
 40
0.0
  9
$USERR4
 40
0.0
  9
$USERR5
 40
0.0
  9
$WORLDVIEW
 70
     1
  9
$SHADEDGE
 70
     3
  9
$SHADEDIF
 70
    70
  9
$TILEMODE
 70
     1
  9
$MAXACTVP
 70
    64
  9
$PLIMCHECK
 70
     0
  9
$PEXTMIN
 10
1.0000000000000000E+020
 20
1.0000000000000000E+020
 30
1.0000000000000000E+020
  9
$PEXTMAX
 10
-1.0000000000000000E+020
 20
-1.0000000000000000E+020
 30
-1.0000000000000000E+020
  9
$PLIMMIN
 10
0.0
 20
0.0
  9
$PLIMMAX
 10
12.0
 20
9.0
  9
$UNITMODE
 70
     0
  9
$VISRETAIN
 70
     1
  9
$PLINEGEN
 70
     0
  9
$PSLTSCALE
 70
     1
  0
ENDSEC
  0
SECTION
  2
TABLES
  0
TABLE
  2
VPORT
 70
     1
  0
VPORT
  2
*ACTIVE
 70
     0
 10
0.0
 20
0.0
 11
1.0
 21
1.0
 12
0.0
 22
0.0
 13
0.0
 23
0.0
 14
1.0
 24
1.0
 15
0.0
 25
0.0
 16
-0.0000000000000044
 26
0.0
 36
21.765297925896121
 17
6.0983519014999992
 27
2.8462052809978031
 37
0.0
 40
9.2894455110179557
 41
1.642297650130548
 42
50.0
 43
0.0
 44
0.0
 50
0.0
 51
0.0
 71
     0
 72
   100
 73
     1
 74
     1
 75
     0
 76
     0
 77
     0
 78
     0
  0
ENDTAB
  0
TABLE
  2
LTYPE
 70
     2
  0
LTYPE
  2
CONTINUOUS
 70
     0
  3
Solid line
 72
    65
 73
     0
 40
0.0
  0
LTYPE
  2
PHANTOM2
 70
     0
  3
___ _ _ ___ _ _ ___ _ _ ___ _ _
 72
    65
 73
     6
 40
1.25
 49
0.625
 49
-0.125
 49
0.125
 49
-0.125
 49
0.125
 49
-0.125
  0
ENDTAB
  0
TABLE
  2
LAYER
 70
     3
  0
LAYER
  2
0
 70
     0
 62
     7
  6
CONTINUOUS
  0
LAYER
  2
DEFPOINTS
 70
     0
 62
     7
  6
CONTINUOUS
  0
ENDTAB
  0
TABLE
  2
STYLE
 70
     1
  0
STYLE
  2
STANDARD
 70
     0
 40
0.0
 41
0.8
 50
0.0
 71
     0
 42
0.2
  3
txt
  4

  0
ENDTAB
  0
TABLE
  2
VIEW
 70
     0
  0
ENDTAB
  0
TABLE
  2
UCS
 70
     0
  0
ENDTAB
  0
TABLE
  2
APPID
 70
     5
  0
APPID
  2
ACAD
 70
     0
  0
APPID
  2
ACAD_NAV_VCDISPLAY
 70
     0
  0
APPID
  2
ACAD_MLEADERVER
 70
     0
  0
APPID
  2
ACAD_EXEMPT_FROM_CAD_STANDARDS
 70
     0
  0
APPID
  2
AcDbAttr
 70
     0
  0
ENDTAB
  0
TABLE
  2
DIMSTYLE
 70
     1
  0
DIMSTYLE
  2
STANDARD
 70
     0
  3

  4

  5

  6

  7

 40
1.0
 41
0.1875
 42
0.0625
 43
0.38
 44
0.125
 45
0.0
 46
0.0
 47
0.01
 48
0.01
140
0.15625
141
0.09
142
0.0
143
25.399999999999999
144
1.0
145
0.0
146
1.0
147
0.09
 71
     1
 72
     0
 73
     1
 74
     1
 75
     0
 76
     0
 77
     0
 78
     4
170
     0
171
     2
172
     0
173
     0
174
     0
175
     0
176
     0
177
     0
178
     0
  0
ENDTAB
  0
ENDSEC
  0
SECTION
  2
BLOCKS
  0
BLOCK
  8
0
  2
$MODEL_SPACE
 70
     0
 10
0.0
 20
0.0
 30
0.0
  3
$MODEL_SPACE
  1

  0
ENDBLK
  5
21
  8
0
  0
BLOCK
 67
     1
  8
0
  2
$PAPER_SPACE
 70
     0
 10
0.0
 20
0.0
 30
0.0
  3
$PAPER_SPACE
  1

  0
ENDBLK
  5
1D
 67
     1
  8
0
  0
ENDSEC
  0
SECTION
  2
ENTITIES
  0
LINE
  5
E08
  8
0
 10
5.0658519014999994
 20
7.3008909574
 30
0.0
 11
7.1308519014999989
 21
7.3008909574
 31
0.0
  0
ARC
  5
E09
  8
0
 10
7.1308519014999989
 20
7.2708909573999989
 30
0.0
 40
0.0300000000000003
 50
291.0000005058431
 51
90.0
  0
LINE
  5
E17
  8
0
 10
7.1416029399860648
 20
7.24288354460497
 30
0.0
 11
6.9487509919860662
 21
7.1688546176049703
 31
0.0
  0
LINE
  5
E18
  8
0
 10
6.8508350218860654
 20
6.552624352804969
 30
0.0
 11
6.8744754737860649
 21
6.6643316933049697
 31
0.0
  0
LINE
  5
E19
  8
0
 10
6.9103351715860653
 20
7.1159799087049702
 30
0.0
 11
6.8947731368860641
 21
6.8190385960049698
 31
0.0
  0
LINE
  5
E1A
  8
0
 10
6.8383519046860659
 20
6.5408909541049702
 30
0.0
 11
5.3583518982860641
 21
6.5408909541049702
 31
0.0
  0
ARC
  5
E1B
  8
0
 10
5.896143602686065
 20
6.8713745629049701
 30
0.0
 40
1.0
 50
348.0508540713999
 51
356.99999294579999
  0
ARC
  5
E1C
  8
0
 10
6.9702529432860647
 20
7.1128397438049689
 30
0.0
 40
0.06
 50
110.9998714437999
 51
176.99999285569999
  0
ARC
  5
E1D
  8
0
 10
6.836160033386065
 20
6.555729946704969
 30
0.0
 40
0.015
 50
278.40241670979992
 51
348.05107917190003
  0
LINE
  5
E1E
  8
0
 10
6.8154688930356988
 20
6.5408909541049702
 30
0.0
 11
6.8171019015000001
 21
6.5397096793999996
 31
0.0
  0
LINE
  5
E1F
  8
0
 10
6.8171019015000001
 20
6.5397096793999996
 30
0.0
 11
6.8171019015000001
 21
6.5370722354999993
 31
0.0
  0
LINE
  5
E20
  8
0
 10
6.8171019015000001
 20
6.5370722354999993
 30
0.0
 11
6.7869268221720533
 21
6.5158915068319629
 31
0.0
  0
LINE
  5
E21
  8
0
 10
6.7869268221720533
 20
6.5158915068319629
 30
0.0
 11
6.8170300160000004
 21
6.4948108155999993
 31
0.0
  0
LINE
  5
E22
  8
0
 10
6.8170300160000004
 20
6.4948108155999993
 30
0.0
 11
6.8170243413999989
 21
6.4919648402999988
 31
0.0
  0
LINE
  5
E23
  8
0
 10
6.8170243413999989
 20
6.4919648402999988
 30
0.0
 11
6.7868950991766042
 21
6.4708882905070828
 31
0.0
  0
LINE
  5
E24
  8
0
 10
6.7868950991766042
 20
6.4708882905070828
 30
0.0
 11
6.8170323238000003
 21
6.4497827238000003
 31
0.0
  0
LINE
  5
E25
  8
0
 10
6.8170323238000003
 20
6.4497827238000003
 30
0.0
 11
6.8171019015000001
 21
6.4470722354999994
 31
0.0
  0
LINE
  5
E26
  8
0
 10
6.8171019015000001
 20
6.4470722354999994
 30
0.0
 11
6.7869176942421721
 21
6.4258878973444418
 31
0.0
  0
LINE
  5
E27
  8
0
 10
6.7869176942421721
 20
6.4258878973444418
 30
0.0
 11
6.7940531839
 21
6.4208909574000002
 31
0.0
  0
LINE
  5
E28
  8
0
 10
6.7940531839
 20
6.4208909574000002
 30
0.0
 11
6.7281977616999988
 21
6.4208909574000002
 31
0.0
  0
ARC
  5
E29
  8
0
 10
6.727481706579475
 20
6.4125041607303519
 30
0.0
 40
0.0084173091492256
 50
85.119986523944505
 51
126.6300799139575
  0
ARC
  5
E2A
  8
0
 10
6.7278867763597319
 20
6.41584604658141
 30
0.0
 40
0.0064112114191825
 50
147.83527923743651
 51
215.8161235005492
  0
ARC
  5
E2B
  8
0
 10
6.7676008788318951
 20
6.4374288765006336
 30
0.0
 40
0.0515656272007291
 50
209.42655731890659
 51
224.6860580384247
  0
LINE
  5
E2C
  8
0
 10
6.7309392333416884
 20
6.4011668073519301
 30
0.0
 11
6.7292031563022601
 21
6.3984834541823048
 31
0.0
  0
LINE
  5
E2D
  8
0
 10
6.7292031563022601
 20
6.3984834541823048
 30
0.0
 11
6.6837948209145814
 21
6.3769217214288663
 31
0.0
  0
LINE
  5
E2E
  8
0
 10
6.6837948209145814
 20
6.3769217214288663
 30
0.0
 11
6.7136608913999991
 21
6.3558196148999988
 31
0.0
  0
LINE
  5
E2F
  8
0
 10
6.7136608913999991
 20
6.3558196148999988
 30
0.0
 11
6.7132261001007203
 21
6.3531737964859101
 31
0.0
  0
LINE
  5
E30
  8
0
 10
6.7132261001007203
 20
6.3531737964859101
 30
0.0
 11
6.6757625264799163
 21
6.3317486867418182
 31
0.0
  0
LINE
  5
E31
  8
0
 10
6.6757625264799163
 20
6.3317486867418182
 30
0.0
 11
6.7115211786999991
 21
6.3107786126000001
 31
0.0
  0
LINE
  5
E32
  8
0
 10
6.7115211786999991
 20
6.3107786126000001
 30
0.0
 11
6.7115129774622728
 21
6.308136414483525
 31
0.0
  0
LINE
  5
E33
  8
0
 10
6.7115129774622728
 20
6.308136414483525
 30
0.0
 11
6.6757663513217729
 21
6.2867659231983151
 31
0.0
  0
LINE
  5
E34
  8
0
 10
6.6757663513217729
 20
6.2867659231983151
 30
0.0
 11
6.7115211786999991
 21
6.265778620399999
 31
0.0
  0
LINE
  5
E35
  8
0
 10
6.7115211786999991
 20
6.265778620399999
 30
0.0
 11
6.7115211786999991
 21
6.2631365734999997
 31
0.0
  0
LINE
  5
E36
  8
0
 10
6.7115211786999991
 20
6.2631365734999997
 30
0.0
 11
6.6757639336221271
 21
6.241756295539993
 31
0.0
  0
LINE
  5
E37
  8
0
 10
6.6757639336221271
 20
6.241756295539993
 30
0.0
 11
6.7115211786999991
 21
6.2207786203999991
 31
0.0
  0
LINE
  5
E38
  8
0
 10
6.7115211786999991
 20
6.2207786203999991
 30
0.0
 11
6.7115211787020002
 21
6.218141357075333
 31
0.0
  0
LINE
  5
E39
  8
0
 10
6.7115211787020002
 20
6.218141357075333
 30
0.0
 11
6.675766351285211
 21
6.1967659232519461
 31
0.0
  0
LINE
  5
E3A
  8
0
 10
6.675766351285211
 20
6.1967659232519461
 30
0.0
 11
6.7115211786999991
 21
6.1757786204
 31
0.0
  0
LINE
  5
E3B
  8
0
 10
6.7115211786999991
 20
6.1757786204
 30
0.0
 11
6.7115211786999991
 21
6.1731365740999991
 31
0.0
  0
LINE
  5
E3C
  8
0
 10
6.7115211786999991
 20
6.1731365740999991
 30
0.0
 11
6.6757663512764429
 21
6.1517659232600979
 31
0.0
  0
LINE
  5
E3D
  8
0
 10
6.6757663512764429
 20
6.1517659232600979
 30
0.0
 11
6.7115212662441177
 21
6.1307735849405844
 31
0.0
  0
LINE
  5
E3E
  8
0
 10
6.7115212662441177
 20
6.1307735849405844
 30
0.0
 11
6.7115211786999991
 21
6.1281413570999996
 31
0.0
  0
LINE
  5
E3F
  8
0
 10
6.7115211786999991
 20
6.1281413570999996
 30
0.0
 11
6.6757674112939869
 21
6.1067626205185022
 31
0.0
  0
LINE
  5
E40
  8
0
 10
6.6757674112939869
 20
6.1067626205185022
 30
0.0
 11
6.7115180604718612
 21
6.0857804653131833
 31
0.0
  0
LINE
  5
E41
  8
0
 10
6.7115180604718612
 20
6.0857804653131833
 30
0.0
 11
6.7115211786999991
 21
6.0831365737
 31
0.0
  0
LINE
  5
E42
  8
0
 10
6.7115211786999991
 20
6.0831365737
 30
0.0
 11
6.67576635124363
 21
6.0617659232486583
 31
0.0
  0
LINE
  5
E43
  8
0
 10
6.67576635124363
 20
6.0617659232486583
 30
0.0
 11
6.711513163760233
 21
6.0407833624738236
 31
0.0
  0
LINE
  5
E44
  8
0
 10
6.711513163760233
 20
6.0407833624738236
 30
0.0
 11
6.7115211786999991
 21
6.0381413570999998
 31
0.0
  0
LINE
  5
E45
  8
0
 10
6.7115211786999991
 20
6.0381413570999998
 30
0.0
 11
6.6757601951658607
 21
6.0167495228980741
 31
0.0
  0
LINE
  5
E46
  8
0
 10
6.6757601951658607
 20
6.0167495228980741
 30
0.0
 11
6.7122993275264839
 21
5.9957934436004852
 31
0.0
  0
LINE
  5
E47
  8
0
 10
6.7122993275264839
 20
5.9957934436004852
 30
0.0
 11
6.7125968007546408
 21
5.9931569712234039
 31
0.0
  0
LINE
  5
E48
  8
0
 10
6.7125968007546408
 20
5.9931569712234039
 30
0.0
 11
6.6814464757700973
 21
5.971867200523632
 31
0.0
  0
LINE
  5
E49
  8
0
 10
6.6814464757700973
 20
5.971867200523632
 30
0.0
 11
6.724886025681502
 21
5.9510417738287407
 31
0.0
  0
LINE
  5
E4A
  8
0
 10
6.724886025681502
 20
5.9510417738287407
 30
0.0
 11
6.7262391798000012
 21
5.9484319395999998
 31
0.0
  0
LINE
  5
E4B
  8
0
 10
6.7262391798000012
 20
5.9484319395999998
 30
0.0
 11
6.7184876977973786
 21
5.9409504684982712
 31
0.0
  0
ARC
  5
E4C
  8
0
 10
6.7495990391308363
 20
5.9079327906653267
 30
0.0
 40
0.0453660953691952
 50
133.29729377947751
 51
154.53567682572179
  0
ARC
  5
E4D
  8
0
 10
6.7423603180026017
 20
6.007957236114259
 30
0.0
 40
0.0872949935677772
 50
247.27684947678631
 51
265.8515580816665
  0
LINE
  5
E4E
  8
0
 10
6.7360453348
 20
5.9208909574000002
 30
0.0
 11
6.8011697843999999
 21
5.9208909574000002
 31
0.0
  0
LINE
  5
E4F
  8
0
 10
6.8011697843999999
 20
5.9208909574000002
 30
0.0
 11
6.8170297306999998
 21
5.9098111740999988
 31
0.0
  0
LINE
  5
E50
  8
0
 10
6.8170297306999998
 20
5.9098111740999988
 30
0.0
 11
6.8171019015000001
 21
5.907082999
 31
0.0
  0
LINE
  5
E51
  8
0
 10
6.8171019015000001
 20
5.907082999
 30
0.0
 11
6.7869106022327941
 21
5.8858922912149767
 31
0.0
  0
LINE
  5
E52
  8
0
 10
6.7869106022327941
 20
5.8858922912149767
 30
0.0
 11
6.8171019015000001
 21
5.8647096793999998
 31
0.0
  0
LINE
  5
E53
  8
0
 10
6.8171019015000001
 20
5.8647096793999998
 30
0.0
 11
6.8171019015000001
 21
5.8620722354999986
 31
0.0
  0
LINE
  5
E54
  8
0
 10
6.8171019015000001
 20
5.8620722354999986
 30
0.0
 11
6.7867720964
 21
5.8409954171000003
 31
0.0
  0
LINE
  5
E55
  8
0
 10
6.7867720964
 20
5.8409954171000003
 30
0.0
 11
6.8170328132999991
 21
5.8198043059999991
 31
0.0
  0
LINE
  5
E56
  8
0
 10
6.8170328132999991
 20
5.8198043059999991
 30
0.0
 11
6.8171019015000001
 21
5.8170722354999986
 31
0.0
  0
LINE
  5
E57
  8
0
 10
6.8171019015000001
 20
5.8170722354999986
 30
0.0
 11
6.7868928927007541
 21
5.7958933293097461
 31
0.0
  0
LINE
  5
E58
  8
0
 10
6.7868928927007541
 20
5.7958933293097461
 30
0.0
 11
6.8170249839999988
 21
5.7747912898999996
 31
0.0
  0
LINE
  5
E59
  8
0
 10
6.8170249839999988
 20
5.7747912898999996
 30
0.0
 11
6.8171019015000001
 21
5.7720722354999987
 31
0.0
  0
LINE
  5
E5A
  8
0
 10
6.8171019015000001
 20
5.7720722354999987
 30
0.0
 11
6.7868867697112121
 21
5.7508901687185547
 31
0.0
  0
LINE
  5
E5B
  8
0
 10
6.7868867697112121
 20
5.7508901687185547
 30
0.0
 11
6.8162964963999988
 21
5.7302938227508262
 31
0.0
  0
LINE
  5
E5C
  8
0
 10
6.8162964963999988
 20
5.7302938227508262
 30
0.0
 11
6.8170630012000002
 21
5.7270195462500002
 31
0.0
  0
LINE
  5
E5D
  8
0
 10
6.8170630012000002
 20
5.7270195462500002
 30
0.0
 11
6.7869023708036247
 21
5.7058877112687822
 31
0.0
  0
LINE
  5
E5E
  8
0
 10
6.7869023708036247
 20
5.7058877112687822
 30
0.0
 11
6.8170334142999991
 21
5.6847867047999996
 31
0.0
  0
LINE
  5
E5F
  8
0
 10
6.8170334142999991
 20
5.6847867047999996
 30
0.0
 11
6.8171019015000001
 21
5.6820722354999988
 31
0.0
  0
LINE
  5
E60
  8
0
 10
6.8171019015000001
 20
5.6820722354999988
 30
0.0
 11
6.7869239641725434
 21
5.6608888804131849
 31
0.0
  0
LINE
  5
E61
  8
0
 10
6.7869239641725434
 20
5.6608888804131849
 30
0.0
 11
6.8171019015000001
 21
5.639709679400001
 31
0.0
  0
LINE
  5
E62
  8
0
 10
6.8171019015000001
 20
5.639709679400001
 30
0.0
 11
6.8171019015000001
 21
5.6370722354999989
 31
0.0
  0
LINE
  5
E63
  8
0
 10
6.8171019015000001
 20
5.6370722354999989
 30
0.0
 11
6.7869228682833809
 21
5.6158932384689191
 31
0.0
  0
LINE
  5
E64
  8
0
 10
6.7869228682833809
 20
5.6158932384689191
 30
0.0
 11
6.8170267965999987
 21
5.594811890299999
 31
0.0
  0
LINE
  5
E65
  8
0
 10
6.8170267965999987
 20
5.594811890299999
 30
0.0
 11
6.7868924490181382
 21
5.5708893125610164
 31
0.0
  0
LINE
  5
E66
  8
0
 10
6.7868924490181382
 20
5.5708893125610164
 30
0.0
 11
6.817030708499999
 21
5.5497829349999988
 31
0.0
  0
LINE
  5
E67
  8
0
 10
6.817030708499999
 20
5.5497829349999988
 30
0.0
 11
6.8171019015000001
 21
5.5470722354999991
 31
0.0
  0
LINE
  5
E68
  8
0
 10
6.8171019015000001
 20
5.5470722354999991
 30
0.0
 11
6.7869217067403813
 21
5.5257779523999977
 31
0.0
  0
LINE
  5
E69
  8
0
 10
6.7869217067403813
 20
5.5257779523999977
 30
0.0
 11
6.8171019015000001
 21
5.5047096794000003
 31
0.0
  0
LINE
  5
E6A
  8
0
 10
6.8171019015000001
 20
5.5047096794000003
 30
0.0
 11
6.8171019015000001
 21
5.5020722354999991
 31
0.0
  0
LINE
  5
E6B
  8
0
 10
6.8171019015000001
 20
5.5020722354999991
 30
0.0
 11
6.7868933179620692
 21
5.4808891169594887
 31
0.0
  0
LINE
  5
E6C
  8
0
 10
6.7868933179620692
 20
5.4808891169594887
 30
0.0
 11
6.8171019015000001
 21
5.4597335178357493
 31
0.0
  0
LINE
  5
E6D
  8
0
 10
6.8171019015000001
 20
5.4597335178357493
 30
0.0
 11
6.8171019015000001
 21
5.4570722354999992
 31
0.0
  0
LINE
  5
E6E
  8
0
 10
6.8171019015000001
 20
5.4570722354999992
 30
0.0
 11
6.8084736334975338
 21
5.4508909574000013
 31
0.0
  0
LINE
  5
E7D
  8
0
 10
5.7233519015000001
 20
6.0108909574
 30
0.0
 11
5.7233519015000001
 21
6.3308909574000003
 31
0.0
  0
LINE
  5
E7E
  8
0
 10
6.4733519014999992
 20
6.0108909574
 30
0.0
 11
6.4733519014999992
 21
6.3308909574000003
 31
0.0
  0
LINE
  5
E7F
  8
0
 10
6.3833519015000002
 20
5.9208909574000002
 30
0.0
 11
5.813351901499999
 21
5.9208909574000002
 31
0.0
  0
LINE
  5
E80
  8
0
 10
5.813351901499999
 20
6.4208909574000002
 30
0.0
 11
6.3833519015000002
 21
6.4208909574000002
 31
0.0
  0
ARC
  5
E81
  8
0
 10
5.813351901499999
 20
6.0108909574
 30
0.0
 40
0.09
 50
180.00000000110001
 51
270.0
  0
ARC
  5
E82
  8
0
 10
5.813351901499999
 20
6.3308909574000003
 30
0.0
 40
0.09
 50
90.0
 51
180.0
  0
ARC
  5
E83
  8
0
 10
6.3833519015000002
 20
6.0108909574
 30
0.0
 40
0.09
 50
270.0
 51
0.0
  0
ARC
  5
E84
  8
0
 10
6.3833519015000002
 20
6.3308909574000003
 30
0.0
 40
0.09
 50
0.0
 51
90.0
  0
LINE
  5
E85
  8
0
 10
5.3233519014999988
 20
5.4508909574000004
 30
0.0
 11
6.8733519014999986
 21
5.4508909574000004
 31
0.0
  0
LINE
  5
E86
  8
0
 10
6.8733519014999986
 20
5.4508909574000004
 30
0.0
 11
7.1747769014999987
 21
5.0508909574
 31
0.0
  0
LINE
  5
E87
  8
0
 10
7.1747769014999987
 20
5.0508909574
 30
0.0
 11
7.3483519015000001
 21
5.0008909574000002
 31
0.0
  0
LINE
  5
E88
  8
0
 10
7.3483519015000001
 20
5.0008909574000002
 30
0.0
 11
7.3483519015000001
 21
4.9508909574000004
 31
0.0
  0
LINE
  5
E89
  8
0
 10
7.3483519015000001
 20
4.9508909574000004
 30
0.0
 11
4.8483519015000001
 21
4.9508909574000004
 31
0.0
  0
LINE
  5
E8A
  8
0
 10
4.8483519015000001
 20
4.9508909574000004
 30
0.0
 11
4.8483519015000001
 21
5.0008909574000002
 31
0.0
  0
LINE
  5
E8B
  8
0
 10
4.8483519015000001
 20
5.0008909574000002
 30
0.0
 11
5.0219269014999988
 21
5.0508909574
 31
0.0
  0
LINE
  5
E8C
  8
0
 10
5.0219269014999988
 20
5.0508909574
 30
0.0
 11
5.3233519014999988
 21
5.4508909574000004
 31
0.0
  0
LINE
  5
E8D
  8
0
 10
4.8483519015000001
 20
5.0008909574000002
 30
0.0
 11
7.3483519015000001
 21
5.0008909574000002
 31
0.0
  0
LINE
  5
E8E
  8
0
 10
7.1747769014999987
 20
5.0508909574
 30
0.0
 11
5.0219269014999988
 21
5.0508909574
 31
0.0
  0
LINE
  5
EF5
  8
0
 10
6.786902351915078
 20
4.940888003185516
 30
0.0
 11
6.8171019015000001
 21
4.9197096794000004
 31
0.0
  0
LINE
  5
EF6
  8
0
 10
6.8171019015000001
 20
4.9197096794000004
 30
0.0
 11
6.8171740722999994
 21
4.9169815042999998
 31
0.0
  0
LINE
  5
EF7
  8
0
 10
6.8171740722999994
 20
4.9169815042999998
 30
0.0
 11
6.7869827730327934
 21
4.8957907965149783
 31
0.0
  0
LINE
  5
EF8
  8
0
 10
6.7869827730327934
 20
4.8957907965149783
 30
0.0
 11
6.8171740722999994
 21
4.8746081847000013
 31
0.0
  0
LINE
  5
EF9
  8
0
 10
6.8171740722999994
 20
4.8746081847000013
 30
0.0
 11
6.8171740722999994
 21
4.8719707408000001
 31
0.0
  0
LINE
  5
EFA
  8
0
 10
6.8171740722999994
 20
4.8719707408000001
 30
0.0
 11
6.7868442671999993
 21
4.8508939224000001
 31
0.0
  0
LINE
  5
EFB
  8
0
 10
6.7868442671999993
 20
4.8508939224000001
 30
0.0
 11
6.8171049840999993
 21
4.8297028112999998
 31
0.0
  0
LINE
  5
EFC
  8
0
 10
6.8171049840999993
 20
4.8297028112999998
 30
0.0
 11
6.8171740722999994
 21
4.8269707408000002
 31
0.0
  0
LINE
  5
EFD
  8
0
 10
6.8171740722999994
 20
4.8269707408000002
 30
0.0
 11
6.7869650635007526
 21
4.8057918346097459
 31
0.0
  0
LINE
  5
EFE
  8
0
 10
6.7869650635007526
 20
4.8057918346097459
 30
0.0
 11
6.817097154799999
 21
4.7846897952000012
 31
0.0
  0
LINE
  5
EFF
  8
0
 10
6.817097154799999
 20
4.7846897952000012
 30
0.0
 11
6.8171740722999994
 21
4.7819707408000003
 31
0.0
  0
LINE
  5
F00
  8
0
 10
6.8171740722999994
 20
4.7819707408000003
 30
0.0
 11
6.7869589405112123
 21
4.7607886740185563
 31
0.0
  0
LINE
  5
F01
  8
0
 10
6.7869589405112123
 20
4.7607886740185563
 30
0.0
 11
6.816368667199999
 21
4.740192328050826
 31
0.0
  0
LINE
  5
F02
  8
0
 10
6.816368667199999
 20
4.740192328050826
 30
0.0
 11
6.8171351719999986
 21
4.73691805155
 31
0.0
  0
LINE
  5
F03
  8
0
 10
6.8171351719999986
 20
4.73691805155
 30
0.0
 11
6.786974541603624
 21
4.7157862165687821
 31
0.0
  0
LINE
  5
F04
  8
0
 10
6.786974541603624
 20
4.7157862165687821
 30
0.0
 11
6.8171055850999984
 21
4.6946852101000012
 31
0.0
  0
LINE
  5
F05
  8
0
 10
6.8171055850999984
 20
4.6946852101000012
 30
0.0
 11
6.8171740722999994
 21
4.6919707408000004
 31
0.0
  0
LINE
  5
F06
  8
0
 10
6.8171740722999994
 20
4.6919707408000004
 30
0.0
 11
6.7869961349725418
 21
4.6707873857131856
 31
0.0
  0
LINE
  5
F07
  8
0
 10
6.7869961349725418
 20
4.6707873857131856
 30
0.0
 11
6.8171740722999994
 21
4.6496081847000008
 31
0.0
  0
LINE
  5
F08
  8
0
 10
6.8171740722999994
 20
4.6496081847000008
 30
0.0
 11
6.8171740722999994
 21
4.6469707407999996
 31
0.0
  0
LINE
  5
F09
  8
0
 10
6.8171740722999994
 20
4.6469707407999996
 30
0.0
 11
6.7869950390833811
 21
4.6257917437689198
 31
0.0
  0
LINE
  5
F0A
  8
0
 10
6.7869950390833811
 20
4.6257917437689198
 30
0.0
 11
6.817098967399998
 21
4.6047103955999997
 31
0.0
  0
LINE
  5
F0B
  8
0
 10
6.817098967399998
 20
4.6047103955999997
 30
0.0
 11
6.7869646198181366
 21
4.5807878178610171
 31
0.0
  0
LINE
  5
F0C
  8
0
 10
6.7869646198181366
 20
4.5807878178610171
 30
0.0
 11
6.8171028792999993
 21
4.5596814403000003
 31
0.0
  0
LINE
  5
F0D
  8
0
 10
6.8171028792999993
 20
4.5596814403000003
 30
0.0
 11
6.8171740722999994
 21
4.5569707407999998
 31
0.0
  0
LINE
  5
F0E
  8
0
 10
6.8171740722999994
 20
4.5569707407999998
 30
0.0
 11
6.7869938775403797
 21
4.5356764576999993
 31
0.0
  0
LINE
  5
F0F
  8
0
 10
6.7869938775403797
 20
4.5356764576999993
 30
0.0
 11
6.8171740722999994
 21
4.514608184700001
 31
0.0
  0
LINE
  5
F10
  8
0
 10
6.8171740722999994
 20
4.514608184700001
 30
0.0
 11
6.8171740722999994
 21
4.5119707407999989
 31
0.0
  0
LINE
  5
F11
  8
0
 10
6.8171740722999994
 20
4.5119707407999989
 30
0.0
 11
6.7869654887620676
 21
4.4907876222594902
 31
0.0
  0
LINE
  5
F12
  8
0
 10
6.7869654887620676
 20
4.4907876222594902
 30
0.0
 11
6.8171740722999994
 21
4.46963202313575
 31
0.0
  0
LINE
  5
F13
  8
0
 10
6.8171740722999994
 20
4.46963202313575
 30
0.0
 11
6.8171740722999994
 21
4.466970740799999
 31
0.0
  0
LINE
  5
F14
  8
0
 10
6.8171740722999994
 20
4.466970740799999
 30
0.0
 11
6.7940564592999992
 21
4.4508909574000004
 31
0.0
  0
LINE
  5
F15
  8
0
 10
6.7867553839000001
 20
4.4007733604999988
 30
0.0
 11
6.8170297757
 21
4.3797827735999997
 31
0.0
  0
LINE
  5
F16
  8
0
 10
6.8170297757
 20
4.3797827735999997
 30
0.0
 11
6.8171019465000002
 21
4.3770545985
 31
0.0
  0
LINE
  5
F17
  8
0
 10
6.8171019465000002
 20
4.3770545985
 30
0.0
 11
6.7869106472327942
 21
4.3558638907149776
 31
0.0
  0
LINE
  5
F18
  8
0
 10
6.7869106472327942
 20
4.3558638907149776
 30
0.0
 11
6.8171019465000002
 21
4.3346812789000007
 31
0.0
  0
LINE
  5
F19
  8
0
 10
6.8171019465000002
 20
4.3346812789000007
 30
0.0
 11
6.8171019465000002
 21
4.3320438350000003
 31
0.0
  0
LINE
  5
F1A
  8
0
 10
6.8171019465000002
 20
4.3320438350000003
 30
0.0
 11
6.7867721414000002
 21
4.3109670166000011
 31
0.0
  0
LINE
  5
F1B
  8
0
 10
6.7867721414000002
 20
4.3109670166000011
 30
0.0
 11
6.8170328583000002
 21
4.2897759055
 31
0.0
  0
LINE
  5
F1C
  8
0
 10
6.8170328583000002
 20
4.2897759055
 30
0.0
 11
6.8171019465000002
 21
4.2870438350000004
 31
0.0
  0
LINE
  5
F1D
  8
0
 10
6.8171019465000002
 20
4.2870438350000004
 30
0.0
 11
6.7868929377007543
 21
4.2658649288097461
 31
0.0
  0
LINE
  5
F1E
  8
0
 10
6.7868929377007543
 20
4.2658649288097461
 30
0.0
 11
6.817025028999999
 21
4.2447628894000013
 31
0.0
  0
LINE
  5
F1F
  8
0
 10
6.817025028999999
 20
4.2447628894000013
 30
0.0
 11
6.8171019465000002
 21
4.2420438349999996
 31
0.0
  0
LINE
  5
F20
  8
0
 10
6.8171019465000002
 20
4.2420438349999996
 30
0.0
 11
6.7868868147112131
 21
4.2208617682185556
 31
0.0
  0
LINE
  5
F21
  8
0
 10
6.7868868147112131
 20
4.2208617682185556
 30
0.0
 11
6.816296541399999
 21
4.2002654222508271
 31
0.0
  0
LINE
  5
F22
  8
0
 10
6.816296541399999
 20
4.2002654222508271
 30
0.0
 11
6.8170630462000004
 21
4.1969911457500011
 31
0.0
  0
LINE
  5
F23
  8
0
 10
6.8170630462000004
 20
4.1969911457500011
 30
0.0
 11
6.7869024158036249
 21
4.1758593107687831
 31
0.0
  0
LINE
  5
F24
  8
0
 10
6.7869024158036249
 20
4.1758593107687831
 30
0.0
 11
6.8170334592999993
 21
4.1547583043000014
 31
0.0
  0
LINE
  5
F25
  8
0
 10
6.8170334592999993
 20
4.1547583043000014
 30
0.0
 11
6.8171019465000002
 21
4.1520438349999997
 31
0.0
  0
LINE
  5
F26
  8
0
 10
6.8171019465000002
 20
4.1520438349999997
 30
0.0
 11
6.7869240091725427
 21
4.1308604799131858
 31
0.0
  0
LINE
  5
F27
  8
0
 10
6.7869240091725427
 20
4.1308604799131858
 30
0.0
 11
6.8171019465000002
 21
4.109681278900001
 31
0.0
  0
LINE
  5
F28
  8
0
 10
6.8171019465000002
 20
4.109681278900001
 30
0.0
 11
6.8171019465000002
 21
4.1070438349999998
 31
0.0
  0
LINE
  5
F29
  8
0
 10
6.8171019465000002
 20
4.1070438349999998
 30
0.0
 11
6.786922913283381
 21
4.08586483796892
 31
0.0
  0
LINE
  5
F2A
  8
0
 10
6.786922913283381
 20
4.08586483796892
 30
0.0
 11
6.8170268415999988
 21
4.0647834897999999
 31
0.0
  0
LINE
  5
F2B
  8
0
 10
6.8170268415999988
 20
4.0647834897999999
 30
0.0
 11
6.7868924940181383
 21
4.0408609120610173
 31
0.0
  0
LINE
  5
F2C
  8
0
 10
6.7868924940181383
 20
4.0408609120610173
 30
0.0
 11
6.8011288109667696
 21
4.0308909573999987
 31
0.0
  0
LINE
  5
F35
  8
0
 10
6.786902351915078
 20
4.940888003185516
 30
0.0
 11
6.8011859719999999
 21
4.9508909574000004
 31
0.0
  0
LINE
  5
F36
  8
0
 10
6.7867553839000001
 20
4.4007733604999988
 30
0.0
 11
6.8154503439000003
 21
4.4208909574000002
 31
0.0
  0
LINE
  5
F37
  8
0
 10
7.4133519014999987
 20
4.4508909574000004
 30
0.0
 11
7.4133519014999987
 21
4.4208909574000002
 31
0.0
  0
LINE
  5
F38
  8
0
 10
7.4133519014999987
 20
4.4208909574000002
 30
0.0
 11
4.7833519014999988
 21
4.4208909574000002
 31
0.0
  0
LINE
  5
F39
  8
0
 10
4.7833519014999988
 20
4.4208909574000002
 30
0.0
 11
4.7833519014999988
 21
4.4508909574000004
 31
0.0
  0
LINE
  5
F3A
  8
0
 10
4.7833519014999988
 20
4.4508909574000004
 30
0.0
 11
7.4133519014999987
 21
4.4508909574000004
 31
0.0
  0
LINE
  5
F3B
  8
0
 10
4.7883519014999987
 20
4.0308909573999996
 30
0.0
 11
7.4083519014999988
 21
4.0308909573999996
 31
0.0
  0
LINE
  5
F3C
  8
0
 10
7.4083519014999988
 20
4.0308909573999996
 30
0.0
 11
7.4083519014999979
 21
3.9658909574000001
 31
0.0
  0
ARC
  5
F3D
  8
0
 10
7.3933519014999982
 20
3.9658909574000001
 30
0.0
 40
0.0150000000000006
 50
270.00000000000671
 51
0.0000000000001018
  0
LINE
  5
F3E
  8
0
 10
7.3933519014999991
 20
3.9508909574
 30
0.0
 11
4.8033519015000001
 21
3.9508909573996949
 31
0.0
  0
ARC
  5
F3F
  8
0
 10
6.9883519014999189
 20
3.8908909574000341
 30
0.0
 40
0.0599999999999184
 50
89.999999999930495
 51
180.0000000029664
  0
LINE
  5
F40
  8
0
 10
6.9283519015000001
 20
3.8908909573969268
 30
0.0
 11
6.9283519015150139
 21
3.6008909573999999
 31
0.0
  0
ARC
  5
F41
  8
0
 10
6.8983519014947783
 20
3.600890957398446
 30
0.0
 40
0.0300000000202365
 50
269.9978162768295
 51
0.0000000029670759
  0
LINE
  5
F42
  8
0
 10
6.8983507580999994
 20
3.5708909574000001
 30
0.0
 11
5.2983537064620867
 21
3.5709519383425028
 31
0.0
  0
LINE
  5
F43
  8
0
 10
6.7771019015
 20
3.5708909574000001
 30
0.0
 11
6.733351901499999
 21
3.527140957399999
 31
0.0
  0
LINE
  5
F44
  8
0
 10
6.733351901499999
 20
3.527140957399999
 30
0.0
 11
6.733351901499999
 21
2.5407437711999989
 31
0.0
  0
ARC
  5
F45
  8
0
 10
6.7933519013976724
 20
2.5407437711999989
 30
0.0
 40
0.0599999998976726
 50
179.9999999999996
 51
224.99999378938909
  0
LINE
  5
F46
  8
0
 10
6.7509254900000002
 20
2.498317369
 30
0.0
 11
6.7695651029459389
 21
2.479677752013155
 31
0.0
  0
ARC
  5
F47
  8
0
 10
6.7483518868561747
 20
2.458464540522229
 30
0.0
 40
0.0300000146438259
 50
0.0000192471139027
 51
44.999993789389187
  0
LINE
  5
F48
  8
0
 10
6.7783519014999989
 20
2.4584645506
 30
0.0
 11
6.7783519880255403
 21
2.2008909574000142
 31
0.0
  0
LINE
  5
F49
  8
0
 10
6.7783519880255403
 20
2.2008909574000142
 30
0.0
 11
5.4183519014999986
 21
2.2008909574000142
 31
0.0
  0
LINE
  5
F90
  8
0
 10
6.7014156714999986
 20
2.2008909574000142
 30
0.0
 11
6.7013586311999989
 21
2.1989558446999991
 31
0.0
  0
LINE
  5
F92
  8
0
 10
6.7013586311999989
 20
2.1989558446999991
 30
0.0
 11
6.7233519015000001
 21
2.1862469866000001
 31
0.0
  0
LINE
  5
F93
  8
0
 10
6.7233519015000001
 20
2.1862469866000001
 30
0.0
 11
6.7233519015000001
 21
2.1855349283000001
 31
0.0
  0
LINE
  5
F94
  8
0
 10
6.7233519015000001
 20
2.1855349283000001
 30
0.0
 11
6.7014190916
 21
2.1728894134000001
 31
0.0
  0
LINE
  5
F95
  8
0
 10
6.7014190916
 20
2.1728894134000001
 30
0.0
 11
6.7013620923000001
 21
2.1689552322000001
 31
0.0
  0
LINE
  5
F96
  8
0
 10
6.7013620923000001
 20
2.1689552322000001
 30
0.0
 11
6.7232993055999994
 21
2.1562879319000001
 31
0.0
  0
LINE
  5
F97
  8
0
 10
6.7232993055999994
 20
2.1562879319000001
 30
0.0
 11
6.7232930601999987
 21
2.1554677433
 31
0.0
  0
LINE
  5
F98
  8
0
 10
6.7232930601999987
 20
2.1554677433
 30
0.0
 11
6.7013668041000001
 21
2.1428232978999988
 31
0.0
  0
LINE
  5
F99
  8
0
 10
6.7013668041000001
 20
2.1428232978999988
 30
0.0
 11
6.7014238744999997
 21
2.1389218328948179
 31
0.0
  0
LINE
  5
F9A
  8
0
 10
6.7014238744999997
 20
2.1389218328948179
 30
0.0
 11
6.7233002018999999
 21
2.1262897916999992
 31
0.0
  0
LINE
  5
F9B
  8
0
 10
6.7233002018999999
 20
2.1262897916999992
 30
0.0
 11
6.7234006649550082
 21
2.125480718082839
 31
0.0
  0
LINE
  5
F9C
  8
0
 10
6.7234006649550082
 20
2.125480718082839
 30
0.0
 11
6.7014296405999989
 21
2.112888687399999
 31
0.0
  0
LINE
  5
F9D
  8
0
 10
6.7014296405999989
 20
2.112888687399999
 30
0.0
 11
6.7014296434
 21
2.108888687399999
 31
0.0
  0
LINE
  5
F9E
  8
0
 10
6.7014296434
 20
2.108888687399999
 30
0.0
 11
6.7233008602000002
 21
2.0962925258
 31
0.0
  0
LINE
  5
F9F
  8
0
 10
6.7233008602000002
 20
2.0962925258
 30
0.0
 11
6.7233008602000011
 21
-1.5941090425999991
 31
0.0
  0
LINE
  5
FA0
  8
0
 10
6.7233008602000011
 20
-1.5941090425999991
 30
0.0
 11
5.4733519015000001
 21
-1.5941090426
 31
0.0
  0
ARC
  5
FA1
  8
0
 10
6.8718124698520811
 20
3.8959113681346631
 30
0.0
 40
0.0554705442700847
 50
97.628657239940324
 51
185.1927109783658
  0
LINE
  5
FA2
  8
0
 10
6.8165695811000004
 20
3.890890957399999
 30
0.0
 11
6.8165695811000004
 21
3.600890957499999
 31
0.0
  0
ARC
  5
FA3
  8
0
 10
6.7869370131856348
 20
3.598699341831519
 30
0.0
 40
0.029713502998431
 50
290.62860788008322
 51
4.2298770364470331
  0
ARC
  5
FA4
  8
0
 10
6.2504719535610489
 20
3.9218937992099141
 30
0.0
 40
0.0295848271854465
 50
101.4390782486724
 51
161.5687866893137
  0
ARC
  5
FA5
  8
0
 10
6.3149712154070814
 20
3.8924239778444698
 30
0.0
 40
0.1003784060502455
 50
157.2462210227155
 51
180.87507881176131
  0
LINE
  5
FA6
  8
0
 10
6.2146045164999988
 20
3.890890957399999
 30
0.0
 11
6.2146045164999997
 21
3.6013081047890592
 31
0.0
  0
ARC
  5
FA7
  8
0
 10
6.1555576042831177
 20
3.5999614821190451
 30
0.0
 40
0.0590622657452587
 50
341.223173105331
 51
1.306459902732255
  0
ARC
  5
FA8
  8
0
 10
6.1911920051758447
 20
3.5877564341305361
 30
0.0
 40
0.0213959200740457
 50
313.66987540800483
 51
341.45183492521198
  0
ARC
  5
FA9
  8
0
 10
6.2017523916464938
 20
3.5776267460380038
 30
0.0
 40
0.0068073776230933
 50
279.73852758948459
 51
308.24075223672787
  0
ARC
  5
FAA
  8
0
 10
5.0658519015000021
 20
7.2708909574000007
 30
0.0
 40
0.0300000000000003
 50
89.999999999999915
 51
248.99999949415681
  0
LINE
  5
FAB
  8
0
 10
5.0551008630139371
 20
7.2428835446049717
 30
0.0
 11
5.2479528110139357
 21
7.1688546176049712
 31
0.0
  0
LINE
  5
FAC
  8
0
 10
5.3458687811139356
 20
6.5526243528049699
 30
0.0
 11
5.3222283292139361
 21
6.6643316933049714
 31
0.0
  0
LINE
  5
FAD
  8
0
 10
5.2863686314139366
 20
7.1159799087049711
 30
0.0
 11
5.301930666113936
 21
6.8190385960049706
 31
0.0
  0
ARC
  5
FAE
  8
0
 10
6.300560200313936
 20
6.8713745629049701
 30
0.0
 40
1.0
 50
183.0000070541999
 51
191.94914592859999
  0
ARC
  5
FAF
  8
0
 10
5.2264508597139372
 20
7.1128397438049697
 30
0.0
 40
0.06
 50
3.000007144299917
 51
69.000128556199925
  0
ARC
  5
FB0
  8
0
 10
5.3605437696139351
 20
6.5557299467049699
 30
0.0
 40
0.015
 50
191.94892082809989
 51
261.59758329020002
  0
LINE
  5
FB1
  8
0
 10
5.4097798390710103
 20
6.5383888806534216
 30
0.0
 11
5.3796702001999988
 21
6.5171186268000012
 31
0.0
  0
LINE
  5
FB2
  8
0
 10
5.3796702001999988
 20
6.5171186268000012
 30
0.0
 11
5.3796702001999988
 21
6.5144811829
 31
0.0
  0
LINE
  5
FB3
  8
0
 10
5.3796702001999988
 20
6.5144811829
 30
0.0
 11
5.4098452795279464
 21
6.4933004542319637
 31
0.0
  0
LINE
  5
FB4
  8
0
 10
5.4098452795279464
 20
6.4933004542319637
 30
0.0
 11
5.3797420856999993
 21
6.472219763
 31
0.0
  0
LINE
  5
FB5
  8
0
 10
5.3797420856999993
 20
6.472219763
 30
0.0
 11
5.379747760299999
 21
6.4693737877000004
 31
0.0
  0
LINE
  5
FB6
  8
0
 10
5.379747760299999
 20
6.4693737877000004
 30
0.0
 11
5.4098770025233947
 21
6.4482972379070844
 31
0.0
  0
LINE
  5
FB7
  8
0
 10
5.4098770025233947
 20
6.4482972379070844
 30
0.0
 11
5.3797397778999994
 21
6.427191671200001
 31
0.0
  0
LINE
  5
FB8
  8
0
 10
5.3797397778999994
 20
6.427191671200001
 30
0.0
 11
5.3796702001999988
 21
6.4244811829000001
 31
0.0
  0
LINE
  5
FB9
  8
0
 10
5.3796702001999988
 20
6.4244811829000001
 30
0.0
 11
5.3847860880999994
 21
6.4208909574000002
 31
0.0
  0
LINE
  5
FC5
  8
0
 10
5.4848253661999991
 20
6.3411339735999981
 30
0.0
 11
5.4848335674377253
 21
6.3384917754835239
 31
0.0
  0
LINE
  5
FC6
  8
0
 10
5.4848335674377253
 20
6.3384917754835239
 30
0.0
 11
5.5205801935782253
 21
6.3171212841983131
 31
0.0
  0
LINE
  5
FC7
  8
0
 10
5.5205801935782253
 20
6.3171212841983131
 30
0.0
 11
5.4848253661999991
 21
6.2961339813999979
 31
0.0
  0
LINE
  5
FC8
  8
0
 10
5.4848253661999991
 20
6.2961339813999979
 30
0.0
 11
5.4848253661999991
 21
6.2934919344999987
 31
0.0
  0
LINE
  5
FC9
  8
0
 10
5.4848253661999991
 20
6.2934919344999987
 30
0.0
 11
5.5205826112778711
 21
6.272111656539991
 31
0.0
  0
LINE
  5
FCA
  8
0
 10
5.5205826112778711
 20
6.272111656539991
 30
0.0
 11
5.4848253661999991
 21
6.251133981399998
 31
0.0
  0
LINE
  5
FCB
  8
0
 10
5.4848253661999991
 20
6.251133981399998
 30
0.0
 11
5.484825366197998
 21
6.2484967180753319
 31
0.0
  0
LINE
  5
FCC
  8
0
 10
5.484825366197998
 20
6.2484967180753319
 30
0.0
 11
5.520580193614788
 21
6.227121284251945
 31
0.0
  0
LINE
  5
FCD
  8
0
 10
5.520580193614788
 20
6.227121284251945
 30
0.0
 11
5.4848253661999991
 21
6.2061339813999981
 31
0.0
  0
LINE
  5
FCE
  8
0
 10
5.4848253661999991
 20
6.2061339813999981
 30
0.0
 11
5.4848253661999991
 21
6.203491935099998
 31
0.0
  0
LINE
  5
FCF
  8
0
 10
5.4848253661999991
 20
6.203491935099998
 30
0.0
 11
5.5205801936235552
 21
6.1821212842600968
 31
0.0
  0
LINE
  5
FD0
  8
0
 10
5.5205801936235552
 20
6.1821212842600968
 30
0.0
 11
5.4848252786558804
 21
6.1611289459405834
 31
0.0
  0
LINE
  5
FD1
  8
0
 10
5.4848252786558804
 20
6.1611289459405834
 30
0.0
 11
5.4848253661999991
 21
6.1584967180999994
 31
0.0
  0
LINE
  5
FD2
  8
0
 10
5.4848253661999991
 20
6.1584967180999994
 30
0.0
 11
5.5205791336060113
 21
6.1371179815185011
 31
0.0
  0
LINE
  5
FD3
  8
0
 10
5.5205791336060113
 20
6.1371179815185011
 30
0.0
 11
5.484828484428137
 21
6.1161358263131822
 31
0.0
  0
LINE
  5
FD4
  8
0
 10
5.484828484428137
 20
6.1161358263131822
 30
0.0
 11
5.4848253661999991
 21
6.1134919346999981
 31
0.0
  0
LINE
  5
FD5
  8
0
 10
5.4848253661999991
 20
6.1134919346999981
 30
0.0
 11
5.5205801936563681
 21
6.0921212842486572
 31
0.0
  0
LINE
  5
FD6
  8
0
 10
5.5205801936563681
 20
6.0921212842486572
 30
0.0
 11
5.4848333811397652
 21
6.0711387234738234
 31
0.0
  0
LINE
  5
FD7
  8
0
 10
5.4848333811397652
 20
6.0711387234738234
 30
0.0
 11
5.4848253661999991
 21
6.0684967180999987
 31
0.0
  0
LINE
  5
FD8
  8
0
 10
5.4848253661999991
 20
6.0684967180999987
 30
0.0
 11
5.5205863497341374
 21
6.0471048838980721
 31
0.0
  0
LINE
  5
FE4
  8
0
 10
5.3919345392999993
 20
5.9208909574000002
 30
0.0
 11
5.4097831914932746
 21
5.9083901841410214
 31
0.0
  0
LINE
  5
FE5
  8
0
 10
5.409793200767206
 20
5.9083684527792277
 30
0.0
 11
5.3796019015000001
 21
5.8871858409642508
 31
0.0
  0
LINE
  5
FE6
  8
0
 10
5.3796019015000001
 20
5.8871858409642508
 30
0.0
 11
5.3796019015000001
 21
5.8845483970642496
 31
0.0
  0
LINE
  5
FE7
  8
0
 10
5.3796019015000001
 20
5.8845483970642496
 30
0.0
 11
5.4099317066000001
 21
5.8634715786642513
 31
0.0
  0
LINE
  5
FE8
  8
0
 10
5.4099317066000001
 20
5.8634715786642513
 30
0.0
 11
5.3796709897000001
 21
5.842280467564251
 31
0.0
  0
LINE
  5
FE9
  8
0
 10
5.3796709897000001
 20
5.842280467564251
 30
0.0
 11
5.3796019015000001
 21
5.8395483970642497
 31
0.0
  0
LINE
  5
FEA
  8
0
 10
5.3796019015000001
 20
5.8395483970642497
 30
0.0
 11
5.4098109102992451
 21
5.8183694908739971
 31
0.0
  0
LINE
  5
FEB
  8
0
 10
5.4098109102992451
 20
5.8183694908739971
 30
0.0
 11
5.3796788189999996
 21
5.7972674514642506
 31
0.0
  0
LINE
  5
FEC
  8
0
 10
5.3796788189999996
 20
5.7972674514642506
 30
0.0
 11
5.3796019015000001
 21
5.7945483970642497
 31
0.0
  0
LINE
  5
FED
  8
0
 10
5.3796019015000001
 20
5.7945483970642497
 30
0.0
 11
5.4098170332887872
 21
5.7733663302828058
 31
0.0
  0
LINE
  5
FEE
  8
0
 10
5.4098170332887872
 20
5.7733663302828058
 30
0.0
 11
5.3804073066000004
 21
5.7527699843150772
 31
0.0
  0
LINE
  5
FEF
  8
0
 10
5.3804073066000004
 20
5.7527699843150772
 30
0.0
 11
5.379640801799999
 21
5.7494957078142512
 31
0.0
  0
LINE
  5
FF0
  8
0
 10
5.379640801799999
 20
5.7494957078142512
 30
0.0
 11
5.4098014321963737
 21
5.7283638728330333
 31
0.0
  0
LINE
  5
FF1
  8
0
 10
5.4098014321963737
 20
5.7283638728330333
 30
0.0
 11
5.379670388700001
 21
5.7072628663642506
 31
0.0
  0
LINE
  5
FF2
  8
0
 10
5.379670388700001
 20
5.7072628663642506
 30
0.0
 11
5.3796019015000001
 21
5.7045483970642499
 31
0.0
  0
LINE
  5
FF3
  8
0
 10
5.3796019015000001
 20
5.7045483970642499
 30
0.0
 11
5.4097798388274558
 21
5.683365041977436
 31
0.0
  0
LINE
  5
FF4
  8
0
 10
5.4097798388274558
 20
5.683365041977436
 30
0.0
 11
5.3796019015000001
 21
5.662185840964252
 31
0.0
  0
LINE
  5
FF5
  8
0
 10
5.3796019015000001
 20
5.662185840964252
 30
0.0
 11
5.3796019015000001
 21
5.6595483970642499
 31
0.0
  0
LINE
  5
FF6
  8
0
 10
5.3796019015000001
 20
5.6595483970642499
 30
0.0
 11
5.4097809347166184
 21
5.6383694000331701
 31
0.0
  0
LINE
  5
FF7
  8
0
 10
5.4097809347166184
 20
5.6383694000331701
 30
0.0
 11
5.3796770063999997
 21
5.6172880518642501
 31
0.0
  0
LINE
  5
FF8
  8
0
 10
5.3796770063999997
 20
5.6172880518642501
 30
0.0
 11
5.4098113539818611
 21
5.5933654741252674
 31
0.0
  0
LINE
  5
FF9
  8
0
 10
5.4098113539818611
 20
5.5933654741252674
 30
0.0
 11
5.3796730945000002
 21
5.5722590965642498
 31
0.0
  0
LINE
  5
FFA
  8
0
 10
5.3796730945000002
 20
5.5722590965642498
 30
0.0
 11
5.3796019015000001
 21
5.5695483970642501
 31
0.0
  0
LINE
  5
FFB
  8
0
 10
5.3796019015000001
 20
5.5695483970642501
 30
0.0
 11
5.4097820962596179
 21
5.5482541139642487
 31
0.0
  0
LINE
  5
FFC
  8
0
 10
5.4097820962596179
 20
5.5482541139642487
 30
0.0
 11
5.3796019015000001
 21
5.5271858409642514
 31
0.0
  0
LINE
  5
FFD
  8
0
 10
5.3796019015000001
 20
5.5271858409642514
 30
0.0
 11
5.3796019015000001
 21
5.5245483970642502
 31
0.0
  0
LINE
  5
FFE
  8
0
 10
5.3796019015000001
 20
5.5245483970642502
 30
0.0
 11
5.4098104850379301
 21
5.5033652785237397
 31
0.0
  0
LINE
  5
FFF
  8
0
 10
5.4098104850379301
 20
5.5033652785237397
 30
0.0
 11
5.3796019015000001
 21
5.4822096794000004
 31
0.0
  0
LINE
  5
1000
  8
0
 10
5.3796019015000001
 20
5.4822096794000004
 30
0.0
 11
5.3796019015000001
 21
5.4795483970642502
 31
0.0
  0
LINE
  5
1001
  8
0
 10
5.3796019015000001
 20
5.4795483970642502
 30
0.0
 11
5.4097833483034714
 21
5.4583936185199491
 31
0.0
  0
LINE
  5
1034
  8
0
 10
5.3847860880999994
 20
6.4208909574000002
 30
0.0
 11
5.4488346479999992
 21
6.4208909574000002
 31
0.0
  0
ARC
  5
1035
  8
0
 10
5.4390897961195064
 20
6.3245343418027931
 30
0.0
 40
0.0968481259886875
 50
70.767261286435243
 51
84.225129957493394
  0
ARC
  5
1036
  8
0
 10
5.3418166816196528
 20
6.0210926511453877
 30
0.0
 40
0.4154757769174949
 50
68.25122935330927
 51
71.885932518946461
  0
ARC
  5
1037
  8
0
 10
5.3824475859859087
 20
6.5019818935984288
 30
0.0
 40
0.1478641450797886
 50
308.2938213105943
 51
320.0289131594526
  0
LINE
  5
1038
  8
0
 10
5.4740781685204007
 20
6.3859317245138181
 30
0.0
 11
5.4751963988072223
 21
6.3833082666138914
 31
0.0
  0
LINE
  5
1039
  8
0
 10
5.4751963988072223
 20
6.3833082666138914
 30
0.0
 11
5.5172673012000004
 21
6.3624455207999997
 31
0.0
  0
LINE
  5
103A
  8
0
 10
5.5205863497341374
 20
6.0471048838980721
 30
0.0
 11
5.4848395372175336
 21
6.0261223231232393
 31
0.0
  0
LINE
  5
103B
  8
0
 10
5.4848395372175336
 20
6.0261223231232393
 30
0.0
 11
5.4848315222777684
 21
6.0234803177494154
 31
0.0
  0
LINE
  5
103C
  8
0
 10
5.4848315222777684
 20
6.0234803177494154
 30
0.0
 11
5.5206846571779913
 21
6.0025108584262172
 31
0.0
  0
LINE
  5
103D
  8
0
 10
5.5206846571779913
 20
6.0025108584262172
 30
0.0
 11
5.4821056383000002
 21
5.9810865901999994
 31
0.0
  0
LINE
  5
103E
  8
0
 10
5.4821056383000002
 20
5.9810865901999994
 30
0.0
 11
5.4815193156773176
 21
5.9784328251159016
 31
0.0
  0
LINE
  5
103F
  8
0
 10
5.4815193156773176
 20
5.9784328251159016
 30
0.0
 11
5.509828815852674
 21
5.9573006727705247
 31
0.0
  0
LINE
  5
1040
  8
0
 10
5.5098288158526811
 20
5.9573006727705211
 30
0.0
 11
5.4621701653278043
 21
5.9356874704085651
 31
0.0
  0
LINE
  5
1041
  8
0
 10
5.4621701653278043
 20
5.9356874704085651
 30
0.0
 11
5.4598732064174653
 21
5.932989402316843
 31
0.0
  0
ARC
  5
1042
  8
0
 10
5.44142369276459
 20
5.9195117476956547
 30
0.0
 40
0.0228480136579887
 50
21.617000412990471
 51
36.148705284731349
  0
ARC
  5
1043
  8
0
 10
5.4568828125497797
 20
5.9252801716271737
 30
0.0
 40
0.0063597812099009
 50
349.81838402117972
 51
24.613267911381431
  0
ARC
  5
1044
  8
0
 10
5.4590676773662414
 20
5.9253741410463823
 30
0.0
 40
0.0042529607219198
 50
275.17790027861281
 51
343.35557479559651
  0
ARC
  5
1045
  8
0
 10
5.4569064412206574
 20
5.9340290116936227
 30
0.0
 40
0.0131393190176611
 50
269.20502664682681
 51
281.1686718985431
  0
LINE
  5
1046
  8
0
 10
5.4567241402999986
 20
5.9208909574000002
 30
0.0
 11
5.3919345392999993
 21
5.9208909574000002
 31
0.0
  0
LINE
  5
1047
  8
0
 10
5.4097798390709464
 20
6.5383888806533772
 30
0.0
 11
5.4062069134357014
 21
6.5408909541049702
 31
0.0
  0
LINE
  5
1048
  8
0
 10
5.3919811005374969
 20
4.9508909574000004
 30
0.0
 11
5.3796019015000001
 21
4.9422096794000003
 31
0.0
  0
LINE
  5
1049
  8
0
 10
5.3796019015000001
 20
4.9422096794000003
 30
0.0
 11
5.3795297306999998
 21
4.9394815042999998
 31
0.0
  0
LINE
  5
104A
  8
0
 10
5.3795297306999998
 20
4.9394815042999998
 30
0.0
 11
5.4097210299672058
 21
4.9182907965149782
 31
0.0
  0
LINE
  5
104B
  8
0
 10
5.4097210299672058
 20
4.9182907965149782
 30
0.0
 11
5.3795297306999998
 21
4.8971081847000013
 31
0.0
  0
LINE
  5
104C
  8
0
 10
5.3795297306999998
 20
4.8971081847000013
 30
0.0
 11
5.3795297306999998
 21
4.8944707408000001
 31
0.0
  0
LINE
  5
104D
  8
0
 10
5.3795297306999998
 20
4.8944707408000001
 30
0.0
 11
5.4098595357999999
 21
4.8733939224
 31
0.0
  0
LINE
  5
104E
  8
0
 10
5.4098595357999999
 20
4.8733939224
 30
0.0
 11
5.3795988188999999
 21
4.8522028112999998
 31
0.0
  0
LINE
  5
104F
  8
0
 10
5.3795988188999999
 20
4.8522028112999998
 30
0.0
 11
5.3795297306999998
 21
4.8494707408000002
 31
0.0
  0
LINE
  5
1050
  8
0
 10
5.3795297306999998
 20
4.8494707408000002
 30
0.0
 11
5.4097387394992458
 21
4.8282918346097459
 31
0.0
  0
LINE
  5
1051
  8
0
 10
5.4097387394992458
 20
4.8282918346097459
 30
0.0
 11
5.3796066482000011
 21
4.8071897952000011
 31
0.0
  0
LINE
  5
1052
  8
0
 10
5.3796066482000011
 20
4.8071897952000011
 30
0.0
 11
5.3795297306999998
 21
4.8044707408000003
 31
0.0
  0
LINE
  5
1053
  8
0
 10
5.3795297306999998
 20
4.8044707408000003
 30
0.0
 11
5.4097448624887869
 21
4.7832886740185563
 31
0.0
  0
LINE
  5
1054
  8
0
 10
5.4097448624887869
 20
4.7832886740185563
 30
0.0
 11
5.3803351358000011
 21
4.762692328050826
 31
0.0
  0
LINE
  5
1055
  8
0
 10
5.3803351358000011
 20
4.762692328050826
 30
0.0
 11
5.3795686309999997
 21
4.75941805155
 31
0.0
  0
LINE
  5
1056
  8
0
 10
5.3795686309999997
 20
4.75941805155
 30
0.0
 11
5.4097292613963752
 21
4.738286216568782
 31
0.0
  0
LINE
  5
1057
  8
0
 10
5.4097292613963752
 20
4.738286216568782
 30
0.0
 11
5.3795982179000008
 21
4.7171852101000011
 31
0.0
  0
LINE
  5
1058
  8
0
 10
5.3795982179000008
 20
4.7171852101000011
 30
0.0
 11
5.3795297306999998
 21
4.7144707408000004
 31
0.0
  0
LINE
  5
1059
  8
0
 10
5.3795297306999998
 20
4.7144707408000004
 30
0.0
 11
5.4097076680274574
 21
4.6932873857131856
 31
0.0
  0
LINE
  5
105A
  8
0
 10
5.4097076680274574
 20
4.6932873857131856
 30
0.0
 11
5.379529730699999
 21
4.6721081847000008
 31
0.0
  0
LINE
  5
105B
  8
0
 10
5.379529730699999
 20
4.6721081847000008
 30
0.0
 11
5.379529730699999
 21
4.6694707407999996
 31
0.0
  0
LINE
  5
105C
  8
0
 10
5.379529730699999
 20
4.6694707407999996
 30
0.0
 11
5.4097087639166181
 21
4.6482917437689197
 31
0.0
  0
LINE
  5
105D
  8
0
 10
5.4097087639166181
 20
4.6482917437689197
 30
0.0
 11
5.3796048356000004
 21
4.6272103955999997
 31
0.0
  0
LINE
  5
105E
  8
0
 10
5.3796048356000004
 20
4.6272103955999997
 30
0.0
 11
5.4097391831818609
 21
4.603287817861017
 31
0.0
  0
LINE
  5
105F
  8
0
 10
5.4097391831818609
 20
4.603287817861017
 30
0.0
 11
5.3796009236999991
 21
4.5821814403000003
 31
0.0
  0
LINE
  5
1060
  8
0
 10
5.3796009236999991
 20
4.5821814403000003
 30
0.0
 11
5.379529730699999
 21
4.5794707407999997
 31
0.0
  0
LINE
  5
1061
  8
0
 10
5.379529730699999
 20
4.5794707407999997
 30
0.0
 11
5.4097099254596177
 21
4.5581764576999992
 31
0.0
  0
LINE
  5
1062
  8
0
 10
5.4097099254596177
 20
4.5581764576999992
 30
0.0
 11
5.379529730699999
 21
4.5371081847000001
 31
0.0
  0
LINE
  5
1063
  8
0
 10
5.379529730699999
 20
4.5371081847000001
 30
0.0
 11
5.379529730699999
 21
4.5344707407999989
 31
0.0
  0
LINE
  5
1064
  8
0
 10
5.379529730699999
 20
4.5344707407999989
 30
0.0
 11
5.4097383142379298
 21
4.5132876222594902
 31
0.0
  0
LINE
  5
1065
  8
0
 10
5.4097383142379298
 20
4.5132876222594902
 30
0.0
 11
5.379529730699999
 21
4.4921320231357491
 31
0.0
  0
LINE
  5
1066
  8
0
 10
5.379529730699999
 20
4.4921320231357491
 30
0.0
 11
5.379529730699999
 21
4.489470740799999
 31
0.0
  0
LINE
  5
1067
  8
0
 10
5.379529730699999
 20
4.489470740799999
 30
0.0
 11
5.4099666044000001
 21
4.4682831525999989
 31
0.0
  0
LINE
  5
1068
  8
0
 10
5.4065123167547631
 20
4.4208909574000002
 30
0.0
 11
5.3796740272999983
 21
4.4022827735999996
 31
0.0
  0
LINE
  5
1069
  8
0
 10
5.3796740272999983
 20
4.4022827735999996
 30
0.0
 11
5.379601856499999
 21
4.3995545985
 31
0.0
  0
LINE
  5
106A
  8
0
 10
5.379601856499999
 20
4.3995545985
 30
0.0
 11
5.4097931557672041
 21
4.3783638907149776
 31
0.0
  0
LINE
  5
106B
  8
0
 10
5.4097931557672041
 20
4.3783638907149776
 30
0.0
 11
5.379601856499999
 21
4.3571812789000006
 31
0.0
  0
LINE
  5
106C
  8
0
 10
5.379601856499999
 20
4.3571812789000006
 30
0.0
 11
5.379601856499999
 21
4.3545438350000003
 31
0.0
  0
LINE
  5
106D
  8
0
 10
5.379601856499999
 20
4.3545438350000003
 30
0.0
 11
5.4099316615999991
 21
4.3334670166000011
 31
0.0
  0
LINE
  5
106E
  8
0
 10
5.4099316615999991
 20
4.3334670166000011
 30
0.0
 11
5.3796709446999991
 21
4.3122759055
 31
0.0
  0
LINE
  5
106F
  8
0
 10
5.3796709446999991
 20
4.3122759055
 30
0.0
 11
5.379601856499999
 21
4.3095438350000004
 31
0.0
  0
LINE
  5
1070
  8
0
 10
5.379601856499999
 20
4.3095438350000004
 30
0.0
 11
5.409810865299244
 21
4.2883649288097461
 31
0.0
  0
LINE
  5
1071
  8
0
 10
5.409810865299244
 20
4.2883649288097461
 30
0.0
 11
5.3796787739999994
 21
4.2672628894000013
 31
0.0
  0
LINE
  5
1072
  8
0
 10
5.3796787739999994
 20
4.2672628894000013
 30
0.0
 11
5.379601856499999
 21
4.2645438349999996
 31
0.0
  0
LINE
  5
1073
  8
0
 10
5.379601856499999
 20
4.2645438349999996
 30
0.0
 11
5.4098169882887861
 21
4.2433617682185556
 31
0.0
  0
LINE
  5
1074
  8
0
 10
5.4098169882887861
 20
4.2433617682185556
 30
0.0
 11
5.3804072615999994
 21
4.2227654222508271
 31
0.0
  0
LINE
  5
1075
  8
0
 10
5.3804072615999994
 20
4.2227654222508271
 30
0.0
 11
5.379640756799998
 21
4.2194911457500011
 31
0.0
  0
LINE
  5
1076
  8
0
 10
5.379640756799998
 20
4.2194911457500011
 30
0.0
 11
5.4098013871963726
 21
4.1983593107687831
 31
0.0
  0
LINE
  5
1077
  8
0
 10
5.4098013871963726
 20
4.1983593107687831
 30
0.0
 11
5.3796703436999991
 21
4.1772583043000013
 31
0.0
  0
LINE
  5
1078
  8
0
 10
5.3796703436999991
 20
4.1772583043000013
 30
0.0
 11
5.379601856499999
 21
4.1745438349999997
 31
0.0
  0
LINE
  5
1079
  8
0
 10
5.379601856499999
 20
4.1745438349999997
 30
0.0
 11
5.4097797938274548
 21
4.1533604799131858
 31
0.0
  0
LINE
  5
107A
  8
0
 10
5.4097797938274548
 20
4.1533604799131858
 30
0.0
 11
5.379601856499999
 21
4.132181278900001
 31
0.0
  0
LINE
  5
107B
  8
0
 10
5.379601856499999
 20
4.132181278900001
 30
0.0
 11
5.379601856499999
 21
4.1295438349999998
 31
0.0
  0
LINE
  5
107C
  8
0
 10
5.379601856499999
 20
4.1295438349999998
 30
0.0
 11
5.4097808897166173
 21
4.1083648379689199
 31
0.0
  0
LINE
  5
107D
  8
0
 10
5.4097808897166173
 20
4.1083648379689199
 30
0.0
 11
5.3796769613999986
 21
4.0872834897999999
 31
0.0
  0
LINE
  5
107E
  8
0
 10
5.3796769613999986
 20
4.0872834897999999
 30
0.0
 11
5.40981130898186
 21
4.0633609120610172
 31
0.0
  0
LINE
  5
107F
  8
0
 10
5.40981130898186
 20
4.0633609120610172
 30
0.0
 11
5.379731545532537
 21
4.0423429723215021
 31
0.0
  0
LINE
  5
1082
  8
0
 10
5.3797315455340797
 20
4.0423429723225812
 30
0.0
 11
5.3796019015000001
 21
4.0395722354999997
 31
0.0
  0
LINE
  5
1083
  8
0
 10
5.3796019015000001
 20
4.0395722354999997
 30
0.0
 11
5.3919638692999987
 21
4.0308909573999996
 31
0.0
  0
LINE
  5
1084
  8
0
 10
5.4848250579999993
 20
6.3411385809
 30
0.0
 11
5.5172672978774058
 21
6.3624455224476568
 31
0.0
  0
LINE
  5
1085
  8
0
 10
6.7869268221720533
 20
6.5158915068319629
 30
0.0
 11
5.4098452795279464
 21
6.4933004542319637
 31
0.0
  0
LINE
  5
1086
  8
0
 10
5.4098770025233947
 20
6.4482972379070844
 30
0.0
 11
6.7868950991766042
 21
6.4708882905070828
 31
0.0
  0
LINE
  5
1087
  8
0
 10
6.6837948209145814
 20
6.3769217214288663
 30
0.0
 11
6.4622613568075931
 21
6.374172568542134
 31
0.0
  0
LINE
  5
1088
  8
0
 10
6.6757625264799163
 20
6.3317486867418182
 30
0.0
 11
6.4733519014999992
 21
6.329185678629301
 31
0.0
  0
LINE
  5
1089
  8
0
 10
6.6757663513217729
 20
6.2867659231983151
 30
0.0
 11
6.4733519014999992
 21
6.2841981625725696
 31
0.0
  0
LINE
  5
108A
  8
0
 10
5.520580193614788
 20
6.227121284251945
 30
0.0
 11
5.7233519015000001
 21
6.2296901969980496
 31
0.0
  0
LINE
  5
108B
  8
0
 10
6.675766351285211
 20
6.1967659232519461
 30
0.0
 11
6.4733519014999983
 21
6.1941998549830544
 31
0.0
  0
LINE
  5
108C
  8
0
 10
5.5205791336060113
 20
6.1371179815185011
 30
0.0
 11
5.7233519014999992
 21
6.1396891696735114
 31
0.0
  0
LINE
  5
108D
  8
0
 10
6.6757674112939869
 20
6.1067626205185022
 30
0.0
 11
6.4733519014999992
 21
6.1041971198794061
 31
0.0
  0
LINE
  5
108E
  8
0
 10
5.5205863497341374
 20
6.0471048838980721
 30
0.0
 11
5.7233519015000001
 21
6.0496782955997102
 31
0.0
  0
LINE
  5
108F
  8
0
 10
6.6757601951658607
 20
6.0167495228980741
 30
0.0
 11
6.4733519014999992
 21
6.0142544273956187
 31
0.0
  0
LINE
  5
1090
  8
0
 10
5.509828815852674
 20
5.9573006727705247
 30
0.0
 11
5.7390190610009686
 21
5.9601501570185942
 31
0.0
  0
LINE
  5
1091
  8
0
 10
6.7086401156999811
 20
5.9274378977000088
 30
0.0
 11
6.4024591450145989
 21
5.92294260184247
 31
0.0
  0
LINE
  5
1092
  8
0
 10
6.7869106022327941
 20
5.8858922912149767
 30
0.0
 11
5.4099317066000001
 21
5.8634715786642513
 31
0.0
  0
LINE
  5
1093
  8
0
 10
5.4098109102992451
 20
5.8183694908739971
 30
0.0
 11
6.7867720964
 21
5.8409954171000003
 31
0.0
  0
LINE
  5
1094
  8
0
 10
6.7868928927007541
 20
5.7958933293097461
 30
0.0
 11
5.4098170332887872
 21
5.7733663302828058
 31
0.0
  0
LINE
  5
1095
  8
0
 10
5.4098014321963737
 20
5.7283638728330333
 30
0.0
 11
6.7868867697112121
 21
5.7508901687185547
 31
0.0
  0
LINE
  5
1096
  8
0
 10
6.7869023708036247
 20
5.7058877112687822
 30
0.0
 11
5.4097798388274558
 21
5.683365041977436
 31
0.0
  0
LINE
  5
1097
  8
0
 10
5.4097809347166184
 20
5.6383694000331701
 30
0.0
 11
6.7869239641725434
 21
5.6608888804131849
 31
0.0
  0
LINE
  5
1098
  8
0
 10
6.7869228682833809
 20
5.6158932384689191
 30
0.0
 11
5.4098113539818611
 21
5.5933654741252674
 31
0.0
  0
LINE
  5
1099
  8
0
 10
5.4097820962596179
 20
5.5482541139642487
 30
0.0
 11
6.7868924490181382
 21
5.5708893125610164
 31
0.0
  0
LINE
  5
109A
  8
0
 10
6.7869217067403813
 20
5.5257779523999977
 30
0.0
 11
5.4098104850379301
 21
5.5033652785237397
 31
0.0
  0
LINE
  5
109B
  8
0
 10
6.7868933179620692
 20
5.4808891169594887
 30
0.0
 11
5.4097833483034714
 21
5.4583936185199491
 31
0.0
  0
LINE
  5
109C
  8
0
 10
5.4097833483043702
 20
5.4583936185193176
 30
0.0
 11
5.3990697043999996
 21
5.4508909574000004
 31
0.0
  0
LINE
  5
109D
  8
0
 10
5.384826413499999
 20
4.4508909574000004
 30
0.0
 11
5.4099666044000001
 21
4.4682831525999989
 31
0.0
  0
LINE
  5
109E
  8
0
 10
6.786902351915078
 20
4.940888003185516
 30
0.0
 11
5.4097210299672058
 21
4.9182907965149782
 31
0.0
  0
LINE
  5
109F
  8
0
 10
6.7869827730327934
 20
4.8957907965149783
 30
0.0
 11
5.4098595357999999
 21
4.8733939224
 31
0.0
  0
LINE
  5
10A0
  8
0
 10
6.7868442671999993
 20
4.8508939224000001
 30
0.0
 11
5.4097387394992458
 21
4.8282918346097459
 31
0.0
  0
LINE
  5
10A1
  8
0
 10
6.7869650635007526
 20
4.8057918346097459
 30
0.0
 11
5.4097448624887869
 21
4.7832886740185563
 31
0.0
  0
LINE
  5
10A2
  8
0
 10
6.7869589405112123
 20
4.7607886740185563
 30
0.0
 11
5.4097292613963752
 21
4.738286216568782
 31
0.0
  0
LINE
  5
10A3
  8
0
 10
6.786974541603624
 20
4.7157862165687821
 30
0.0
 11
5.4097076680274574
 21
4.6932873857131856
 31
0.0
  0
LINE
  5
10A4
  8
0
 10
6.7869961349725418
 20
4.6707873857131856
 30
0.0
 11
5.4097087639166181
 21
4.6482917437689197
 31
0.0
  0
LINE
  5
10A5
  8
0
 10
6.7869950390833811
 20
4.6257917437689198
 30
0.0
 11
5.4097391831818609
 21
4.603287817861017
 31
0.0
  0
LINE
  5
10A6
  8
0
 10
5.4097099254596177
 20
4.5581764576999992
 30
0.0
 11
6.7869646198181366
 21
4.5807878178610171
 31
0.0
  0
LINE
  5
10A7
  8
0
 10
6.7869938775403797
 20
4.5356764576999993
 30
0.0
 11
5.4097383142379298
 21
4.5132876222594902
 31
0.0
  0
LINE
  5
10A8
  8
0
 10
5.4099666044000001
 20
4.4682831525999989
 30
0.0
 11
6.7869654887620676
 21
4.4907876222594902
 31
0.0
  0
LINE
  5
10A9
  8
0
 10
6.7867553839000001
 20
4.4007733604999988
 30
0.0
 11
5.4097931557672041
 21
4.3783638907149776
 31
0.0
  0
LINE
  5
10AA
  8
0
 10
6.7869106472327942
 20
4.3558638907149776
 30
0.0
 11
5.4099316615999991
 21
4.3334670166000011
 31
0.0
  0
LINE
  5
10AB
  8
0
 10
5.409810865299244
 20
4.2883649288097461
 30
0.0
 11
6.7867721414000002
 21
4.3109670166000011
 31
0.0
  0
LINE
  5
10AC
  8
0
 10
6.7868929377007543
 20
4.2658649288097461
 30
0.0
 11
5.4098169882887861
 21
4.2433617682185556
 31
0.0
  0
LINE
  5
10AD
  8
0
 10
5.4098013871963726
 20
4.1983593107687831
 30
0.0
 11
6.7868868147112131
 21
4.2208617682185556
 31
0.0
  0
LINE
  5
10AE
  8
0
 10
6.7869024158036249
 20
4.1758593107687831
 30
0.0
 11
5.4097797938274548
 21
4.1533604799131858
 31
0.0
  0
LINE
  5
10AF
  8
0
 10
5.4097808897166173
 20
4.1083648379689199
 30
0.0
 11
6.7869240091725427
 21
4.1308604799131858
 31
0.0
  0
LINE
  5
10B0
  8
0
 10
6.786922913283381
 20
4.08586483796892
 30
0.0
 11
5.40981130898186
 21
4.0633609120610172
 31
0.0
  0
ARC
  5
10B4
  8
0
 10
5.2083519015000803
 20
3.8908909574000341
 30
0.0
 40
0.0599999999999184
 50
359.99999999703363
 51
90.000000000069505
  0
LINE
  5
10B5
  8
0
 10
5.2683519014999991
 20
3.8908909573969268
 30
0.0
 11
5.2683519014849853
 21
3.6008909573999999
 31
0.0
  0
ARC
  5
10B6
  8
0
 10
5.298351901505221
 20
3.600890957398446
 30
0.0
 40
0.0300000000202365
 50
179.99999999703289
 51
270.0021837231705
  0
LINE
  5
10B7
  8
0
 10
5.4196019015000001
 20
3.5708909574000001
 30
0.0
 11
5.4633519015000003
 21
3.527140957399999
 31
0.0
  0
LINE
  5
10B8
  8
0
 10
5.4633519015000003
 20
3.527140957399999
 30
0.0
 11
5.4633519015000003
 21
2.5407437711999989
 31
0.0
  0
ARC
  5
10B9
  8
0
 10
5.4033519016023268
 20
2.5407437711999989
 30
0.0
 40
0.0599999998976726
 50
315.00000621061088
 51
0.0000000000004141
  0
LINE
  5
10BA
  8
0
 10
5.445778312999999
 20
2.498317369
 30
0.0
 11
5.4271387000540603
 21
2.479677752013155
 31
0.0
  0
ARC
  5
10BB
  8
0
 10
5.4483519161438236
 20
2.458464540522229
 30
0.0
 40
0.0300000146438259
 50
135.00000621061079
 51
179.9999807528861
  0
LINE
  5
10BC
  8
0
 10
5.4183519015000003
 20
2.4584645506
 30
0.0
 11
5.4183518149744589
 21
2.2008909574000142
 31
0.0
  0
LINE
  5
10BF
  8
0
 10
5.4733858680080854
 20
2.2008909573999991
 30
0.0
 11
5.4733858680080854
 21
2.2005529064952789
 31
0.0
  0
LINE
  5
10C0
  8
0
 10
5.4733858680080854
 20
2.2005529064952789
 30
0.0
 11
5.4953186779080854
 21
2.1879073915952789
 31
0.0
  0
LINE
  5
10C1
  8
0
 10
5.4953186779080854
 20
2.1879073915952789
 30
0.0
 11
5.4953756772080853
 21
2.1839732103952789
 31
0.0
  0
LINE
  5
10C2
  8
0
 10
5.4953756772080853
 20
2.1839732103952789
 30
0.0
 11
5.4734384639080851
 21
2.171305910095279
 31
0.0
  0
LINE
  5
10C3
  8
0
 10
5.4734384639080851
 20
2.171305910095279
 30
0.0
 11
5.4734447093080849
 21
2.1704857214952789
 31
0.0
  0
LINE
  5
10C4
  8
0
 10
5.4734447093080849
 20
2.1704857214952789
 30
0.0
 11
5.4953709654080853
 21
2.1578412760952781
 31
0.0
  0
LINE
  5
10C5
  8
0
 10
5.4953709654080853
 20
2.1578412760952781
 30
0.0
 11
5.495313895008084
 21
2.153939811090098
 31
0.0
  0
LINE
  5
10C6
  8
0
 10
5.495313895008084
 20
2.153939811090098
 30
0.0
 11
5.4734375676080838
 21
2.141307769895278
 31
0.0
  0
LINE
  5
10C7
  8
0
 10
5.4734375676080838
 20
2.141307769895278
 30
0.0
 11
5.4733371045530772
 21
2.1404986962781178
 31
0.0
  0
LINE
  5
10C8
  8
0
 10
5.4733371045530772
 20
2.1404986962781178
 30
0.0
 11
5.4953081289080847
 21
2.1279066655952792
 31
0.0
  0
LINE
  5
10C9
  8
0
 10
5.4953081289080847
 20
2.1279066655952792
 30
0.0
 11
5.4953081261080854
 21
2.1239066655952792
 31
0.0
  0
LINE
  5
10CA
  8
0
 10
5.4953081261080854
 20
2.1239066655952792
 30
0.0
 11
5.4734369093080852
 21
2.1113105039952789
 31
0.0
  0
LINE
  5
10CB
  8
0
 10
5.4734369093080852
 20
2.1113105039952789
 30
0.0
 11
5.4734029427999991
 21
-1.5941090425999991
 31
0.0
  0
ARC
  5
10CC
  8
0
 10
5.3248913331479191
 20
3.8959113681346631
 30
0.0
 40
0.0554705442700847
 50
354.80728902163418
 51
82.371342760059648
  0
LINE
  5
10CD
  8
0
 10
5.3801342218999988
 20
3.890890957399999
 30
0.0
 11
5.3801342218999988
 21
3.600890957499999
 31
0.0
  0
ARC
  5
10CE
  8
0
 10
5.4097667898143644
 20
3.598699341831519
 30
0.0
 40
0.029713502998431
 50
175.77012296355301
 51
249.37139211991669
  0
ARC
  5
10CF
  8
0
 10
5.9462318494389503
 20
3.9218937992099141
 30
0.0
 40
0.0295848271854465
 50
18.431213310686331
 51
78.560921751327598
  0
ARC
  5
10D0
  8
0
 10
5.8817325875929178
 20
3.8924239778444698
 30
0.0
 40
0.1003784060502455
 50
359.12492118823872
 51
22.753778977284458
  0
LINE
  5
10D1
  8
0
 10
5.9820992864999996
 20
3.890890957399999
 30
0.0
 11
5.9820992864999987
 21
3.6013081047890592
 31
0.0
  0
ARC
  5
10D2
  8
0
 10
6.0411461987168806
 20
3.5999614821190451
 30
0.0
 40
0.0590622657452587
 50
178.69354009726769
 51
198.776826894669
  0
ARC
  5
10D3
  8
0
 10
6.0055117978241537
 20
3.5877564341305361
 30
0.0
 40
0.0213959200740457
 50
198.5481650747879
 51
226.3301245919952
  0
ARC
  5
10D4
  8
0
 10
5.9949514113535054
 20
3.5776267460380038
 30
0.0
 40
0.0068073776230933
 50
231.7592477632721
 51
260.26147241051541
  0
LINE
  5
10D5
  8
0
 10
4.7883519014999933
 20
4.0308909573999889
 30
0.0
 11
4.7883519014999951
 21
3.965890957399989
 31
0.0
  0
ARC
  5
10D6
  8
0
 10
4.8033519014999948
 20
3.965890957399989
 30
0.0
 40
0.0150000000000006
 50
180.0000000000004
 51
269.9999999999938
  0
LINE
  5
10D7
  8
0
 10
6.7014190916
 20
2.1728894134000001
 30
0.0
 11
5.4953709654080853
 21
2.1578412760952781
 31
0.0
  0
LINE
  5
10D8
  8
0
 10
6.7013668041000001
 20
2.1428232978999988
 30
0.0
 11
5.4953081289080847
 21
2.1279066655952792
 31
0.0
  0
LINE
  5
10D9
  8
0
 10
5.4734369093080852
 20
2.1113105039952789
 30
0.0
 11
6.7014296405994092
 21
2.112889531708904
 31
0.0
  0
LINE
  5
10DA
  8
0
 10
6.7224595504993649
 20
6.4192590879409632
 30
0.0
 11
6.412157944624747
 21
6.4161564948667591
 31
0.0
  0
LINE
  5
10DB
  8
0
 10
6.4630882918693811
 20
5.969152389493785
 30
0.0
 11
6.6814464757700973
 21
5.971867200523632
 31
0.0
  0
LINE
  5
10DC
  8
0
 10
5.7235441503453384
 20
6.0050115158838002
 30
0.0
 11
5.5206846571779913
 21
6.0025108584262172
 31
0.0
  0
LINE
  5
10DD
  8
0
 10
6.4733519014999992
 20
6.0591969675803288
 30
0.0
 11
6.67576635124363
 21
6.0617659232486583
 31
0.0
  0
LINE
  5
10DE
  8
0
 10
5.7233519015000001
 20
6.094691299493995
 30
0.0
 11
5.5205801936563681
 21
6.0921212842486572
 31
0.0
  0
LINE
  5
10DF
  8
0
 10
6.4733519014999983
 20
6.1491992786308733
 30
0.0
 11
6.6757663512764429
 21
6.1517659232600979
 31
0.0
  0
LINE
  5
10E0
  8
0
 10
5.7233519015000001
 20
6.1846918815962191
 30
0.0
 11
5.5205801936235552
 21
6.1821212842600968
 31
0.0
  0
LINE
  5
10E1
  8
0
 10
6.4733519014999992
 20
6.2391919395225459
 30
0.0
 11
6.6757639336221271
 21
6.241756295539993
 31
0.0
  0
LINE
  5
10E2
  8
0
 10
5.7233519015000001
 20
6.2746839185499468
 30
0.0
 11
5.5205826112778711
 21
6.272111656539991
 31
0.0
  0
LINE
  5
10E3
  8
0
 10
5.7233519015000001
 20
6.319688864494279
 30
0.0
 11
5.5205801935782253
 21
6.3171212841983131
 31
0.0
  0
LINE
  5
10E4
  8
0
 10
5.7301013766459894
 20
6.3650867190018667
 30
0.0
 11
5.5172672978774058
 21
6.3624455224476568
 31
0.0
  0
LINE
  5
10E5
  8
0
 10
5.7699518066155084
 20
6.4097353089035609
 30
0.0
 11
5.4957660409000004
 21
6.4069938249999989
 31
0.0
  0
LINE
  5
10E6
  8
0
 10
6.2627187348605151
 20
5.9208909574000002
 30
0.0
 11
5.409793200767206
 21
5.9083684527792277
 31
0.0
  0
LINE
  5
1886
  8
0
 10
6.5358996410534171
 20
2.2008909574000142
 30
0.0
 11
5.4952171886778158
 21
2.1879061252910259
 31
0.0
  0
LINE
  5
19C2
  8
0
 10
6.733351901499999
 20
3.527140957399999
 30
0.0
 11
5.4633519014999994
 21
3.5271409573999999
 31
0.0
  0
ATTDEF
  5
1B33
  8
DEFPOINTS
 10
6.0952746654406829
 20
-1.6034803954043999
 30
0.0
 40
0.001
  1
K-7129-A
  3

  2
MODELNUMBER
 70
     0
1001
AcDbAttr
1070
     0
1070
     1
  0
ATTDEF
  5
1B34
  8
DEFPOINTS
 10
6.0952746654406829
 20
-1.6051470620710651
 30
0.0
 40
0.001
  1

  3

  2
TRADENAME
 70
     0
1001
AcDbAttr
1070
     0
1070
     1
  0
ATTDEF
  5
1B35
  8
DEFPOINTS
 10
6.0952746654406829
 20
-1.60681372873773
 30
0.0
 40
0.001
  1
DRAIN
  3

  2
PRODUCT
 70
     0
1001
AcDbAttr
1070
     0
1070
     1
  0
ATTDEF
  5
1B36
  8
DEFPOINTS
 10
6.0952746654406829
 20
-1.6084803954043949
 30
0.0
 40
0.001
  1
BRASS
  3

  2
MATERIAL
 70
     0
1001
AcDbAttr
1070
     0
1070
     1
  0
ENDSEC
  0
EOF
