  0
SECTION
  2
HEADER
  9
$ACADVER
  1
AC1009
  9
$INSBASE
 10
11.43598294555
 20
-1.5941090425999991
 30
0.0
  9
$EXTMIN
 10
10.121008466199999
 20
-1.61245263675426
 30
0.0
  9
$EXTMAX
 10
12.7510084662
 20
7.3008909574000009
 30
0.0
  9
$LIMMIN
 10
0.0
 20
0.0
  9
$LIMMAX
 10
11.692913385800001
 20
8.2677165353999982
  9
$ORTHOMODE
 70
     0
  9
$REGENMODE
 70
     1
  9
$FILLMODE
 70
     1
  9
$QTEXTMODE
 70
     0
  9
$MIRRTEXT
 70
     0
  9
$DRAGMODE
 70
     2
  9
$LTSCALE
 40
0.6431102362
  9
$OSMODE
 70
  3071
  9
$ATTMODE
 70
     1
  9
$TEXTSIZE
 40
0.2
  9
$TRACEWID
 40
0.05
  9
$TEXTSTYLE
  7
STANDARD
  9
$CLAYER
  8
0
  9
$CELTYPE
  6
BYLAYER
  9
$CECOLOR
 62
   256
  9
$DIMSCALE
 40
1.0
  9
$DIMASZ
 40
0.1875
  9
$DIMEXO
 40
0.0625
  9
$DIMDLI
 40
0.4443307087
  9
$DIMRND
 40
0.0
  9
$DIMDLE
 40
0.0
  9
$DIMEXE
 40
0.125
  9
$DIMTP
 40
0.01
  9
$DIMTM
 40
0.01
  9
$DIMTXT
 40
0.15625
  9
$DIMCEN
 40
0.1052362205
  9
$DIMTSZ
 40
0.0
  9
$DIMTOL
 70
     1
  9
$DIMLIM
 70
     0
  9
$DIMTIH
 70
     1
  9
$DIMTOH
 70
     1
  9
$DIMSE1
 70
     0
  9
$DIMSE2
 70
     0
  9
$DIMTAD
 70
     0
  9
$DIMZIN
 70
     0
  9
$DIMBLK
  1

  9
$DIMASO
 70
     1
  9
$DIMSHO
 70
     1
  9
$DIMPOST
  1

  9
$DIMAPOST
  1

  9
$DIMALT
 70
     0
  9
$DIMALTD
 70
     2
  9
$DIMALTF
 40
25.399999999999999
  9
$DIMLFAC
 40
1.0
  9
$DIMTOFL
 70
     0
  9
$DIMTVP
 40
0.0
  9
$DIMTIX
 70
     0
  9
$DIMSOXD
 70
     0
  9
$DIMSAH
 70
     0
  9
$DIMBLK1
  1

  9
$DIMBLK2
  1

  9
$DIMSTYLE
  2
STANDARD
  9
$DIMCLRD
 70
     0
  9
$DIMCLRE
 70
     0
  9
$DIMCLRT
 70
     0
  9
$DIMTFAC
 40
1.0
  9
$DIMGAP
 40
0.09
  9
$LUNITS
 70
     2
  9
$LUPREC
 70
     4
  9
$SKETCHINC
 40
0.1
  9
$FILLETRAD
 40
0.0
  9
$AUNITS
 70
     0
  9
$AUPREC
 70
     0
  9
$MENU
  1
.
  9
$ELEVATION
 40
0.0
  9
$PELEVATION
 40
0.0
  9
$THICKNESS
 40
0.0
  9
$LIMCHECK
 70
     0
  9
$BLIPMODE
 70
     0
  9
$CHAMFERA
 40
0.0
  9
$CHAMFERB
 40
0.0
  9
$SKPOLY
 70
     0
  9
$TDCREATE
 40
2457730.5201203008
  9
$TDUPDATE
 40
2457731.652627361
  9
$TDINDWG
 40
0.150952037
  9
$TDUSRTIMER
 40
0.150952037
  9
$USRTIMER
 70
     1
  9
$ANGBASE
 50
0.0
  9
$ANGDIR
 70
     0
  9
$PDMODE
 70
     0
  9
$PDSIZE
 40
0.3125
  9
$PLINEWID
 40
0.0
  9
$COORDS
 70
     1
  9
$SPLFRAME
 70
     0
  9
$SPLINETYPE
 70
     6
  9
$SPLINESEGS
 70
     8
  9
$ATTDIA
 70
     1
  9
$ATTREQ
 70
     1
  9
$HANDLING
 70
     1
  9
$HANDSEED
  5
1C0A
  9
$SURFTAB1
 70
     6
  9
$SURFTAB2
 70
     6
  9
$SURFTYPE
 70
     6
  9
$SURFU
 70
     6
  9
$SURFV
 70
     6
  9
$UCSNAME
  2

  9
$UCSORG
 10
0.0
 20
0.0
 30
0.0
  9
$UCSXDIR
 10
1.0
 20
0.0
 30
0.0
  9
$UCSYDIR
 10
0.0
 20
1.0
 30
0.0
  9
$PUCSNAME
  2

  9
$PUCSORG
 10
0.0
 20
0.0
 30
0.0
  9
$PUCSXDIR
 10
1.0
 20
0.0
 30
0.0
  9
$PUCSYDIR
 10
0.0
 20
1.0
 30
0.0
  9
$USERI1
 70
     0
  9
$USERI2
 70
     0
  9
$USERI3
 70
     0
  9
$USERI4
 70
     0
  9
$USERI5
 70
     0
  9
$USERR1
 40
0.0
  9
$USERR2
 40
0.0
  9
$USERR3
 40
0.0
  9
$USERR4
 40
0.0
  9
$USERR5
 40
0.0
  9
$WORLDVIEW
 70
     1
  9
$SHADEDGE
 70
     3
  9
$SHADEDIF
 70
    70
  9
$TILEMODE
 70
     1
  9
$MAXACTVP
 70
    64
  9
$PLIMCHECK
 70
     0
  9
$PEXTMIN
 10
1.0000000000000000E+020
 20
1.0000000000000000E+020
 30
1.0000000000000000E+020
  9
$PEXTMAX
 10
-1.0000000000000000E+020
 20
-1.0000000000000000E+020
 30
-1.0000000000000000E+020
  9
$PLIMMIN
 10
0.0
 20
0.0
  9
$PLIMMAX
 10
12.0
 20
9.0
  9
$UNITMODE
 70
     0
  9
$VISRETAIN
 70
     1
  9
$PLINEGEN
 70
     0
  9
$PSLTSCALE
 70
     1
  0
ENDSEC
  0
SECTION
  2
TABLES
  0
TABLE
  2
VPORT
 70
     1
  0
VPORT
  2
*ACTIVE
 70
     0
 10
0.0
 20
0.0
 11
1.0
 21
1.0
 12
0.0
 22
0.0
 13
0.0
 23
0.0
 14
1.0
 24
1.0
 15
0.0
 25
0.0
 16
-0.0000000000000053
 26
0.0
 36
21.774224308117649
 17
11.436008466200001
 27
2.8442191603228699
 37
0.0
 40
9.2932552976581242
 41
1.642297650130548
 42
50.0
 43
0.0
 44
0.0
 50
0.0
 51
0.0
 71
     0
 72
   100
 73
     1
 74
     1
 75
     0
 76
     0
 77
     0
 78
     0
  0
ENDTAB
  0
TABLE
  2
LTYPE
 70
     3
  0
LTYPE
  2
CONTINUOUS
 70
     0
  3
Solid line
 72
    65
 73
     0
 40
0.0
  0
LTYPE
  2
PHANTOM2
 70
     0
  3
___ _ _ ___ _ _ ___ _ _ ___ _ _
 72
    65
 73
     6
 40
1.25
 49
0.625
 49
-0.125
 49
0.125
 49
-0.125
 49
0.125
 49
-0.125
  0
ENDTAB
  0
TABLE
  2
LAYER
 70
     3
  0
LAYER
  2
0
 70
     0
 62
     7
  6
CONTINUOUS
  0
LAYER
  2
DEFPOINTS
 70
     0
 62
     7
  6
CONTINUOUS
  0
ENDTAB
  0
TABLE
  2
STYLE
 70
     1
  0
STYLE
  2
STANDARD
 70
     0
 40
0.0
 41
0.8
 50
0.0
 71
     0
 42
0.2
  3
txt
  4

  0
ENDTAB
  0
TABLE
  2
VIEW
 70
     0
  0
ENDTAB
  0
TABLE
  2
UCS
 70
     0
  0
ENDTAB
  0
TABLE
  2
APPID
 70
     5
  0
APPID
  2
ACAD
 70
     0
  0
APPID
  2
ACAD_NAV_VCDISPLAY
 70
     0
  0
APPID
  2
ACAD_MLEADERVER
 70
     0
  0
APPID
  2
ACAD_EXEMPT_FROM_CAD_STANDARDS
 70
     0
  0
APPID
  2
AcDbAttr
 70
     0
  0
ENDTAB
  0
TABLE
  2
DIMSTYLE
 70
     2
  0
DIMSTYLE
  2
STANDARD
 70
     0
  3

  4

  5

  6

  7

 40
1.0
 41
0.1875
 42
0.0625
 43
0.38
 44
0.125
 45
0.0
 46
0.0
 47
0.01
 48
0.01
140
0.15625
141
0.09
142
0.0
143
25.399999999999999
144
1.0
145
0.0
146
1.0
147
0.09
 71
     1
 72
     0
 73
     1
 74
     1
 75
     0
 76
     0
 77
     0
 78
     4
170
     0
171
     2
172
     0
173
     0
174
     0
175
     0
176
     0
177
     0
178
     0
  0
ENDTAB
  0
ENDSEC
  0
SECTION
  2
BLOCKS
  0
BLOCK
  8
0
  2
$MODEL_SPACE
 70
     0
 10
0.0
 20
0.0
 30
0.0
  3
$MODEL_SPACE
  1

  0
ENDBLK
  5
21
  8
0
  0
BLOCK
 67
     1
  8
0
  2
$PAPER_SPACE
 70
     0
 10
0.0
 20
0.0
 30
0.0
  3
$PAPER_SPACE
  1

  0
ENDBLK
  5
1D
 67
     1
  8
0
  0
ENDSEC
  0
SECTION
  2
ENTITIES
  0
LINE
  5
1633
  8
0
 10
10.4035084662
 20
7.3008909574
 30
0.0
 11
12.468508466199999
 21
7.3008909574
 31
0.0
  0
ARC
  5
1634
  8
0
 10
12.468508466199999
 20
7.2708909573999989
 30
0.0
 40
0.0300000000000003
 50
291.0000005058431
 51
90.0
  0
LINE
  5
1635
  8
0
 10
12.479259504686061
 20
7.24288354460497
 30
0.0
 11
12.28640755668607
 21
7.1688546176049703
 31
0.0
  0
LINE
  5
1636
  8
0
 10
12.188491586586061
 20
6.552624352804969
 30
0.0
 11
12.21213203848607
 21
6.6643316933049697
 31
0.0
  0
LINE
  5
1637
  8
0
 10
12.247991736286069
 20
7.1159799087049702
 30
0.0
 11
12.23242970158606
 21
6.8190385960049698
 31
0.0
  0
LINE
  5
1638
  8
0
 10
12.176008469386071
 20
6.5408909541049702
 30
0.0
 11
10.696008462986059
 21
6.5408909541049702
 31
0.0
  0
ARC
  5
1639
  8
0
 10
11.233800167386059
 20
6.8713745629049701
 30
0.0
 40
1.0
 50
348.0508540713999
 51
356.99999294579999
  0
ARC
  5
163A
  8
0
 10
12.30790950798607
 20
7.1128397438049689
 30
0.0
 40
0.06
 50
110.9998714437999
 51
176.99999285569999
  0
ARC
  5
163B
  8
0
 10
12.173816598086059
 20
6.555729946704969
 30
0.0
 40
0.015
 50
278.40241670979992
 51
348.05107917190003
  0
LINE
  5
163E
  8
0
 10
12.14431963355405
 20
6.5408909541999991
 30
0.0
 11
12.124627443972051
 21
6.5270684578319633
 31
0.0
  0
LINE
  5
163F
  8
0
 10
12.124627443972051
 20
6.5270684578319633
 30
0.0
 11
12.1547306378
 21
6.5059877665999979
 31
0.0
  0
LINE
  5
1640
  8
0
 10
12.1547306378
 20
6.5059877665999979
 30
0.0
 11
12.1547249632
 21
6.5031417912999991
 31
0.0
  0
LINE
  5
1641
  8
0
 10
12.1547249632
 20
6.5031417912999991
 30
0.0
 11
12.1245957209766
 21
6.4820652415070832
 31
0.0
  0
LINE
  5
1642
  8
0
 10
12.1245957209766
 20
6.4820652415070832
 30
0.0
 11
12.154732945599999
 21
6.4609596747999989
 31
0.0
  0
LINE
  5
1643
  8
0
 10
12.154732945599999
 20
6.4609596747999989
 30
0.0
 11
12.154802523300001
 21
6.458249186499998
 31
0.0
  0
LINE
  5
1644
  8
0
 10
12.154802523300001
 20
6.458249186499998
 30
0.0
 11
12.12461831604217
 21
6.4370648483444421
 31
0.0
  0
LINE
  5
1645
  8
0
 10
12.12461831604217
 20
6.4370648483444421
 30
0.0
 11
12.1477550885
 21
6.4208909574000002
 31
0.0
  0
LINE
  5
1646
  8
0
 10
12.1477550885
 20
6.4208909574000002
 30
0.0
 11
12.0658543264
 21
6.4208909574000002
 31
0.0
  0
ARC
  5
1647
  8
0
 10
12.065138271279469
 20
6.4125041607303519
 30
0.0
 40
0.0084173091492256
 50
85.11998652394449
 51
126.6300799139574
  0
LINE
  5
164A
  8
0
 10
12.078230167699999
 20
6.4126252085999988
 30
0.0
 11
12.07550278661587
 21
6.4099277292264691
 31
0.0
  0
LINE
  5
164B
  8
0
 10
12.07550278661587
 20
6.4099277292264691
 30
0.0
 11
12.02069839284302
 21
6.3881578025257468
 31
0.0
  0
LINE
  5
164C
  8
0
 10
12.02069839284302
 20
6.3881578025257468
 30
0.0
 11
12.050564463328429
 21
6.3670556959968811
 31
0.0
  0
LINE
  5
164D
  8
0
 10
12.050564463328429
 20
6.3670556959968811
 30
0.0
 11
12.050129672029151
 21
6.3644098775827906
 31
0.0
  0
LINE
  5
164E
  8
0
 10
12.050129672029151
 20
6.3644098775827906
 30
0.0
 11
12.012666098408349
 21
6.3429847678386988
 31
0.0
  0
LINE
  5
164F
  8
0
 10
12.012666098408349
 20
6.3429847678386988
 30
0.0
 11
12.048424750628429
 21
6.3220146936968806
 31
0.0
  0
LINE
  5
1650
  8
0
 10
12.048424750628429
 20
6.3220146936968806
 30
0.0
 11
12.04841654939071
 21
6.3193724955804074
 31
0.0
  0
LINE
  5
1651
  8
0
 10
12.04841654939071
 20
6.3193724955804074
 30
0.0
 11
12.012669923250209
 21
6.2980020042951956
 31
0.0
  0
LINE
  5
1652
  8
0
 10
12.012669923250209
 20
6.2980020042951956
 30
0.0
 11
12.048424750628429
 21
6.2770147014968813
 31
0.0
  0
LINE
  5
1653
  8
0
 10
12.048424750628429
 20
6.2770147014968813
 30
0.0
 11
12.048424750628429
 21
6.2743726545968821
 31
0.0
  0
LINE
  5
1654
  8
0
 10
12.048424750628429
 20
6.2743726545968821
 30
0.0
 11
12.01266750555056
 21
6.2529923766368736
 31
0.0
  0
LINE
  5
1655
  8
0
 10
12.01266750555056
 20
6.2529923766368736
 30
0.0
 11
12.048424750628429
 21
6.2320147014968814
 31
0.0
  0
LINE
  5
1656
  8
0
 10
12.048424750628429
 20
6.2320147014968814
 30
0.0
 11
12.04842475063043
 21
6.2293774381722153
 31
0.0
  0
LINE
  5
1657
  8
0
 10
12.04842475063043
 20
6.2293774381722153
 30
0.0
 11
12.01266992321365
 21
6.2080020043488284
 31
0.0
  0
LINE
  5
1658
  8
0
 10
12.01266992321365
 20
6.2080020043488284
 30
0.0
 11
12.048424750628429
 21
6.1870147014968806
 31
0.0
  0
LINE
  5
1659
  8
0
 10
12.048424750628429
 20
6.1870147014968806
 30
0.0
 11
12.048424750628429
 21
6.1843726551968814
 31
0.0
  0
LINE
  5
165A
  8
0
 10
12.048424750628429
 20
6.1843726551968814
 30
0.0
 11
12.01266992320488
 21
6.1630020043569802
 31
0.0
  0
LINE
  5
165B
  8
0
 10
12.01266992320488
 20
6.1630020043569802
 30
0.0
 11
12.04842483817256
 21
6.142009666037465
 31
0.0
  0
LINE
  5
165C
  8
0
 10
12.04842483817256
 20
6.142009666037465
 30
0.0
 11
12.048424750628429
 21
6.1393774381968811
 31
0.0
  0
LINE
  5
165D
  8
0
 10
12.048424750628429
 20
6.1393774381968811
 30
0.0
 11
12.012670983222421
 21
6.1179987016153827
 31
0.0
  0
LINE
  5
165E
  8
0
 10
12.012670983222421
 20
6.1179987016153827
 30
0.0
 11
12.04842163240029
 21
6.0970165464100639
 31
0.0
  0
LINE
  5
165F
  8
0
 10
12.04842163240029
 20
6.0970165464100639
 30
0.0
 11
12.048424750628429
 21
6.0943726547968806
 31
0.0
  0
LINE
  5
1660
  8
0
 10
12.048424750628429
 20
6.0943726547968806
 30
0.0
 11
12.012669923172069
 21
6.0730020043455388
 31
0.0
  0
LINE
  5
1661
  8
0
 10
12.012669923172069
 20
6.0730020043455388
 30
0.0
 11
12.04841673568867
 21
6.0520194435707051
 31
0.0
  0
LINE
  5
1662
  8
0
 10
12.04841673568867
 20
6.0520194435707051
 30
0.0
 11
12.048424750628429
 21
6.0493774381968821
 31
0.0
  0
LINE
  5
1663
  8
0
 10
12.048424750628429
 20
6.0493774381968821
 30
0.0
 11
12.012663767094301
 21
6.0279856039949546
 31
0.0
  0
LINE
  5
1664
  8
0
 10
12.012663767094301
 20
6.0279856039949546
 30
0.0
 11
12.049202899454921
 21
6.0070295246973657
 31
0.0
  0
LINE
  5
1665
  8
0
 10
12.049202899454921
 20
6.0070295246973657
 30
0.0
 11
12.049500372683079
 21
6.0043930523202862
 31
0.0
  0
LINE
  5
1666
  8
0
 10
12.049500372683079
 20
6.0043930523202862
 30
0.0
 11
12.018350047698529
 21
5.9831032816205143
 31
0.0
  0
LINE
  5
1667
  8
0
 10
12.018350047698529
 20
5.9831032816205143
 30
0.0
 11
12.057678841368141
 21
5.9621945637485174
 31
0.0
  0
LINE
  5
1668
  8
0
 10
12.057678841368141
 20
5.9621945637485174
 30
0.0
 11
12.058680236427531
 21
5.9595690280939584
 31
0.0
  0
ARC
  5
166B
  8
0
 10
12.253934662143781
 20
6.4666087266430292
 30
0.0
 40
0.5715102459254219
 50
247.5370558285137
 51
250.34782095194731
  0
LINE
  5
166E
  8
0
 10
12.1546607748
 20
5.9210373335642501
 30
0.0
 11
12.154732945599999
 21
5.9183091584642504
 31
0.0
  0
LINE
  5
166F
  8
0
 10
12.154732945599999
 20
5.9183091584642504
 30
0.0
 11
12.124541646332791
 21
5.897118450679228
 31
0.0
  0
LINE
  5
1670
  8
0
 10
12.124541646332791
 20
5.897118450679228
 30
0.0
 11
12.154732945599999
 21
5.8759358388642511
 31
0.0
  0
LINE
  5
1671
  8
0
 10
12.154732945599999
 20
5.8759358388642511
 30
0.0
 11
12.154732945599999
 21
5.873298394964249
 31
0.0
  0
LINE
  5
1672
  8
0
 10
12.154732945599999
 20
5.873298394964249
 30
0.0
 11
12.1244031405
 21
5.8522215765642498
 31
0.0
  0
LINE
  5
1673
  8
0
 10
12.1244031405
 20
5.8522215765642498
 30
0.0
 11
12.154663857399999
 21
5.8310304654642504
 31
0.0
  0
LINE
  5
1674
  8
0
 10
12.154663857399999
 20
5.8310304654642504
 30
0.0
 11
12.154732945599999
 21
5.8282983949642491
 31
0.0
  0
LINE
  5
1675
  8
0
 10
12.154732945599999
 20
5.8282983949642491
 30
0.0
 11
12.124523936800751
 21
5.8071194887739956
 31
0.0
  0
LINE
  5
1676
  8
0
 10
12.124523936800751
 20
5.8071194887739956
 30
0.0
 11
12.1546560281
 21
5.78601744936425
 31
0.0
  0
LINE
  5
1677
  8
0
 10
12.1546560281
 20
5.78601744936425
 30
0.0
 11
12.154732945599999
 21
5.78329839496425
 31
0.0
  0
LINE
  5
1678
  8
0
 10
12.154732945599999
 20
5.78329839496425
 30
0.0
 11
12.12451781381121
 21
5.7621163281828061
 31
0.0
  0
LINE
  5
1679
  8
0
 10
12.12451781381121
 20
5.7621163281828061
 30
0.0
 11
12.1539275405
 21
5.7415199822150758
 31
0.0
  0
LINE
  5
167A
  8
0
 10
12.1539275405
 20
5.7415199822150758
 30
0.0
 11
12.154694045299999
 21
5.7382457057142497
 31
0.0
  0
LINE
  5
167B
  8
0
 10
12.154694045299999
 20
5.7382457057142497
 30
0.0
 11
12.12453341490362
 21
5.7171138707330318
 31
0.0
  0
LINE
  5
167C
  8
0
 10
12.12453341490362
 20
5.7171138707330318
 30
0.0
 11
12.154664458399999
 21
5.69601286426425
 31
0.0
  0
LINE
  5
167D
  8
0
 10
12.154664458399999
 20
5.69601286426425
 30
0.0
 11
12.154732945599999
 21
5.6932983949642502
 31
0.0
  0
LINE
  5
167E
  8
0
 10
12.154732945599999
 20
5.6932983949642502
 30
0.0
 11
12.124555008272541
 21
5.6721150398774363
 31
0.0
  0
LINE
  5
167F
  8
0
 10
12.124555008272541
 20
5.6721150398774363
 30
0.0
 11
12.154732945599999
 21
5.6509358388642514
 31
0.0
  0
LINE
  5
1680
  8
0
 10
12.154732945599999
 20
5.6509358388642514
 30
0.0
 11
12.154732945599999
 21
5.6482983949642502
 31
0.0
  0
LINE
  5
1681
  8
0
 10
12.154732945599999
 20
5.6482983949642502
 30
0.0
 11
12.12455391238338
 21
5.6271193979331704
 31
0.0
  0
LINE
  5
1682
  8
0
 10
12.12455391238338
 20
5.6271193979331704
 30
0.0
 11
12.154657840700001
 21
5.6060380497642504
 31
0.0
  0
LINE
  5
1683
  8
0
 10
12.154657840700001
 20
5.6060380497642504
 30
0.0
 11
12.12452349311814
 21
5.5821154720252659
 31
0.0
  0
LINE
  5
1684
  8
0
 10
12.12452349311814
 20
5.5821154720252659
 30
0.0
 11
12.154661752599999
 21
5.5610090944642501
 31
0.0
  0
LINE
  5
1685
  8
0
 10
12.154661752599999
 20
5.5610090944642501
 30
0.0
 11
12.154732945599999
 21
5.5582983949642504
 31
0.0
  0
LINE
  5
1686
  8
0
 10
12.154732945599999
 20
5.5582983949642504
 30
0.0
 11
12.12455275084038
 21
5.537004111864249
 31
0.0
  0
LINE
  5
1687
  8
0
 10
12.12455275084038
 20
5.537004111864249
 30
0.0
 11
12.154732945599999
 21
5.5159358388642499
 31
0.0
  0
LINE
  5
1688
  8
0
 10
12.154732945599999
 20
5.5159358388642499
 30
0.0
 11
12.154732945599999
 21
5.5132983949642487
 31
0.0
  0
LINE
  5
1689
  8
0
 10
12.154732945599999
 20
5.5132983949642487
 30
0.0
 11
12.12452436206207
 21
5.4921152764237391
 31
0.0
  0
LINE
  5
168A
  8
0
 10
12.12452436206207
 20
5.4921152764237391
 30
0.0
 11
12.154732945599999
 21
5.4709596772999989
 31
0.0
  0
LINE
  5
168B
  8
0
 10
12.154732945599999
 20
5.4709596772999989
 30
0.0
 11
12.154732945599999
 21
5.4682983949642487
 31
0.0
  0
LINE
  5
168C
  8
0
 10
12.154732945599999
 20
5.4682983949642487
 30
0.0
 11
12.146104677597529
 21
5.4621171168642508
 31
0.0
  0
LINE
  5
168D
  8
0
 10
11.061008466200001
 20
6.0108909574
 30
0.0
 11
11.061008466200001
 21
6.3308909574000003
 31
0.0
  0
LINE
  5
168E
  8
0
 10
11.811008466200001
 20
6.0108909574
 30
0.0
 11
11.811008466200001
 21
6.3308909574000003
 31
0.0
  0
LINE
  5
168F
  8
0
 10
11.721008466200001
 20
5.9208909574000002
 30
0.0
 11
11.1510084662
 21
5.9208909574000002
 31
0.0
  0
LINE
  5
1690
  8
0
 10
11.1510084662
 20
6.4208909574000002
 30
0.0
 11
11.721008466200001
 21
6.4208909574000002
 31
0.0
  0
ARC
  5
1691
  8
0
 10
11.1510084662
 20
6.0108909574
 30
0.0
 40
0.09
 50
180.00000000110001
 51
270.0
  0
ARC
  5
1692
  8
0
 10
11.1510084662
 20
6.3308909574000003
 30
0.0
 40
0.09
 50
90.0
 51
180.0
  0
ARC
  5
1693
  8
0
 10
11.721008466200001
 20
6.0108909574
 30
0.0
 40
0.09
 50
270.0
 51
0.0
  0
ARC
  5
1694
  8
0
 10
11.721008466200001
 20
6.3308909574000003
 30
0.0
 40
0.09
 50
0.0
 51
90.0
  0
LINE
  5
1695
  8
0
 10
10.6610084662
 20
5.4508909574000004
 30
0.0
 11
12.211008466199999
 21
5.4508909574000004
 31
0.0
  0
LINE
  5
1696
  8
0
 10
12.211008466199999
 20
5.4508909574000004
 30
0.0
 11
12.512433466199999
 21
5.0508909574
 31
0.0
  0
LINE
  5
1697
  8
0
 10
12.512433466199999
 20
5.0508909574
 30
0.0
 11
12.686008466200001
 21
5.0008909574000002
 31
0.0
  0
LINE
  5
1698
  8
0
 10
12.686008466200001
 20
5.0008909574000002
 30
0.0
 11
12.686008466200001
 21
4.9508909574000004
 31
0.0
  0
LINE
  5
1699
  8
0
 10
12.686008466200001
 20
4.9508909574000004
 30
0.0
 11
10.186008466200001
 21
4.9508909574000004
 31
0.0
  0
LINE
  5
169A
  8
0
 10
10.186008466200001
 20
4.9508909574000004
 30
0.0
 11
10.186008466200001
 21
5.0008909574000002
 31
0.0
  0
LINE
  5
169B
  8
0
 10
10.186008466200001
 20
5.0008909574000002
 30
0.0
 11
10.3595834662
 21
5.0508909574
 31
0.0
  0
LINE
  5
169C
  8
0
 10
10.3595834662
 20
5.0508909574
 30
0.0
 11
10.6610084662
 21
5.4508909574000004
 31
0.0
  0
LINE
  5
169D
  8
0
 10
10.186008466200001
 20
5.0008909574000002
 30
0.0
 11
12.686008466200001
 21
5.0008909574000002
 31
0.0
  0
LINE
  5
169E
  8
0
 10
12.512433466199999
 20
5.0508909574
 30
0.0
 11
10.3595834662
 21
5.0508909574
 31
0.0
  0
LINE
  5
169F
  8
0
 10
12.12585533364234
 20
4.9508909574000004
 30
0.0
 11
12.154426233000001
 21
4.9308547725642491
 31
0.0
  0
LINE
  5
16A0
  8
0
 10
12.154426233000001
 20
4.9308547725642491
 30
0.0
 11
12.1544984038
 21
4.9281265974642503
 31
0.0
  0
LINE
  5
16A1
  8
0
 10
12.1544984038
 20
4.9281265974642503
 30
0.0
 11
12.124307104532789
 21
4.906935889679227
 31
0.0
  0
LINE
  5
16A2
  8
0
 10
12.124307104532789
 20
4.906935889679227
 30
0.0
 11
12.1544984038
 21
4.8857532778642501
 31
0.0
  0
LINE
  5
16A3
  8
0
 10
12.1544984038
 20
4.8857532778642501
 30
0.0
 11
12.1544984038
 21
4.8831158339642489
 31
0.0
  0
LINE
  5
16A4
  8
0
 10
12.1544984038
 20
4.8831158339642489
 30
0.0
 11
12.124168598700001
 21
4.8620390155642497
 31
0.0
  0
LINE
  5
16A5
  8
0
 10
12.124168598700001
 20
4.8620390155642497
 30
0.0
 11
12.1544293156
 21
4.8408479044642503
 31
0.0
  0
LINE
  5
16A6
  8
0
 10
12.1544293156
 20
4.8408479044642503
 30
0.0
 11
12.1544984038
 21
4.8381158339642489
 31
0.0
  0
LINE
  5
16A7
  8
0
 10
12.1544984038
 20
4.8381158339642489
 30
0.0
 11
12.12428939500076
 21
4.8169369277739964
 31
0.0
  0
LINE
  5
16A8
  8
0
 10
12.12428939500076
 20
4.8169369277739964
 30
0.0
 11
12.1544214863
 21
4.7958348883642499
 31
0.0
  0
LINE
  5
16A9
  8
0
 10
12.1544214863
 20
4.7958348883642499
 30
0.0
 11
12.1544984038
 21
4.793115833964249
 31
0.0
  0
LINE
  5
16AA
  8
0
 10
12.1544984038
 20
4.793115833964249
 30
0.0
 11
12.12428327201121
 21
4.771933767182805
 31
0.0
  0
LINE
  5
16AB
  8
0
 10
12.12428327201121
 20
4.771933767182805
 30
0.0
 11
12.1536929987
 21
4.7513374212150756
 31
0.0
  0
LINE
  5
16AC
  8
0
 10
12.1536929987
 20
4.7513374212150756
 30
0.0
 11
12.1544595035
 21
4.7480631447142496
 31
0.0
  0
LINE
  5
16AD
  8
0
 10
12.1544595035
 20
4.7480631447142496
 30
0.0
 11
12.12429887310363
 21
4.7269313097330317
 31
0.0
  0
LINE
  5
16AE
  8
0
 10
12.12429887310363
 20
4.7269313097330317
 30
0.0
 11
12.1544299166
 21
4.7058303032642499
 31
0.0
  0
LINE
  5
16AF
  8
0
 10
12.1544299166
 20
4.7058303032642499
 30
0.0
 11
12.1544984038
 21
4.70311583396425
 31
0.0
  0
LINE
  5
16B0
  8
0
 10
12.1544984038
 20
4.70311583396425
 30
0.0
 11
12.12432046647254
 21
4.6819324788774361
 31
0.0
  0
LINE
  5
16B1
  8
0
 10
12.12432046647254
 20
4.6819324788774361
 30
0.0
 11
12.1544984038
 21
4.6607532778642513
 31
0.0
  0
LINE
  5
16B2
  8
0
 10
12.1544984038
 20
4.6607532778642513
 30
0.0
 11
12.1544984038
 21
4.6581158339642501
 31
0.0
  0
LINE
  5
16B3
  8
0
 10
12.1544984038
 20
4.6581158339642501
 30
0.0
 11
12.124319370583381
 21
4.6369368369331703
 31
0.0
  0
LINE
  5
16B4
  8
0
 10
12.124319370583381
 20
4.6369368369331703
 30
0.0
 11
12.154423298899999
 21
4.6158554887642502
 31
0.0
  0
LINE
  5
16B5
  8
0
 10
12.154423298899999
 20
4.6158554887642502
 30
0.0
 11
12.124288951318141
 21
4.5919329110252658
 31
0.0
  0
LINE
  5
16B6
  8
0
 10
12.124288951318141
 20
4.5919329110252658
 30
0.0
 11
12.1544272108
 21
4.5708265334642491
 31
0.0
  0
LINE
  5
16B7
  8
0
 10
12.1544272108
 20
4.5708265334642491
 30
0.0
 11
12.1544984038
 21
4.5681158339642502
 31
0.0
  0
LINE
  5
16B8
  8
0
 10
12.1544984038
 20
4.5681158339642502
 30
0.0
 11
12.12431820904038
 21
4.546821550864248
 31
0.0
  0
LINE
  5
16B9
  8
0
 10
12.12431820904038
 20
4.546821550864248
 30
0.0
 11
12.1544984038
 21
4.5257532778642497
 31
0.0
  0
LINE
  5
16BA
  8
0
 10
12.1544984038
 20
4.5257532778642497
 30
0.0
 11
12.1544984038
 21
4.5231158339642494
 31
0.0
  0
LINE
  5
16BB
  8
0
 10
12.1544984038
 20
4.5231158339642494
 30
0.0
 11
12.124289820262071
 21
4.501932715423739
 31
0.0
  0
LINE
  5
16BC
  8
0
 10
12.124289820262071
 20
4.501932715423739
 30
0.0
 11
12.1544984038
 21
4.4807771162999988
 31
0.0
  0
LINE
  5
16BD
  8
0
 10
12.1544984038
 20
4.4807771162999988
 30
0.0
 11
12.1544984038
 21
4.4781158339642486
 31
0.0
  0
LINE
  5
16BE
  8
0
 10
12.1544984038
 20
4.4781158339642486
 30
0.0
 11
12.12452916230025
 21
4.4571383848338879
 31
0.0
  0
LINE
  5
16BF
  8
0
 10
12.1243833916
 20
4.4120276337999993
 30
0.0
 11
12.154657783399999
 21
4.3910370469000002
 31
0.0
  0
LINE
  5
16C0
  8
0
 10
12.154657783399999
 20
4.3910370469000002
 30
0.0
 11
12.1547299542
 21
4.3883088717999996
 31
0.0
  0
LINE
  5
16C1
  8
0
 10
12.1547299542
 20
4.3883088717999996
 30
0.0
 11
12.12453865493279
 21
4.3671181640149781
 31
0.0
  0
LINE
  5
16C2
  8
0
 10
12.12453865493279
 20
4.3671181640149781
 30
0.0
 11
12.1547299542
 21
4.3459355522000012
 31
0.0
  0
LINE
  5
16C3
  8
0
 10
12.1547299542
 20
4.3459355522000012
 30
0.0
 11
12.1547299542
 21
4.3432981082999991
 31
0.0
  0
LINE
  5
16C4
  8
0
 10
12.1547299542
 20
4.3432981082999991
 30
0.0
 11
12.1244001491
 21
4.3222212898999999
 31
0.0
  0
LINE
  5
16C5
  8
0
 10
12.1244001491
 20
4.3222212898999999
 30
0.0
 11
12.154660866
 21
4.3010301787999996
 31
0.0
  0
LINE
  5
16C6
  8
0
 10
12.154660866
 20
4.3010301787999996
 30
0.0
 11
12.1547299542
 21
4.2982981083
 31
0.0
  0
LINE
  5
16C7
  8
0
 10
12.1547299542
 20
4.2982981083
 30
0.0
 11
12.12452094540075
 21
4.2771192021097457
 31
0.0
  0
LINE
  5
16C8
  8
0
 10
12.12452094540075
 20
4.2771192021097457
 30
0.0
 11
12.154653036699999
 21
4.2560171627000001
 31
0.0
  0
LINE
  5
16C9
  8
0
 10
12.154653036699999
 20
4.2560171627000001
 30
0.0
 11
12.1547299542
 21
4.2532981083000001
 31
0.0
  0
LINE
  5
16CA
  8
0
 10
12.1547299542
 20
4.2532981083000001
 30
0.0
 11
12.124514822411211
 21
4.2321160415185561
 31
0.0
  0
LINE
  5
16CB
  8
0
 10
12.124514822411211
 20
4.2321160415185561
 30
0.0
 11
12.153924549099999
 21
4.2115196955508258
 31
0.0
  0
LINE
  5
16CC
  8
0
 10
12.153924549099999
 20
4.2115196955508258
 30
0.0
 11
12.154691053900001
 21
4.2082454190499998
 31
0.0
  0
LINE
  5
16CD
  8
0
 10
12.154691053900001
 20
4.2082454190499998
 30
0.0
 11
12.12453042350362
 21
4.1871135840687819
 31
0.0
  0
LINE
  5
16CE
  8
0
 10
12.12453042350362
 20
4.1871135840687819
 30
0.0
 11
12.154661467
 21
4.1660125776000001
 31
0.0
  0
LINE
  5
16CF
  8
0
 10
12.154661467
 20
4.1660125776000001
 30
0.0
 11
12.1547299542
 21
4.1632981083000002
 31
0.0
  0
LINE
  5
16D0
  8
0
 10
12.1547299542
 20
4.1632981083000002
 30
0.0
 11
12.12455201687254
 21
4.1421147532131863
 31
0.0
  0
LINE
  5
16D1
  8
0
 10
12.12455201687254
 20
4.1421147532131863
 30
0.0
 11
12.1547299542
 21
4.1209355522000006
 31
0.0
  0
LINE
  5
16D2
  8
0
 10
12.1547299542
 20
4.1209355522000006
 30
0.0
 11
12.1547299542
 21
4.1182981083000003
 31
0.0
  0
LINE
  5
16D3
  8
0
 10
12.1547299542
 20
4.1182981083000003
 30
0.0
 11
12.124550920983379
 21
4.0971191112689196
 31
0.0
  0
LINE
  5
16D4
  8
0
 10
12.124550920983379
 20
4.0971191112689196
 30
0.0
 11
12.1546548493
 21
4.0760377631000004
 31
0.0
  0
LINE
  5
16D5
  8
0
 10
12.1546548493
 20
4.0760377631000004
 30
0.0
 11
12.124520501718139
 21
4.052115185361016
 31
0.0
  0
LINE
  5
16D6
  8
0
 10
12.124520501718139
 20
4.052115185361016
 30
0.0
 11
12.154661745
 21
4.0310599282999986
 31
0.0
  0
LINE
  5
16D8
  8
0
 10
12.1243833916
 20
4.4120276337999993
 30
0.0
 11
12.137025692637909
 21
4.4208909574000002
 31
0.0
  0
LINE
  5
16D9
  8
0
 10
12.7510084662
 20
4.4508909574000004
 30
0.0
 11
12.7510084662
 21
4.4208909574000002
 31
0.0
  0
LINE
  5
16DA
  8
0
 10
12.7510084662
 20
4.4208909574000002
 30
0.0
 11
10.121008466199999
 21
4.4208909574000002
 31
0.0
  0
LINE
  5
16DB
  8
0
 10
10.121008466199999
 20
4.4208909574000002
 30
0.0
 11
10.121008466199999
 21
4.4508909574000004
 31
0.0
  0
LINE
  5
16DC
  8
0
 10
10.121008466199999
 20
4.4508909574000004
 30
0.0
 11
12.7510084662
 21
4.4508909574000004
 31
0.0
  0
LINE
  5
16DD
  8
0
 10
10.1260084662
 20
4.0308909573999996
 30
0.0
 11
12.746008466199999
 21
4.0308909573999996
 31
0.0
  0
LINE
  5
16DE
  8
0
 10
12.746008466199999
 20
4.0308909573999996
 30
0.0
 11
12.746008466199999
 21
3.9658909574000001
 31
0.0
  0
ARC
  5
16DF
  8
0
 10
12.7310084662
 20
3.9658909574000001
 30
0.0
 40
0.0150000000000006
 50
270.00000000000671
 51
0.0000000000001018
  0
LINE
  5
16E0
  8
0
 10
12.7310084662
 20
3.9508909574
 30
0.0
 11
10.141008466200001
 21
3.9508909573996949
 31
0.0
  0
ARC
  5
16E1
  8
0
 10
12.39598294559241
 20
3.8908909574000341
 30
0.0
 40
0.0599999999999184
 50
89.999999999930495
 51
180.0000000029664
  0
LINE
  5
16E2
  8
0
 10
12.335982945592489
 20
3.8908909573969268
 30
0.0
 11
12.335982945607499
 21
3.6008909573999999
 31
0.0
  0
ARC
  5
16E3
  8
0
 10
12.305982945587269
 20
3.600890957398446
 30
0.0
 40
0.0300000000202365
 50
269.9978162768295
 51
0.0000000029670759
  0
LINE
  5
16E4
  8
0
 10
12.305981802192489
 20
3.5708909573999992
 30
0.0
 11
10.5659840890075
 21
3.5708909573999992
 31
0.0
  0
LINE
  5
16E5
  8
0
 10
12.1147584662
 20
3.5708909574000001
 30
0.0
 11
12.0710084662
 21
3.527140957399999
 31
0.0
  0
LINE
  5
16E6
  8
0
 10
12.0710084662
 20
3.527140957399999
 30
0.0
 11
12.0710084662
 21
2.5407437711999989
 31
0.0
  0
ARC
  5
16E7
  8
0
 10
12.13100846609767
 20
2.5407437711999989
 30
0.0
 40
0.0599999998976726
 50
179.9999999999996
 51
224.99999378938909
  0
LINE
  5
16E8
  8
0
 10
12.0885820547
 20
2.498317369
 30
0.0
 11
12.107221667645939
 21
2.479677752013155
 31
0.0
  0
ARC
  5
16E9
  8
0
 10
12.086008451556181
 20
2.458464540522229
 30
0.0
 40
0.0300000146438259
 50
0.0000192471139027
 51
44.999993789389187
  0
LINE
  5
16EA
  8
0
 10
12.1160084662
 20
2.4584645506
 30
0.0
 11
12.116008552725541
 21
2.2008909574000142
 31
0.0
  0
LINE
  5
16EB
  8
0
 10
12.116008552725541
 20
2.2008909574000142
 30
0.0
 11
10.756008466200001
 21
2.2008909574000142
 31
0.0
  0
LINE
  5
16ED
  8
0
 10
12.048567585861541
 20
2.2008909574000142
 30
0.0
 11
12.0610339869
 21
2.1936872209999998
 31
0.0
  0
LINE
  5
16EE
  8
0
 10
12.0610339869
 20
2.1936872209999998
 30
0.0
 11
12.0610339869
 21
2.1929751626999998
 31
0.0
  0
LINE
  5
16EF
  8
0
 10
12.0610339869
 20
2.1929751626999998
 30
0.0
 11
12.039101176999999
 21
2.1803296477999998
 31
0.0
  0
LINE
  5
16F0
  8
0
 10
12.039101176999999
 20
2.1803296477999998
 30
0.0
 11
12.039044177699999
 21
2.1763954665999998
 31
0.0
  0
LINE
  5
16F1
  8
0
 10
12.039044177699999
 20
2.1763954665999998
 30
0.0
 11
12.060981391
 21
2.1637281662999999
 31
0.0
  0
LINE
  5
16F2
  8
0
 10
12.060981391
 20
2.1637281662999999
 30
0.0
 11
12.060975145600001
 21
2.1629079777000002
 31
0.0
  0
LINE
  5
16F3
  8
0
 10
12.060975145600001
 20
2.1629079777000002
 30
0.0
 11
12.0390488895
 21
2.150263532299999
 31
0.0
  0
LINE
  5
16F4
  8
0
 10
12.0390488895
 20
2.150263532299999
 30
0.0
 11
12.039105959900001
 21
2.146362067294818
 31
0.0
  0
LINE
  5
16F5
  8
0
 10
12.039105959900001
 20
2.146362067294818
 30
0.0
 11
12.0609822873
 21
2.133730026099999
 31
0.0
  0
LINE
  5
16F6
  8
0
 10
12.0609822873
 20
2.133730026099999
 30
0.0
 11
12.061082750355
 21
2.1329209524828392
 31
0.0
  0
LINE
  5
16F7
  8
0
 10
12.061082750355
 20
2.1329209524828392
 30
0.0
 11
12.039111726
 21
2.1203289218000001
 31
0.0
  0
LINE
  5
16F8
  8
0
 10
12.039111726
 20
2.1203289218000001
 30
0.0
 11
12.0391117288
 21
2.1163289218000001
 31
0.0
  0
LINE
  5
16F9
  8
0
 10
12.0391117288
 20
2.1163289218000001
 30
0.0
 11
12.060982945599999
 21
2.1037327602000002
 31
0.0
  0
LINE
  5
16FA
  8
0
 10
12.060982945599999
 20
2.1037327602000002
 30
0.0
 11
12.0609574249
 21
-1.5941090425999991
 31
0.0
  0
LINE
  5
16FB
  8
0
 10
12.0609574249
 20
-1.5941090425999991
 30
0.0
 11
10.811008466200001
 21
-1.5941090426
 31
0.0
  0
ARC
  5
1705
  8
0
 10
10.4035084662
 20
7.2708909574000007
 30
0.0
 40
0.0300000000000003
 50
89.999999999999915
 51
248.99999949415681
  0
LINE
  5
1706
  8
0
 10
10.39275742771394
 20
7.2428835446049717
 30
0.0
 11
10.58560937571394
 21
7.1688546176049712
 31
0.0
  0
LINE
  5
1707
  8
0
 10
10.683525345813941
 20
6.5526243528049699
 30
0.0
 11
10.65988489391394
 21
6.6643316933049714
 31
0.0
  0
LINE
  5
1708
  8
0
 10
10.624025196113941
 20
7.1159799087049711
 30
0.0
 11
10.639587230813939
 21
6.8190385960049706
 31
0.0
  0
ARC
  5
1709
  8
0
 10
11.63821676501394
 20
6.8713745629049701
 30
0.0
 40
1.0
 50
183.0000070541999
 51
191.94914592859999
  0
ARC
  5
170A
  8
0
 10
10.56410742441394
 20
7.1128397438049697
 30
0.0
 40
0.06
 50
3.000007144299917
 51
69.000128556199925
  0
ARC
  5
170B
  8
0
 10
10.69820033431394
 20
6.5557299467049699
 30
0.0
 40
0.015
 50
191.94892082809989
 51
261.59758329020002
  0
LINE
  5
170C
  8
0
 10
10.73520052151661
 20
6.5408909541999991
 30
0.0
 11
10.717370821999999
 21
6.5282955777999998
 31
0.0
  0
LINE
  5
170D
  8
0
 10
10.717370821999999
 20
6.5282955777999998
 30
0.0
 11
10.717370821999999
 21
6.5256581338999986
 31
0.0
  0
LINE
  5
170E
  8
0
 10
10.717370821999999
 20
6.5256581338999986
 30
0.0
 11
10.747545901327941
 21
6.504477405231964
 31
0.0
  0
LINE
  5
170F
  8
0
 10
10.747545901327941
 20
6.504477405231964
 30
0.0
 11
10.7174427075
 21
6.4833967139999986
 31
0.0
  0
LINE
  5
1710
  8
0
 10
10.7174427075
 20
6.4833967139999986
 30
0.0
 11
10.717448382100001
 21
6.480550738699999
 31
0.0
  0
LINE
  5
1711
  8
0
 10
10.717448382100001
 20
6.480550738699999
 30
0.0
 11
10.747577624323389
 21
6.459474188907083
 31
0.0
  0
LINE
  5
1712
  8
0
 10
10.747577624323389
 20
6.459474188907083
 30
0.0
 11
10.717440399699999
 21
6.4383686221999996
 31
0.0
  0
LINE
  5
1713
  8
0
 10
10.717440399699999
 20
6.4383686221999996
 30
0.0
 11
10.717370821999999
 21
6.4356581338999987
 31
0.0
  0
LINE
  5
1714
  8
0
 10
10.717370821999999
 20
6.4356581338999987
 30
0.0
 11
10.738490924400001
 21
6.4208909574000002
 31
0.0
  0
LINE
  5
1715
  8
0
 10
10.822807546739609
 20
6.3524050606780582
 30
0.0
 11
10.82281574797733
 21
6.3497628625615841
 31
0.0
  0
LINE
  5
1716
  8
0
 10
10.82281574797733
 20
6.3497628625615841
 30
0.0
 11
10.85856237411784
 21
6.3283923712763732
 31
0.0
  0
LINE
  5
1717
  8
0
 10
10.85856237411784
 20
6.3283923712763732
 30
0.0
 11
10.822807546739609
 21
6.307405068478058
 31
0.0
  0
LINE
  5
1718
  8
0
 10
10.822807546739609
 20
6.307405068478058
 30
0.0
 11
10.822807546739609
 21
6.3047630215780579
 31
0.0
  0
LINE
  5
1719
  8
0
 10
10.822807546739609
 20
6.3047630215780579
 30
0.0
 11
10.85856479181748
 21
6.2833827436180512
 31
0.0
  0
LINE
  5
171A
  8
0
 10
10.85856479181748
 20
6.2833827436180512
 30
0.0
 11
10.822807546739609
 21
6.2624050684780581
 31
0.0
  0
LINE
  5
171B
  8
0
 10
10.822807546739609
 20
6.2624050684780581
 30
0.0
 11
10.822807546737611
 21
6.259767805153392
 31
0.0
  0
LINE
  5
171C
  8
0
 10
10.822807546737611
 20
6.259767805153392
 30
0.0
 11
10.858562374154401
 21
6.2383923713300051
 31
0.0
  0
LINE
  5
171D
  8
0
 10
10.858562374154401
 20
6.2383923713300051
 30
0.0
 11
10.822807546739609
 21
6.2174050684780582
 31
0.0
  0
LINE
  5
171E
  8
0
 10
10.822807546739609
 20
6.2174050684780582
 30
0.0
 11
10.822807546739609
 21
6.2147630221780581
 31
0.0
  0
LINE
  5
171F
  8
0
 10
10.822807546739609
 20
6.2147630221780581
 30
0.0
 11
10.85856237416316
 21
6.193392371338156
 31
0.0
  0
LINE
  5
1720
  8
0
 10
10.85856237416316
 20
6.193392371338156
 30
0.0
 11
10.82280745919549
 21
6.1724000330186417
 31
0.0
  0
LINE
  5
1721
  8
0
 10
10.82280745919549
 20
6.1724000330186417
 30
0.0
 11
10.822807546739609
 21
6.1697678051780578
 31
0.0
  0
LINE
  5
1722
  8
0
 10
10.822807546739609
 20
6.1697678051780578
 30
0.0
 11
10.85856131414562
 21
6.1483890685965603
 31
0.0
  0
LINE
  5
1723
  8
0
 10
10.85856131414562
 20
6.1483890685965603
 30
0.0
 11
10.822810664967751
 21
6.1274069133912414
 31
0.0
  0
LINE
  5
1724
  8
0
 10
10.822810664967751
 20
6.1274069133912414
 30
0.0
 11
10.822807546739609
 21
6.1247630217780582
 31
0.0
  0
LINE
  5
1725
  8
0
 10
10.822807546739609
 20
6.1247630217780582
 30
0.0
 11
10.85856237419598
 21
6.1033923713267164
 31
0.0
  0
LINE
  5
1726
  8
0
 10
10.85856237419598
 20
6.1033923713267164
 30
0.0
 11
10.82281556167937
 21
6.0824098105518818
 31
0.0
  0
LINE
  5
1727
  8
0
 10
10.82281556167937
 20
6.0824098105518818
 30
0.0
 11
10.822807546739609
 21
6.0797678051780579
 31
0.0
  0
LINE
  5
1728
  8
0
 10
10.822807546739609
 20
6.0797678051780579
 30
0.0
 11
10.85856853027375
 21
6.0583759709761322
 31
0.0
  0
LINE
  5
1729
  8
0
 10
10.745647353400001
 20
5.9208909574000002
 30
0.0
 11
10.74741423559237
 21
5.9196163436059024
 31
0.0
  0
LINE
  5
172A
  8
0
 10
10.74741423559237
 20
5.9196163436059024
 30
0.0
 11
10.7172329455991
 21
5.8984120004291318
 31
0.0
  0
LINE
  5
172B
  8
0
 10
10.7172329455991
 20
5.8984120004291318
 30
0.0
 11
10.7172329455991
 21
5.8957745565291306
 31
0.0
  0
LINE
  5
172C
  8
0
 10
10.7172329455991
 20
5.8957745565291306
 30
0.0
 11
10.7475627506991
 21
5.8746977381291323
 31
0.0
  0
LINE
  5
172D
  8
0
 10
10.7475627506991
 20
5.8746977381291323
 30
0.0
 11
10.717302033799101
 21
5.853506627029132
 31
0.0
  0
LINE
  5
172E
  8
0
 10
10.717302033799101
 20
5.853506627029132
 30
0.0
 11
10.7172329455991
 21
5.8507745565291307
 31
0.0
  0
LINE
  5
172F
  8
0
 10
10.7172329455991
 20
5.8507745565291307
 30
0.0
 11
10.74744195439834
 21
5.8295956503388782
 31
0.0
  0
LINE
  5
1730
  8
0
 10
10.74744195439834
 20
5.8295956503388782
 30
0.0
 11
10.7173098630991
 21
5.8084936109291316
 31
0.0
  0
LINE
  5
1731
  8
0
 10
10.7173098630991
 20
5.8084936109291316
 30
0.0
 11
10.7172329455991
 21
5.8057745565291308
 31
0.0
  0
LINE
  5
1732
  8
0
 10
10.7172329455991
 20
5.8057745565291308
 30
0.0
 11
10.74744807738789
 21
5.7845924897476868
 31
0.0
  0
LINE
  5
1733
  8
0
 10
10.74744807738789
 20
5.7845924897476868
 30
0.0
 11
10.7180383506991
 21
5.7639961437799583
 31
0.0
  0
LINE
  5
1734
  8
0
 10
10.7180383506991
 20
5.7639961437799583
 30
0.0
 11
10.7172718458991
 21
5.7607218672791323
 31
0.0
  0
LINE
  5
1735
  8
0
 10
10.7172718458991
 20
5.7607218672791323
 30
0.0
 11
10.74743247629547
 21
5.7395900322979143
 31
0.0
  0
LINE
  5
1736
  8
0
 10
10.74743247629547
 20
5.7395900322979143
 30
0.0
 11
10.717301432799101
 21
5.7184890258291317
 31
0.0
  0
LINE
  5
1737
  8
0
 10
10.717301432799101
 20
5.7184890258291317
 30
0.0
 11
10.7172329455991
 21
5.7157745565291309
 31
0.0
  0
LINE
  5
1738
  8
0
 10
10.7172329455991
 20
5.7157745565291309
 30
0.0
 11
10.747410882926561
 21
5.694591201442317
 31
0.0
  0
LINE
  5
1739
  8
0
 10
10.747410882926561
 20
5.694591201442317
 30
0.0
 11
10.7172329455991
 21
5.6734120004291331
 31
0.0
  0
LINE
  5
173A
  8
0
 10
10.7172329455991
 20
5.6734120004291331
 30
0.0
 11
10.7172329455991
 21
5.670774556529131
 31
0.0
  0
LINE
  5
173B
  8
0
 10
10.7172329455991
 20
5.670774556529131
 30
0.0
 11
10.74741197881572
 21
5.649595559498052
 31
0.0
  0
LINE
  5
173C
  8
0
 10
10.74741197881572
 20
5.649595559498052
 30
0.0
 11
10.717308050499099
 21
5.6285142113291311
 31
0.0
  0
LINE
  5
173D
  8
0
 10
10.717308050499099
 20
5.6285142113291311
 30
0.0
 11
10.74744239808096
 21
5.6045916335901476
 31
0.0
  0
LINE
  5
173E
  8
0
 10
10.74744239808096
 20
5.6045916335901476
 30
0.0
 11
10.717304138599101
 21
5.5834852560291308
 31
0.0
  0
LINE
  5
173F
  8
0
 10
10.717304138599101
 20
5.5834852560291308
 30
0.0
 11
10.7172329455991
 21
5.580774556529132
 31
0.0
  0
LINE
  5
1740
  8
0
 10
10.7172329455991
 20
5.580774556529132
 30
0.0
 11
10.74741314035872
 21
5.5594802734291298
 31
0.0
  0
LINE
  5
1741
  8
0
 10
10.74741314035872
 20
5.5594802734291298
 30
0.0
 11
10.7172329455991
 21
5.5384120004291324
 31
0.0
  0
LINE
  5
1742
  8
0
 10
10.7172329455991
 20
5.5384120004291324
 30
0.0
 11
10.7172329455991
 21
5.5357745565291312
 31
0.0
  0
LINE
  5
1743
  8
0
 10
10.7172329455991
 20
5.5357745565291312
 30
0.0
 11
10.74744152913703
 21
5.5145914379886207
 31
0.0
  0
LINE
  5
1744
  8
0
 10
10.74744152913703
 20
5.5145914379886207
 30
0.0
 11
10.7172329455991
 21
5.4934358388648814
 31
0.0
  0
LINE
  5
1745
  8
0
 10
10.7172329455991
 20
5.4934358388648814
 30
0.0
 11
10.7172329455991
 21
5.4907745565291313
 31
0.0
  0
LINE
  5
1746
  8
0
 10
10.7172329455991
 20
5.4907745565291313
 30
0.0
 11
10.74741439240257
 21
5.4696197779848301
 31
0.0
  0
LINE
  5
1747
  8
0
 10
10.738490924400001
 20
6.4208909574000002
 30
0.0
 11
10.7864912127
 21
6.4208909574000002
 31
0.0
  0
ARC
  5
1748
  8
0
 10
10.80028098576704
 20
7.9084342060858486
 30
0.0
 40
1.4876071640564541
 50
269.46887381829259
 51
270.21077710497781
  0
LINE
  5
174B
  8
0
 10
10.806009979251019
 20
6.3970671184971817
 30
0.0
 11
10.807495847934319
 21
6.3944502314017546
 31
0.0
  0
LINE
  5
174C
  8
0
 10
10.807495847934319
 20
6.3944502314017546
 30
0.0
 11
10.855249481739611
 21
6.3737166078780589
 31
0.0
  0
LINE
  5
174D
  8
0
 10
10.85856853027375
 20
6.0583759709761322
 30
0.0
 11
10.82282171775714
 21
6.0373934102012976
 31
0.0
  0
LINE
  5
174E
  8
0
 10
10.82282171775714
 20
6.0373934102012976
 30
0.0
 11
10.822813702817379
 21
6.0347514048274737
 31
0.0
  0
LINE
  5
174F
  8
0
 10
10.822813702817379
 20
6.0347514048274737
 30
0.0
 11
10.8586668377176
 21
6.0137819455042756
 31
0.0
  0
LINE
  5
1750
  8
0
 10
10.8586668377176
 20
6.0137819455042756
 30
0.0
 11
10.82008781883961
 21
5.9923576772780578
 31
0.0
  0
LINE
  5
1751
  8
0
 10
10.82008781883961
 20
5.9923576772780578
 30
0.0
 11
10.81950149621693
 21
5.9897039121939608
 31
0.0
  0
LINE
  5
1752
  8
0
 10
10.81950149621693
 20
5.9897039121939608
 30
0.0
 11
10.84781099639228
 21
5.9685717598485839
 31
0.0
  0
LINE
  5
1753
  8
0
 10
10.84781099639229
 20
5.9685717598485803
 30
0.0
 11
10.80728837578569
 21
5.9469585574866244
 31
0.0
  0
LINE
  5
1759
  8
0
 10
10.80670266228638
 20
5.9208930768510708
 30
0.0
 11
10.745647353400001
 21
5.9208909574000002
 31
0.0
  0
LINE
  5
175C
  8
0
 10
10.716861055544401
 20
4.9508909574000004
 30
0.0
 11
10.716854062199999
 21
4.9506265974642503
 31
0.0
  0
LINE
  5
175D
  8
0
 10
10.716854062199999
 20
4.9506265974642503
 30
0.0
 11
10.74704536146721
 21
4.929435889679227
 31
0.0
  0
LINE
  5
175E
  8
0
 10
10.74704536146721
 20
4.929435889679227
 30
0.0
 11
10.716854062199999
 21
4.90825327786425
 31
0.0
  0
LINE
  5
175F
  8
0
 10
10.716854062199999
 20
4.90825327786425
 30
0.0
 11
10.716854062199999
 21
4.9056158339642488
 31
0.0
  0
LINE
  5
1760
  8
0
 10
10.716854062199999
 20
4.9056158339642488
 30
0.0
 11
10.7471838673
 21
4.8845390155642496
 31
0.0
  0
LINE
  5
1761
  8
0
 10
10.7471838673
 20
4.8845390155642496
 30
0.0
 11
10.7169231504
 21
4.8633479044642502
 31
0.0
  0
LINE
  5
1762
  8
0
 10
10.7169231504
 20
4.8633479044642502
 30
0.0
 11
10.716854062199999
 21
4.8606158339642489
 31
0.0
  0
LINE
  5
1763
  8
0
 10
10.716854062199999
 20
4.8606158339642489
 30
0.0
 11
10.74706307099925
 21
4.8394369277739964
 31
0.0
  0
LINE
  5
1764
  8
0
 10
10.74706307099925
 20
4.8394369277739964
 30
0.0
 11
10.716930979700001
 21
4.8183348883642498
 31
0.0
  0
LINE
  5
1765
  8
0
 10
10.716930979700001
 20
4.8183348883642498
 30
0.0
 11
10.716854062199999
 21
4.815615833964249
 31
0.0
  0
LINE
  5
1766
  8
0
 10
10.716854062199999
 20
4.815615833964249
 30
0.0
 11
10.747069193988789
 21
4.794433767182805
 31
0.0
  0
LINE
  5
1767
  8
0
 10
10.747069193988789
 20
4.794433767182805
 30
0.0
 11
10.717659467300001
 21
4.7738374212150756
 31
0.0
  0
LINE
  5
1768
  8
0
 10
10.717659467300001
 20
4.7738374212150756
 30
0.0
 11
10.716892962499999
 21
4.7705631447142496
 31
0.0
  0
LINE
  5
1769
  8
0
 10
10.716892962499999
 20
4.7705631447142496
 30
0.0
 11
10.74705359289638
 21
4.7494313097330316
 31
0.0
  0
LINE
  5
176A
  8
0
 10
10.74705359289638
 20
4.7494313097330316
 30
0.0
 11
10.7169225494
 21
4.7283303032642499
 31
0.0
  0
LINE
  5
176B
  8
0
 10
10.7169225494
 20
4.7283303032642499
 30
0.0
 11
10.716854062199999
 21
4.72561583396425
 31
0.0
  0
LINE
  5
176C
  8
0
 10
10.716854062199999
 20
4.72561583396425
 30
0.0
 11
10.74703199952746
 21
4.7044324788774361
 31
0.0
  0
LINE
  5
176D
  8
0
 10
10.74703199952746
 20
4.7044324788774361
 30
0.0
 11
10.716854062199999
 21
4.6832532778642513
 31
0.0
  0
LINE
  5
176E
  8
0
 10
10.716854062199999
 20
4.6832532778642513
 30
0.0
 11
10.716854062199999
 21
4.6806158339642501
 31
0.0
  0
LINE
  5
176F
  8
0
 10
10.716854062199999
 20
4.6806158339642501
 30
0.0
 11
10.74703309541662
 21
4.6594368369331702
 31
0.0
  0
LINE
  5
1770
  8
0
 10
10.74703309541662
 20
4.6594368369331702
 30
0.0
 11
10.7169291671
 21
4.6383554887642502
 31
0.0
  0
LINE
  5
1771
  8
0
 10
10.7169291671
 20
4.6383554887642502
 30
0.0
 11
10.74706351468186
 21
4.6144329110252658
 31
0.0
  0
LINE
  5
1772
  8
0
 10
10.74706351468186
 20
4.6144329110252658
 30
0.0
 11
10.7169252552
 21
4.593326533464249
 31
0.0
  0
LINE
  5
1773
  8
0
 10
10.7169252552
 20
4.593326533464249
 30
0.0
 11
10.716854062199999
 21
4.5906158339642502
 31
0.0
  0
LINE
  5
1774
  8
0
 10
10.716854062199999
 20
4.5906158339642502
 30
0.0
 11
10.747034256959619
 21
4.569321550864248
 31
0.0
  0
LINE
  5
1775
  8
0
 10
10.747034256959619
 20
4.569321550864248
 30
0.0
 11
10.716854062199999
 21
4.5482532778642497
 31
0.0
  0
LINE
  5
1776
  8
0
 10
10.716854062199999
 20
4.5482532778642497
 30
0.0
 11
10.716854062199999
 21
4.5456158339642494
 31
0.0
  0
LINE
  5
1777
  8
0
 10
10.716854062199999
 20
4.5456158339642494
 30
0.0
 11
10.74706264573793
 21
4.5244327154237389
 31
0.0
  0
LINE
  5
1778
  8
0
 10
10.74706264573793
 20
4.5244327154237389
 30
0.0
 11
10.716854062199999
 21
4.5032771162999987
 31
0.0
  0
LINE
  5
1779
  8
0
 10
10.716854062199999
 20
4.5032771162999987
 30
0.0
 11
10.716854062199999
 21
4.5006158339642486
 31
0.0
  0
LINE
  5
177A
  8
0
 10
10.716854062199999
 20
4.5006158339642486
 30
0.0
 11
10.747290935900001
 21
4.4794282457642494
 31
0.0
  0
LINE
  5
177B
  8
0
 10
10.727756812389719
 20
4.420890957400001
 30
0.0
 11
10.71714672293929
 21
4.4135345088841289
 31
0.0
  0
LINE
  5
177C
  8
0
 10
10.71714672293929
 20
4.4135345088841289
 30
0.0
 11
10.717074552139289
 21
4.4108063337841301
 31
0.0
  0
LINE
  5
177D
  8
0
 10
10.717074552139289
 20
4.4108063337841301
 30
0.0
 11
10.7472658514065
 21
4.3896156259991068
 31
0.0
  0
LINE
  5
177E
  8
0
 10
10.7472658514065
 20
4.3896156259991068
 30
0.0
 11
10.717074552139289
 21
4.3684330141841299
 31
0.0
  0
LINE
  5
177F
  8
0
 10
10.717074552139289
 20
4.3684330141841299
 30
0.0
 11
10.717074552139289
 21
4.3657955702841287
 31
0.0
  0
LINE
  5
1780
  8
0
 10
10.717074552139289
 20
4.3657955702841287
 30
0.0
 11
10.74740435723929
 21
4.3447187518841304
 31
0.0
  0
LINE
  5
1781
  8
0
 10
10.74740435723929
 20
4.3447187518841304
 30
0.0
 11
10.717143640339289
 21
4.3235276407841301
 31
0.0
  0
LINE
  5
1782
  8
0
 10
10.717143640339289
 20
4.3235276407841301
 30
0.0
 11
10.717074552139289
 21
4.3207955702841288
 31
0.0
  0
LINE
  5
1783
  8
0
 10
10.717074552139289
 20
4.3207955702841288
 30
0.0
 11
10.74728356093854
 21
4.2996166640938762
 31
0.0
  0
LINE
  5
1784
  8
0
 10
10.74728356093854
 20
4.2996166640938762
 30
0.0
 11
10.71715146963929
 21
4.2785146246841297
 31
0.0
  0
LINE
  5
1785
  8
0
 10
10.71715146963929
 20
4.2785146246841297
 30
0.0
 11
10.717074552139289
 21
4.2757955702841288
 31
0.0
  0
LINE
  5
1786
  8
0
 10
10.717074552139289
 20
4.2757955702841288
 30
0.0
 11
10.747289683928081
 21
4.2546135035026849
 31
0.0
  0
LINE
  5
1787
  8
0
 10
10.747289683928081
 20
4.2546135035026849
 30
0.0
 11
10.71787995723929
 21
4.2340171575349563
 31
0.0
  0
LINE
  5
1788
  8
0
 10
10.71787995723929
 20
4.2340171575349563
 30
0.0
 11
10.717113452439291
 21
4.2307428810341303
 31
0.0
  0
LINE
  5
1789
  8
0
 10
10.717113452439291
 20
4.2307428810341303
 30
0.0
 11
10.74727408283567
 21
4.2096110460529124
 31
0.0
  0
LINE
  5
178A
  8
0
 10
10.74727408283567
 20
4.2096110460529124
 30
0.0
 11
10.717143039339289
 21
4.1885100395841297
 31
0.0
  0
LINE
  5
178B
  8
0
 10
10.717143039339289
 20
4.1885100395841297
 30
0.0
 11
10.717074552139289
 21
4.185795570284129
 31
0.0
  0
LINE
  5
178C
  8
0
 10
10.717074552139289
 20
4.185795570284129
 30
0.0
 11
10.747252489466749
 21
4.1646122151973151
 31
0.0
  0
LINE
  5
178D
  8
0
 10
10.747252489466749
 20
4.1646122151973151
 30
0.0
 11
10.717074552139289
 21
4.1434330141841311
 31
0.0
  0
LINE
  5
178E
  8
0
 10
10.717074552139289
 20
4.1434330141841311
 30
0.0
 11
10.717074552139289
 21
4.140795570284129
 31
0.0
  0
LINE
  5
178F
  8
0
 10
10.717074552139289
 20
4.140795570284129
 30
0.0
 11
10.74725358535591
 21
4.1196165732530501
 31
0.0
  0
LINE
  5
1790
  8
0
 10
10.74725358535591
 20
4.1196165732530501
 30
0.0
 11
10.71714965703929
 21
4.09853522508413
 31
0.0
  0
LINE
  5
1791
  8
0
 10
10.71714965703929
 20
4.09853522508413
 30
0.0
 11
10.74728400462115
 21
4.0746126473451456
 31
0.0
  0
LINE
  5
1792
  8
0
 10
10.74728400462115
 20
4.0746126473451456
 30
0.0
 11
10.71720424117183
 21
4.0535947076056322
 31
0.0
  0
LINE
  5
1793
  8
0
 10
10.71720424117337
 20
4.0535947076067096
 30
0.0
 11
10.717074597139289
 21
4.0508239707841289
 31
0.0
  0
LINE
  5
1794
  8
0
 10
10.717074597139289
 20
4.0508239707841289
 30
0.0
 11
10.7456486081
 21
4.0308909573999996
 31
0.0
  0
LINE
  5
1795
  8
0
 10
10.82280723853961
 20
6.3524096679780593
 30
0.0
 11
10.85524947841702
 21
6.3737166095257161
 31
0.0
  0
LINE
  5
1796
  8
0
 10
12.124627443972051
 20
6.5270684578319633
 30
0.0
 11
10.747545901327941
 21
6.504477405231964
 31
0.0
  0
LINE
  5
1797
  8
0
 10
10.747577624323389
 20
6.459474188907083
 30
0.0
 11
12.1245957209766
 21
6.4820652415070832
 31
0.0
  0
LINE
  5
1798
  8
0
 10
12.02069839284302
 20
6.3881578025257468
 30
0.0
 11
11.79267848436124
 21
6.3853281551306607
 31
0.0
  0
LINE
  5
1799
  8
0
 10
11.073376069656129
 20
6.3764234843105054
 30
0.0
 11
10.85524947841702
 21
6.3737166095257161
 31
0.0
  0
LINE
  5
179A
  8
0
 10
12.012666098408349
 20
6.3429847678386988
 30
0.0
 11
11.81025547342843
 21
6.3404217597261816
 31
0.0
  0
LINE
  5
179B
  8
0
 10
11.061008489579431
 20
6.3309558287842336
 30
0.0
 11
10.85856237411784
 21
6.3283923712763732
 31
0.0
  0
LINE
  5
179C
  8
0
 10
12.012669923250209
 20
6.2980020042951956
 30
0.0
 11
11.811008466200001
 21
6.2954437958787528
 31
0.0
  0
LINE
  5
179D
  8
0
 10
11.061008466200001
 20
6.2859508749765993
 30
0.0
 11
10.85856479181748
 21
6.2833827436180512
 31
0.0
  0
LINE
  5
179E
  8
0
 10
10.858562374154401
 20
6.2383923713300051
 30
0.0
 11
11.061008466200001
 21
6.2409571588522832
 31
0.0
  0
LINE
  5
179F
  8
0
 10
11.811008466200001
 20
6.2504375602773452
 30
0.0
 11
12.01266750555056
 21
6.2529923766368736
 31
0.0
  0
LINE
  5
17A0
  8
0
 10
12.01266992321365
 20
6.2080020043488284
 30
0.0
 11
11.811008466200001
 21
6.2054454819935776
 31
0.0
  0
LINE
  5
17A1
  8
0
 10
11.061008466200001
 20
6.1959588407452957
 30
0.0
 11
10.85856237416316
 21
6.193392371338156
 31
0.0
  0
LINE
  5
17A2
  8
0
 10
10.85856131414562
 20
6.1483890685965603
 30
0.0
 11
11.061008466200001
 21
6.1509561278954186
 31
0.0
  0
LINE
  5
17A3
  8
0
 10
11.811008466200001
 20
6.1604449077854886
 30
0.0
 11
12.01266992320488
 21
6.1630020043569802
 31
0.0
  0
LINE
  5
17A4
  8
0
 10
12.012670983222421
 20
6.1179987016153827
 30
0.0
 11
11.811008466200001
 21
6.1154427447283366
 31
0.0
  0
LINE
  5
17A5
  8
0
 10
11.061008466200001
 20
6.1059582595778057
 30
0.0
 11
10.85856237419598
 21
6.1033923713267164
 31
0.0
  0
LINE
  5
17A6
  8
0
 10
10.85856853027375
 20
6.0583759709761322
 30
0.0
 11
11.061008466200001
 21
6.060945250103944
 31
0.0
  0
LINE
  5
17A7
  8
0
 10
11.811008466200001
 20
6.070442605332139
 30
0.0
 11
12.012669923172069
 21
6.0730020043455388
 31
0.0
  0
LINE
  5
17A8
  8
0
 10
12.012663767094301
 20
6.0279856039949546
 30
0.0
 11
11.811008466200001
 21
6.0254997906658918
 31
0.0
  0
LINE
  5
17A9
  8
0
 10
11.061008466200001
 20
6.0162762192222274
 30
0.0
 11
10.8586668377176
 21
6.0137819455042756
 31
0.0
  0
LINE
  5
17AA
  8
0
 10
10.84781099639228
 20
5.9685717598485839
 30
0.0
 11
11.07016648083315
 21
5.9713362686520712
 31
0.0
  0
LINE
  5
17AB
  8
0
 10
11.80570751203955
 20
5.9804595322958534
 30
0.0
 11
12.018350047698529
 21
5.9831032816205143
 31
0.0
  0
LINE
  5
17AC
  8
0
 10
12.03556869159998
 20
5.9384607700000078
 30
0.0
 11
11.768635773421231
 21
5.9345417072357742
 31
0.0
  0
LINE
  5
17AE
  8
0
 10
12.124541646332791
 20
5.897118450679228
 30
0.0
 11
10.7475627507
 21
5.8746977381285008
 31
0.0
  0
LINE
  5
17AF
  8
0
 10
10.747441954399241
 20
5.8295956503382467
 30
0.0
 11
12.1244031405
 21
5.8522215765642498
 31
0.0
  0
LINE
  5
17B0
  8
0
 10
12.124523936800751
 20
5.8071194887739956
 30
0.0
 11
10.747448077388791
 21
5.7845924897470571
 31
0.0
  0
LINE
  5
17B1
  8
0
 10
10.747432476296369
 20
5.7395900322972828
 30
0.0
 11
12.12451781381121
 21
5.7621163281828061
 31
0.0
  0
LINE
  5
17B2
  8
0
 10
12.12453341490362
 20
5.7171138707330318
 30
0.0
 11
10.747410882927451
 21
5.6945912014416873
 31
0.0
  0
LINE
  5
17B3
  8
0
 10
10.74741197881662
 20
5.6495955594974214
 30
0.0
 11
12.124555008272541
 21
5.6721150398774363
 31
0.0
  0
LINE
  5
17B4
  8
0
 10
12.12455391238338
 20
5.6271193979331704
 30
0.0
 11
10.74744239808186
 21
5.604591633589517
 31
0.0
  0
LINE
  5
17B5
  8
0
 10
10.747413140359621
 20
5.5594802734285
 30
0.0
 11
12.12452349311814
 21
5.5821154720252659
 31
0.0
  0
LINE
  5
17B6
  8
0
 10
12.12455275084038
 20
5.537004111864249
 30
0.0
 11
10.74744152913793
 21
5.514591437987991
 31
0.0
  0
LINE
  5
17B7
  8
0
 10
12.12452436206207
 20
5.4921152764237391
 30
0.0
 11
10.747414392403471
 21
5.4696197779841986
 31
0.0
  0
LINE
  5
17B8
  8
0
 10
10.747414392403471
 20
5.4696197779841986
 30
0.0
 11
10.7206600798
 21
5.4508909574000004
 31
0.0
  0
LINE
  5
17B9
  8
0
 10
10.717232945599999
 20
4.4584596773999996
 30
0.0
 11
10.747290935900001
 21
4.4794282457642494
 31
0.0
  0
LINE
  5
17BA
  8
0
 10
12.054619300006211
 20
4.9508909573999986
 30
0.0
 11
10.74704536146721
 21
4.929435889679227
 31
0.0
  0
LINE
  5
17BB
  8
0
 10
12.124307104532789
 20
4.906935889679227
 30
0.0
 11
10.7471838673
 21
4.8845390155642496
 31
0.0
  0
LINE
  5
17BC
  8
0
 10
12.124168598700001
 20
4.8620390155642497
 30
0.0
 11
10.74706307099925
 21
4.8394369277739964
 31
0.0
  0
LINE
  5
17BD
  8
0
 10
12.12428939500076
 20
4.8169369277739964
 30
0.0
 11
10.747069193988789
 21
4.794433767182805
 31
0.0
  0
LINE
  5
17BE
  8
0
 10
12.12428327201121
 20
4.771933767182805
 30
0.0
 11
10.74705359289638
 21
4.7494313097330316
 31
0.0
  0
LINE
  5
17BF
  8
0
 10
12.12429887310363
 20
4.7269313097330317
 30
0.0
 11
10.74703199952746
 21
4.7044324788774361
 31
0.0
  0
LINE
  5
17C0
  8
0
 10
12.12432046647254
 20
4.6819324788774361
 30
0.0
 11
10.74703309541662
 21
4.6594368369331702
 31
0.0
  0
LINE
  5
17C1
  8
0
 10
12.124319370583381
 20
4.6369368369331703
 30
0.0
 11
10.74706351468186
 21
4.6144329110252658
 31
0.0
  0
LINE
  5
17C2
  8
0
 10
10.747034256959619
 20
4.569321550864248
 30
0.0
 11
12.124288951318141
 21
4.5919329110252658
 31
0.0
  0
LINE
  5
17C3
  8
0
 10
12.12431820904038
 20
4.546821550864248
 30
0.0
 11
10.74706264573793
 21
4.5244327154237389
 31
0.0
  0
LINE
  5
17C4
  8
0
 10
10.747290935900001
 20
4.4794282457642494
 30
0.0
 11
12.124289820262071
 21
4.501932715423739
 31
0.0
  0
LINE
  5
17C5
  8
0
 10
12.1243833916
 20
4.4120276337999993
 30
0.0
 11
10.7474211634672
 21
4.3896181640149781
 31
0.0
  0
LINE
  5
17C6
  8
0
 10
12.12453865493279
 20
4.3671181640149781
 30
0.0
 11
10.74755966929999
 21
4.3447212898999998
 31
0.0
  0
LINE
  5
17C7
  8
0
 10
10.74743887299924
 20
4.2996192021097457
 30
0.0
 11
12.1244001491
 21
4.3222212898999999
 31
0.0
  0
LINE
  5
17C8
  8
0
 10
12.12452094540075
 20
4.2771192021097457
 30
0.0
 11
10.747444995988779
 21
4.2546160415185561
 31
0.0
  0
LINE
  5
17C9
  8
0
 10
10.74742939489637
 20
4.2096135840687818
 30
0.0
 11
12.124514822411211
 21
4.2321160415185561
 31
0.0
  0
LINE
  5
17CA
  8
0
 10
12.12453042350362
 20
4.1871135840687819
 30
0.0
 11
10.74740780152745
 21
4.1646147532131863
 31
0.0
  0
LINE
  5
17CB
  8
0
 10
10.74740889741661
 20
4.1196191112689204
 30
0.0
 11
12.12455201687254
 21
4.1421147532131863
 31
0.0
  0
LINE
  5
17CC
  8
0
 10
12.124550920983379
 20
4.0971191112689196
 30
0.0
 11
10.747439316681859
 21
4.074615185361016
 31
0.0
  0
ARC
  5
17CD
  8
0
 10
10.47598294560758
 20
3.8908909574000341
 30
0.0
 40
0.0599999999999184
 50
359.99999999703363
 51
90.000000000069505
  0
LINE
  5
17CE
  8
0
 10
10.5359829456075
 20
3.8908909573969268
 30
0.0
 11
10.53598294559249
 21
3.6008909573999999
 31
0.0
  0
ARC
  5
17CF
  8
0
 10
10.565982945612721
 20
3.600890957398446
 30
0.0
 40
0.0300000000202365
 50
179.99999999703289
 51
270.00218372317039
  0
LINE
  5
17D0
  8
0
 10
10.7572584662
 20
3.5708909574000001
 30
0.0
 11
10.801008466200001
 21
3.527140957399999
 31
0.0
  0
LINE
  5
17D1
  8
0
 10
10.801008466200001
 20
3.527140957399999
 30
0.0
 11
10.801008466200001
 21
2.5407437711999989
 31
0.0
  0
ARC
  5
17D2
  8
0
 10
10.741008466302331
 20
2.5407437711999989
 30
0.0
 40
0.0599999998976726
 50
315.00000621061088
 51
0.0000000000004141
  0
LINE
  5
17D3
  8
0
 10
10.7834348777
 20
2.498317369
 30
0.0
 11
10.76479526475406
 21
2.479677752013155
 31
0.0
  0
ARC
  5
17D4
  8
0
 10
10.786008480843821
 20
2.458464540522229
 30
0.0
 40
0.0300000146438259
 50
135.00000621061079
 51
179.9999807528861
  0
LINE
  5
17D5
  8
0
 10
10.756008466200001
 20
2.4584645506
 30
0.0
 11
10.75600837967446
 21
2.2008909574000142
 31
0.0
  0
LINE
  5
17D6
  8
0
 10
10.8329754579
 20
2.195324000699999
 30
0.0
 11
10.83308389095501
 21
2.1914444928171601
 31
0.0
  0
LINE
  5
17D7
  8
0
 10
10.83308389095501
 20
2.1914444928171601
 30
0.0
 11
10.81109062065501
 21
2.1787356347171611
 31
0.0
  0
LINE
  5
17D8
  8
0
 10
10.81109062065501
 20
2.1787356347171611
 30
0.0
 11
10.81109062065501
 21
2.1780235764171598
 31
0.0
  0
LINE
  5
17D9
  8
0
 10
10.81109062065501
 20
2.1780235764171598
 30
0.0
 11
10.833023430555009
 21
2.1653780615171598
 31
0.0
  0
LINE
  5
17DA
  8
0
 10
10.833023430555009
 20
2.1653780615171598
 30
0.0
 11
10.833080429855009
 21
2.1614438803171598
 31
0.0
  0
LINE
  5
17DB
  8
0
 10
10.833080429855009
 20
2.1614438803171598
 30
0.0
 11
10.81114321655501
 21
2.1487765800171599
 31
0.0
  0
LINE
  5
17DC
  8
0
 10
10.81114321655501
 20
2.1487765800171599
 30
0.0
 11
10.81114946195501
 21
2.1479563914171602
 31
0.0
  0
LINE
  5
17DD
  8
0
 10
10.81114946195501
 20
2.1479563914171602
 30
0.0
 11
10.83307571805501
 21
2.1353119460171599
 31
0.0
  0
LINE
  5
17DE
  8
0
 10
10.83307571805501
 20
2.1353119460171599
 30
0.0
 11
10.83301864765501
 21
2.1314104810119789
 31
0.0
  0
LINE
  5
17DF
  8
0
 10
10.83301864765501
 20
2.1314104810119789
 30
0.0
 11
10.81114232025501
 21
2.1187784398171599
 31
0.0
  0
LINE
  5
17E0
  8
0
 10
10.81114232025501
 20
2.1187784398171599
 30
0.0
 11
10.811041857199999
 21
2.1179693662000001
 31
0.0
  0
LINE
  5
17E1
  8
0
 10
10.811041857199999
 20
2.1179693662000001
 30
0.0
 11
10.83301288155501
 21
2.1053773355171601
 31
0.0
  0
LINE
  5
17E2
  8
0
 10
10.83301288155501
 20
2.1053773355171601
 30
0.0
 11
10.83301287875501
 21
2.1013773355171601
 31
0.0
  0
LINE
  5
17E3
  8
0
 10
10.83301287875501
 20
2.1013773355171601
 30
0.0
 11
10.810982945599999
 21
2.088734577499999
 31
0.0
  0
LINE
  5
17E4
  8
0
 10
10.810982945599999
 20
2.088734577499999
 30
0.0
 11
10.8110595075
 21
-1.5941090425999991
 31
0.0
  0
LINE
  5
17EE
  8
0
 10
10.126008466199989
 20
4.0308909573999889
 30
0.0
 11
10.126008466199989
 21
3.965890957399989
 31
0.0
  0
ARC
  5
17EF
  8
0
 10
10.14100846619999
 20
3.965890957399989
 30
0.0
 40
0.0150000000000006
 50
180.0000000000004
 51
269.9999999999938
  0
LINE
  5
17F0
  8
0
 10
12.039101176999999
 20
2.1803296477999998
 30
0.0
 11
10.832966796799999
 21
2.1654107141045889
 31
0.0
  0
LINE
  5
17F1
  8
0
 10
12.0390488895
 20
2.150263532299999
 30
0.0
 11
10.83307571805501
 21
2.1353119460171599
 31
0.0
  0
LINE
  5
17F2
  8
0
 10
10.83301288155501
 20
2.1053773355171601
 30
0.0
 11
12.03911172599941
 21
2.1203297661089051
 31
0.0
  0
LINE
  5
17F3
  8
0
 10
12.060116115199371
 20
6.4192590879409632
 30
0.0
 11
11.74981450932475
 21
6.4161564948667591
 31
0.0
  0
LINE
  5
17F4
  8
0
 10
12.12461831604217
 20
6.4370648483444421
 30
0.0
 11
10.82007075078479
 21
6.4181281560158183
 31
0.0
  0
LINE
  5
17F5
  8
0
 10
12.12452916230025
 20
4.4571383848338879
 30
0.0
 11
12.133450049
 21
4.4508909574000004
 31
0.0
  0
LINE
  5
1882
  8
0
 10
10.717232945599999
 20
4.458432554899999
 30
0.0
 11
10.717232945599999
 21
4.4558326351000002
 31
0.0
  0
LINE
  5
1883
  8
0
 10
10.717232945599999
 20
4.4558326351000002
 30
0.0
 11
10.724221419299999
 21
4.4508909574000004
 31
0.0
  0
LINE
  5
1884
  8
0
 10
10.8329754579
 20
2.195324000699999
 30
0.0
 11
10.8233346703
 21
2.2008909573999991
 31
0.0
  0
LINE
  5
1885
  8
0
 10
10.810982945599999
 20
2.088734577499999
 30
0.0
 11
12.060982945599999
 21
2.1037327602000002
 31
0.0
  0
ARC
  5
18CD
  8
0
 10
12.08751895844043
 20
6.4174178886411051
 30
0.0
 40
0.0104523401875402
 50
184.038642770835
 51
207.2920973663833
  0
ARC
  5
18CE
  8
0
 10
12.080486541458971
 20
6.4169213677553403
 30
0.0
 40
0.0034024166708435
 50
131.39734856113131
 51
184.03864277082539
  0
ARC
  5
18CF
  8
0
 10
12.0828840292785
 20
6.4126983597705847
 30
0.0
 40
0.0082160400002353
 50
85.670772186812599
 51
124.44765375789071
  0
ARC
  5
18D0
  8
0
 10
10.733075836755029
 20
6.4744142983136683
 30
0.0
 40
0.1062996224499691
 50
313.31135901942582
 51
319.54612099207452
  0
ARC
  5
18D1
  8
0
 10
10.790974642673071
 20
6.426429351048812
 30
0.0
 40
0.0311262624180241
 50
317.60614726953531
 51
337.76662009950951
  0
ARC
  5
18D2
  8
0
 10
10.815020718955109
 20
6.4167910347931079
 30
0.0
 40
0.0052240515545927
 50
335.82664637695927
 51
12.781777212345069
  0
ARC
  5
18D3
  8
0
 10
10.79775075963
 20
6.3439452129369291
 30
0.0
 40
0.0773072288470663
 50
73.184275310168161
 51
84.058162218044444
  0
ARC
  5
191A
  8
0
 10
12.11231632594629
 20
6.061429276238389
 30
0.0
 40
0.1423337634700374
 50
249.18182816308101
 51
260.60290629951862
  0
LINE
  5
191B
  8
0
 10
12.089076649959919
 20
5.921005568540604
 30
0.0
 11
12.1546607748
 21
5.9210373335642501
 31
0.0
  0
ARC
  5
191C
  8
0
 10
12.13963466466538
 20
5.8442418461163426
 30
0.0
 40
0.1403849854786657
 50
131.4459431278039
 51
137.84762277764469
  0
ARC
  5
191D
  8
0
 10
12.27648234005879
 20
5.68926931241218
 30
0.0
 40
0.3471306564448735
 50
128.86117219715049
 51
131.44594312780399
  0
LINE
  5
191E
  8
0
 10
10.80728837578569
 20
5.9469585574866244
 30
0.0
 11
10.805814042967709
 21
5.9444155391013407
 31
0.0
  0
ARC
  5
191F
  8
0
 10
10.803291839334451
 20
5.974672036621044
 30
0.0
 40
0.0538870135296978
 50
273.62900954904882
 51
286.10000674074928
  0
ARC
  5
1920
  8
0
 10
10.814366738129319
 20
5.9254402683181731
 30
0.0
 40
0.0046290212438989
 50
326.69539529574888
 51
14.456061384987359
  0
ARC
  5
1921
  8
0
 10
10.773957163034201
 20
5.9074346614691526
 30
0.0
 40
0.0488103073483992
 50
23.114151931159991
 51
49.257009936567478
  0
LINE
  5
1922
  8
0
 10
10.818235503899979
 20
5.9228985190999976
 30
0.0
 11
11.11932693704536
 21
5.9266419388752194
 31
0.0
  0
ARC
  5
19AF
  8
0
 10
12.038752577525869
 20
3.8945034510315941
 30
0.0
 40
0.0565659009391191
 50
94.551612657090075
 51
183.66159807420249
  0
LINE
  5
19B0
  8
0
 10
11.9823021476
 20
3.890890957399999
 30
0.0
 11
11.9823021476
 21
3.600890957399999
 31
0.0
  0
ARC
  5
19B1
  8
0
 10
11.9538381478233
 20
3.5988215123557499
 30
0.0
 40
0.0285391290350497
 50
281.85355943222339
 51
4.1583126833996547
  0
ARC
  5
19B2
  8
0
 10
11.825328375841099
 20
3.9178886377068829
 30
0.0
 40
0.0363126234870975
 50
114.6546332158504
 51
182.10982164212041
  0
ARC
  5
19B3
  8
0
 10
11.93013840841836
 20
3.8912687319774601
 30
0.0
 40
0.1433453512157378
 50
169.84110442058289
 51
180.15099836700509
  0
LINE
  5
19B4
  8
0
 10
11.786793554999999
 20
3.890890957399999
 30
0.0
 11
11.78679355529999
 21
3.6008909573999999
 31
0.0
  0
ARC
  5
19B5
  8
0
 10
11.71125666438382
 20
3.5994033849386979
 30
0.0
 40
0.0755515371194403
 50
344.60654150459862
 51
1.1281985121027109
  0
ARC
  5
19B6
  8
0
 10
11.763210903971069
 20
3.5850991846254741
 30
0.0
 40
0.021664125252746
 50
325.91624146462732
 51
344.6065415045984
  0
ARC
  5
19B7
  8
0
 10
11.77662361573738
 20
3.5760803606177012
 30
0.0
 40
0.0055014728427915
 50
289.39092468958938
 51
325.4269857888936
  0
ARC
  5
19B8
  8
0
 10
10.83326435487413
 20
3.8945034510315941
 30
0.0
 40
0.0565659009391191
 50
356.33840192579748
 51
85.448387342909896
  0
LINE
  5
19B9
  8
0
 10
10.889714784800001
 20
3.890890957399999
 30
0.0
 11
10.889714784800001
 21
3.600890957399999
 31
0.0
  0
ARC
  5
19BA
  8
0
 10
10.9181787845767
 20
3.5988215123557499
 30
0.0
 40
0.0285391290350497
 50
175.84168731660029
 51
258.14644056777672
  0
ARC
  5
19BB
  8
0
 10
11.0466885565589
 20
3.9178886377068829
 30
0.0
 40
0.0363126234870975
 50
357.89017835787962
 51
65.345366784149675
  0
ARC
  5
19BC
  8
0
 10
10.941878523981639
 20
3.8912687319774601
 30
0.0
 40
0.1433453512157378
 50
359.84900163299488
 51
10.15889557941704
  0
LINE
  5
19BD
  8
0
 10
11.0852233774
 20
3.890890957399999
 30
0.0
 11
11.085223377100011
 21
3.6008909573999999
 31
0.0
  0
ARC
  5
19BE
  8
0
 10
11.16076026801618
 20
3.5994033849386979
 30
0.0
 40
0.0755515371194403
 50
178.87180148789719
 51
195.39345849540129
  0
ARC
  5
19BF
  8
0
 10
11.10880602842893
 20
3.5850991846254741
 30
0.0
 40
0.021664125252746
 50
195.3934584954016
 51
214.08375853537279
  0
ARC
  5
19C0
  8
0
 10
11.095393316662619
 20
3.5760803606177012
 30
0.0
 40
0.0055014728427915
 50
214.5730142111064
 51
250.6090753104105
  0
LINE
  5
19C1
  8
0
 10
12.0710084662
 20
3.527140957399999
 30
0.0
 11
10.800982945599999
 21
3.527140957399999
 31
0.0
  0
ATTDEF
  5
1B79
  8
DEFPOINTS
 10
11.43204086572209
 20
-1.607452636754265
 30
0.0
 40
0.001
  1
K-7129-A
  3

  2
MODELNUMBER
 70
     0
1001
AcDbAttr
1070
     0
1070
     1
  0
ATTDEF
  5
1B7A
  8
DEFPOINTS
 10
11.43204086572209
 20
-1.6091193034209299
 30
0.0
 40
0.001
  1

  3

  2
TRADENAME
 70
     0
1001
AcDbAttr
1070
     0
1070
     1
  0
ATTDEF
  5
1B7B
  8
DEFPOINTS
 10
11.43204086572209
 20
-1.6107859700875951
 30
0.0
 40
0.001
  1
DRAIN
  3

  2
PRODUCT
 70
     0
1001
AcDbAttr
1070
     0
1070
     1
  0
ATTDEF
  5
1B7C
  8
DEFPOINTS
 10
11.43204086572209
 20
-1.61245263675426
 30
0.0
 40
0.001
  1
BRASS
  3

  2
MATERIAL
 70
     0
1001
AcDbAttr
1070
     0
1070
     1
  0
ENDSEC
  0
EOF
