  0
SECTION
  2
HEADER
  9
$ACADVER
  1
AC1009
  9
$INSBASE
 10
41.359151858253753
 20
6.4357506122999988
 30
0.0
  9
$EXTMIN
 10
40.347547997168299
 20
6.425698233170329
 30
-0.0000000000000053
  9
$EXTMAX
 10
44.29119667691387
 20
21.945761906188011
 30
0.0000000000000099
  9
$LIMMIN
 10
0.0
 20
0.0
  9
$LIMMAX
 10
11.692913385800001
 20
8.2677165353999982
  9
$ORTHOMODE
 70
     0
  9
$REGENMODE
 70
     1
  9
$FILLMODE
 70
     1
  9
$QTEXTMODE
 70
     0
  9
$MIRRTEXT
 70
     0
  9
$DRAGMODE
 70
     2
  9
$LTSCALE
 40
0.6431102362
  9
$OSMODE
 70
  3071
  9
$ATTMODE
 70
     1
  9
$TEXTSIZE
 40
0.2
  9
$TRACEWID
 40
0.05
  9
$TEXTSTYLE
  7
STANDARD
  9
$CLAYER
  8
0
  9
$CELTYPE
  6
BYLAYER
  9
$CECOLOR
 62
   256
  9
$DIMSCALE
 40
1.0
  9
$DIMASZ
 40
0.1875
  9
$DIMEXO
 40
0.0625
  9
$DIMDLI
 40
0.38
  9
$DIMRND
 40
0.0
  9
$DIMDLE
 40
0.0
  9
$DIMEXE
 40
0.125
  9
$DIMTP
 40
1.5
  9
$DIMTM
 40
1.5
  9
$DIMTXT
 40
0.15625
  9
$DIMCEN
 40
0.09
  9
$DIMTSZ
 40
0.0
  9
$DIMTOL
 70
     0
  9
$DIMLIM
 70
     0
  9
$DIMTIH
 70
     1
  9
$DIMTOH
 70
     1
  9
$DIMSE1
 70
     0
  9
$DIMSE2
 70
     0
  9
$DIMTAD
 70
     0
  9
$DIMZIN
 70
     4
  9
$DIMBLK
  1

  9
$DIMASO
 70
     1
  9
$DIMSHO
 70
     1
  9
$DIMPOST
  1
\X
  9
$DIMAPOST
  1

  9
$DIMALT
 70
     1
  9
$DIMALTD
 70
     2
  9
$DIMALTF
 40
25.399999999999999
  9
$DIMLFAC
 40
1.0
  9
$DIMTOFL
 70
     0
  9
$DIMTVP
 40
0.0
  9
$DIMTIX
 70
     0
  9
$DIMSOXD
 70
     0
  9
$DIMSAH
 70
     0
  9
$DIMBLK1
  1

  9
$DIMBLK2
  1

  9
$DIMSTYLE
  2
STANDARD
  9
$DIMCLRD
 70
     0
  9
$DIMCLRE
 70
     0
  9
$DIMCLRT
 70
     0
  9
$DIMTFAC
 40
1.0
  9
$DIMGAP
 40
0.09
  9
$LUNITS
 70
     2
  9
$LUPREC
 70
     4
  9
$SKETCHINC
 40
0.1
  9
$FILLETRAD
 40
0.0
  9
$AUNITS
 70
     0
  9
$AUPREC
 70
     0
  9
$MENU
  1
.
  9
$ELEVATION
 40
0.0
  9
$PELEVATION
 40
0.0
  9
$THICKNESS
 40
0.0
  9
$LIMCHECK
 70
     0
  9
$BLIPMODE
 70
     0
  9
$CHAMFERA
 40
0.0
  9
$CHAMFERB
 40
0.0
  9
$SKPOLY
 70
     0
  9
$TDCREATE
 40
2457730.5135056139
  9
$TDUPDATE
 40
2457731.6837439011
  9
$TDINDWG
 40
0.142557662
  9
$TDUSRTIMER
 40
0.142557662
  9
$USRTIMER
 70
     1
  9
$ANGBASE
 50
0.0
  9
$ANGDIR
 70
     0
  9
$PDMODE
 70
     0
  9
$PDSIZE
 40
0.3125
  9
$PLINEWID
 40
0.0
  9
$COORDS
 70
     1
  9
$SPLFRAME
 70
     0
  9
$SPLINETYPE
 70
     6
  9
$SPLINESEGS
 70
     8
  9
$ATTDIA
 70
     1
  9
$ATTREQ
 70
     1
  9
$HANDLING
 70
     1
  9
$HANDSEED
  5
2C05
  9
$SURFTAB1
 70
     6
  9
$SURFTAB2
 70
     6
  9
$SURFTYPE
 70
     6
  9
$SURFU
 70
     6
  9
$SURFV
 70
     6
  9
$UCSNAME
  2

  9
$UCSORG
 10
0.0
 20
0.0
 30
0.0
  9
$UCSXDIR
 10
1.0
 20
0.0
 30
0.0
  9
$UCSYDIR
 10
0.0
 20
1.0
 30
0.0
  9
$PUCSNAME
  2

  9
$PUCSORG
 10
0.0
 20
0.0
 30
0.0
  9
$PUCSXDIR
 10
1.0
 20
0.0
 30
0.0
  9
$PUCSYDIR
 10
0.0
 20
1.0
 30
0.0
  9
$USERI1
 70
     0
  9
$USERI2
 70
     0
  9
$USERI3
 70
     0
  9
$USERI4
 70
     0
  9
$USERI5
 70
     0
  9
$USERR1
 40
0.0
  9
$USERR2
 40
0.0
  9
$USERR3
 40
0.0
  9
$USERR4
 40
0.0
  9
$USERR5
 40
0.0
  9
$WORLDVIEW
 70
     1
  9
$SHADEDGE
 70
     3
  9
$SHADEDIF
 70
    70
  9
$TILEMODE
 70
     1
  9
$MAXACTVP
 70
    48
  9
$PLIMCHECK
 70
     0
  9
$PEXTMIN
 10
1.0000000000000000E+020
 20
1.0000000000000000E+020
 30
1.0000000000000000E+020
  9
$PEXTMAX
 10
-1.0000000000000000E+020
 20
-1.0000000000000000E+020
 30
-1.0000000000000000E+020
  9
$PLIMMIN
 10
0.0
 20
0.0
  9
$PLIMMAX
 10
12.0
 20
9.0
  9
$UNITMODE
 70
     0
  9
$VISRETAIN
 70
     1
  9
$PLINEGEN
 70
     0
  9
$PSLTSCALE
 70
     1
  0
ENDSEC
  0
SECTION
  2
TABLES
  0
TABLE
  2
VPORT
 70
     1
  0
VPORT
  2
*ACTIVE
 70
     0
 10
0.0
 20
0.0
 11
1.0
 21
1.0
 12
42.319372337041081
 22
14.18573006967917
 13
0.0
 23
0.0
 14
1.0
 24
1.0
 15
0.0
 25
0.0
 16
0.0
 26
0.0
 36
1.0
 17
0.0
 27
0.0
 37
0.0
 40
15.61881275259149
 41
2.0148619957537148
 42
50.0
 43
0.0
 44
0.0
 50
0.0
 51
0.0
 71
     0
 72
   100
 73
     1
 74
     1
 75
     0
 76
     1
 77
     0
 78
     1
  0
ENDTAB
  0
TABLE
  2
LTYPE
 70
     2
  0
LTYPE
  2
CONTINUOUS
 70
     0
  3
Solid line
 72
    65
 73
     0
 40
0.0
  0
LTYPE
  2
PHANTOM2
 70
     0
  3
___ _ _ ___ _ _ ___ _ _ ___ _ _
 72
    65
 73
     6
 40
1.25
 49
0.625
 49
-0.125
 49
0.125
 49
-0.125
 49
0.125
 49
-0.125
  0
ENDTAB
  0
TABLE
  2
LAYER
 70
     2
  0
LAYER
  2
0
 70
     0
 62
     7
  6
CONTINUOUS
  0
LAYER
  2
DEFPOINTS
 70
     0
 62
     7
  6
CONTINUOUS
  0
ENDTAB
  0
TABLE
  2
STYLE
 70
     1
  0
STYLE
  2
STANDARD
 70
     0
 40
0.0
 41
0.8
 50
0.0
 71
     0
 42
0.2
  3
txt
  4

  0
ENDTAB
  0
TABLE
  2
VIEW
 70
     0
  0
ENDTAB
  0
TABLE
  2
UCS
 70
     0
  0
ENDTAB
  0
TABLE
  2
APPID
 70
     7
  0
APPID
  2
ACAD
 70
     0
  0
APPID
  2
ACAD_MLEADERVER
 70
     0
  0
APPID
  2
ACAD_NAV_VCDISPLAY
 70
     0
  0
APPID
  2
ACAD_DSTYLE_DIMJAG
 70
     0
  0
APPID
  2
ACAD_DSTYLE_DIMTALN
 70
     0
  0
APPID
  2
ACAD_EXEMPT_FROM_CAD_STANDARDS
 70
     0
  0
APPID
  2
ACDBATTR
 70
     0
  0
ENDTAB
  0
TABLE
  2
DIMSTYLE
 70
     1
  0
DIMSTYLE
  2
STANDARD
 70
     0
  3
\X
  4

  5

  6

  7

 40
1.0
 41
0.1875
 42
0.0625
 43
0.38
 44
0.125
 45
0.0
 46
0.0
 47
1.5
 48
1.5
140
0.15625
141
0.09
142
0.0
143
25.399999999999999
144
1.0
145
0.0
146
1.0
147
0.09
 71
     0
 72
     0
 73
     1
 74
     1
 75
     0
 76
     0
 77
     0
 78
     4
170
     1
171
     2
172
     0
173
     0
174
     0
175
     0
176
     0
177
     0
178
     0
  0
ENDTAB
  0
ENDSEC
  0
SECTION
  2
BLOCKS
  0
BLOCK
  8
0
  2
$MODEL_SPACE
 70
     0
 10
0.0
 20
0.0
 30
0.0
  3
$MODEL_SPACE
  1

  0
ENDBLK
  5
21
  8
0
  0
BLOCK
 67
     1
  8
0
  2
$PAPER_SPACE
 70
     0
 10
0.0
 20
0.0
 30
0.0
  3
$PAPER_SPACE
  1

  0
ENDBLK
  5
1D
 67
     1
  8
0
  0
ENDSEC
  0
SECTION
  2
ENTITIES
  0
LINE
  5
17CA
  8
0
 10
40.42713674909686
 20
16.080804490799999
 30
0.0
 11
40.486140715196861
 21
16.197059577600001
 31
0.0
  0
ARC
  5
17CB
  8
0
 10
40.388892683850571
 20
16.254592941458021
 30
0.0
 40
0.1129894440862976
 50
329.41470562321138
 51
0.2188761734568812
  0
LINE
  5
17CC
  8
0
 10
40.501882127936867
 20
16.254592941458021
 30
0.0
 11
40.714609510496857
 21
19.753886220999998
 31
0.0
  0
ARC
  5
17CD
  8
0
 10
41.1821980518422
 20
19.824436386329349
 30
0.0
 40
0.4728809252200569
 50
114.2999299241756
 51
188.58011845998649
  0
ARC
  5
17CE
  8
0
 10
41.356854346589337
 20
19.448482748873221
 30
0.0
 40
0.8874111403134239
 50
62.61720585952699
 51
114.5886956040103
  0
ARC
  5
17CF
  8
0
 10
41.54146388336715
 20
19.825681292773019
 30
0.0
 40
0.4676660626415977
 50
351.19289111137221
 51
61.44571081424057
  0
LINE
  5
17D0
  8
0
 10
40.713297338846857
 20
19.891889283899999
 30
0.0
 11
40.804705838396863
 21
21.2555742483
 31
0.0
  0
ARC
  5
17D1
  8
0
 10
41.77307202943382
 20
21.205354195320979
 30
0.0
 40
0.9696675376976746
 50
145.1129105811055
 51
177.03126600614581
  0
ARC
  5
17D2
  8
0
 10
41.34855990447695
 20
21.48153148082439
 30
0.0
 40
0.463770931590909
 50
88.691403868663002
 51
143.10350181682699
  0
LINE
  5
17D3
  8
0
 10
42.291165635296871
 20
16.080804490799999
 30
0.0
 11
42.232161669196863
 21
16.197059577600001
 31
0.0
  0
ARC
  5
17D4
  8
0
 10
42.32940970054316
 20
16.254592941458021
 30
0.0
 40
0.1129894440862976
 50
179.78112382654311
 51
210.5852943767886
  0
LINE
  5
17D5
  8
0
 10
42.21642025645685
 20
16.254592941458021
 30
0.0
 11
42.00369287389686
 21
19.753886220999998
 31
0.0
  0
LINE
  5
17D7
  8
0
 10
42.005005045546859
 20
19.891889283899999
 30
0.0
 11
41.91359654599686
 21
21.2555742483
 31
0.0
  0
ARC
  5
17D8
  8
0
 10
40.945230354959897
 20
21.205354195320979
 30
0.0
 40
0.9696675376976746
 50
2.9687339938541628
 51
34.887089418894533
  0
ARC
  5
17D9
  8
0
 10
41.369742479916781
 20
21.48153148082439
 30
0.0
 40
0.463770931590909
 50
36.896498183173023
 51
91.308596131337012
  0
ARC
  5
181D
  8
0
 10
40.511627255202413
 20
16.023515203110229
 30
0.0
 40
0.1019794758431114
 50
119.4843370644593
 51
175.5262987866287
  0
ARC
  5
181E
  8
0
 10
40.495101450346318
 20
16.0339486962988
 30
0.0
 40
0.0851790437380913
 50
181.66769785282091
 51
237.12390743369909
  0
ARC
  5
181F
  8
0
 10
40.808431387052323
 20
16.529997936069211
 30
0.0
 40
0.6718951178722002
 50
237.64566357889089
 51
262.17681959855918
  0
ARC
  5
1820
  8
0
 10
41.337123796157719
 20
19.240013184929261
 30
0.0
 40
3.4321485616285732
 50
259.5901586738841
 51
270.36772486348298
  0
ARC
  5
1821
  8
0
 10
40.828699475541363
 20
15.44902740939442
 30
0.0
 40
0.7581539160155036
 50
98.766392151261385
 51
118.9744907049438
  0
ARC
  5
1822
  8
0
 10
41.334536762986197
 20
12.785102083352131
 30
0.0
 40
3.4693236099380429
 50
89.593489999915676
 51
100.3178242944571
  0
ARC
  5
1823
  8
0
 10
42.206675129225872
 20
16.02351520297433
 30
0.0
 40
0.1019794758431114
 50
4.4737012041831461
 51
60.51566292635264
  0
ARC
  5
1824
  8
0
 10
42.22320093408365
 20
16.033948696160241
 30
0.0
 40
0.0851790437380913
 50
302.87609255711283
 51
358.33230213799101
  0
ARC
  5
1825
  8
0
 10
41.90987099745719
 20
16.529997935980891
 30
0.0
 40
0.6718951178722002
 50
277.82318039225271
 51
302.354336411921
  0
ARC
  5
1826
  8
0
 10
41.381178588786383
 20
19.240013184925719
 30
0.0
 40
3.4321485616285732
 50
269.63227512732891
 51
280.40984131692778
  0
ARC
  5
1827
  8
0
 10
41.889602908794807
 20
15.449027409309361
 30
0.0
 40
0.7581539160155036
 50
61.025509285868182
 51
81.233607839550487
  0
ARC
  5
1828
  8
0
 10
41.383765620922759
 20
12.78510208334818
 30
0.0
 40
3.4693236099380429
 50
79.682175696354761
 51
90.406509990896197
  0
ARC
  5
186A
  8
0
 10
41.404732648547082
 20
13.51758124121003
 30
0.0
 40
2.662278039393112
 50
77.130250957701008
 51
90.992007702348644
  0
ARC
  5
186B
  8
0
 10
41.32386859101284
 20
13.270756790315639
 30
0.0
 40
2.9089113032264748
 50
89.315087990614771
 51
101.0649175293223
  0
ARC
  5
186C
  8
0
 10
40.608651103403652
 20
16.006395930599989
 30
0.0
 40
0.0535198306067854
 50
126.1723415138715
 51
233.8276584861251
  0
ARC
  5
186D
  8
0
 10
40.874173464533641
 20
15.58436664194141
 30
0.0
 40
0.5520112253428186
 50
101.3446497883026
 51
122.5634303301137
  0
ARC
  5
186E
  8
0
 10
41.298882559528607
 20
18.33049646805128
 30
0.0
 40
2.500820791913922
 50
257.68723052332467
 51
271.36923881871729
  0
ARC
  5
186F
  8
0
 10
41.416226226554031
 20
18.277381162039131
 30
0.0
 40
2.4476450955929741
 50
268.6757868492553
 51
283.74323694787142
  0
ARC
  5
1870
  8
0
 10
40.874173464533641
 20
16.428425219258578
 30
0.0
 40
0.5520112253428186
 50
237.43656966988621
 51
258.6553502116974
  0
ARC
  5
1871
  8
0
 10
42.109651281133253
 20
16.006395930599989
 30
0.0
 40
0.0535198306067854
 50
306.17234151387493
 51
53.827658486128428
  0
ARC
  5
1872
  8
0
 10
41.887120569953368
 20
15.668346646613299
 30
0.0
 40
0.4581814484515643
 50
56.315097117668977
 51
76.032010927669177
  0
ARC
  5
1873
  8
0
 10
41.882412328998747
 20
16.35510689502059
 30
0.0
 40
0.4696685841315795
 50
284.21142567483901
 51
303.44146627982423
  0
LINE
  5
18B5
  8
0
 10
40.788433418946859
 20
16.026683949300001
 30
0.0
 11
40.779177461096857
 21
16.0777852071
 31
0.0
  0
LINE
  5
18B7
  8
0
 10
40.778526450996857
 20
16.079397715500001
 30
0.0
 11
40.779177448396872
 21
16.0777852772
 31
0.0
  0
ARC
  5
18B8
  8
0
 10
40.783208957732967
 20
16.09803954494949
 30
0.0
 40
0.0192209176304768
 50
230.7481429283726
 51
255.8999918213236
  0
ARC
  5
18B9
  8
0
 10
40.773294795279632
 20
16.086142588374209
 30
0.0
 40
0.0037382517616802
 50
149.72460195221711
 51
233.04298450328861
  0
ARC
  5
18BA
  8
0
 10
40.784107132616533
 20
16.07452182720472
 30
0.0
 40
0.0194817564032966
 50
101.7767902566888
 51
136.11330088744089
  0
ARC
  5
18BB
  8
0
 10
40.824262454168249
 20
15.93478303275938
 30
0.0
 40
0.1648282614230371
 50
85.041915210688813
 51
105.5299792752101
  0
ARC
  5
18BC
  8
0
 10
40.834901987411833
 20
15.91956860537603
 30
0.0
 40
0.179462166349624
 50
78.052458769832015
 51
88.848634831921103
  0
LINE
  5
18BD
  8
0
 10
40.869995479522373
 20
16.026501628042531
 30
0.0
 11
40.877234795353303
 21
16.066537928794389
 31
0.0
  0
ARC
  5
18C0
  8
0
 10
40.802082478577212
 20
16.029597568251639
 30
0.0
 40
0.0139791156045938
 50
192.7949461828932
 51
253.97196164681921
  0
ARC
  5
18C1
  8
0
 10
40.823826988621839
 20
16.095452980756829
 30
0.0
 40
0.083358806335162
 50
252.0997478615684
 51
269.2876606210902
  0
ARC
  5
18C2
  8
0
 10
40.829695321473039
 20
16.127310112826962
 30
0.0
 40
0.1154162144824246
 50
266.57028005517611
 51
275.36034995283228
  0
ARC
  5
18C3
  8
0
 10
40.839215130562991
 20
16.07042632980108
 30
0.0
 40
0.0580414271792475
 50
271.2461790305216
 51
294.42460378920561
  0
ARC
  5
18C4
  8
0
 10
40.857041188416979
 20
16.029307371579051
 30
0.0
 40
0.0132538564853725
 50
297.76280101977233
 51
347.86822785173041
  0
ARC
  5
18C5
  8
0
 10
40.790814432828221
 20
16.02679433843678
 30
0.0
 40
0.0023827669189991
 50
145.86017800258779
 51
186.7205040668135
  0
ARC
  5
18C6
  8
0
 10
40.799182564561001
 20
16.017836462843491
 30
0.0
 40
0.014591463540543
 50
100.2500199839882
 51
135.125387012522
  0
ARC
  5
18C7
  8
0
 10
40.829624348280042
 20
15.87789355396926
 30
0.0
 40
0.1577988566583699
 50
79.235414406678373
 51
102.0853976458925
  0
ARC
  5
18C8
  8
0
 10
40.854978392118703
 20
16.008592109746321
 30
0.0
 40
0.0246697412860537
 50
56.035455057812023
 51
80.389236003680963
  0
ARC
  5
18C9
  8
0
 10
812.79558946835323
 20
460.28257422205212
 30
0.0
 40
890.63585151511325
 50
209.9209638663657
 51
209.92112718282539
  0
ARC
  5
18CA
  8
0
 10
40.810946084199593
 20
16.018916575439579
 30
0.0
 40
0.0014065533333585
 50
107.3096716589189
 51
252.3132767242945
  0
ARC
  5
18CB
  8
0
 10
40.829218367396791
 20
15.96251809628828
 30
0.0
 40
0.0606910754321011
 50
72.045378941138054
 51
107.9366906758014
  0
ARC
  5
18CC
  8
0
 10
40.847344357194117
 20
16.018916575439579
 30
0.0
 40
0.0014065533333585
 50
287.68672327570539
 51
72.690328341081084
  0
ARC
  5
18CD
  8
0
 10
40.829218367396791
 20
16.07531505459087
 30
0.0
 40
0.0606910754321011
 50
252.0633093241986
 51
287.9546210588619
  0
LINE
  5
190F
  8
0
 10
40.935922845796867
 20
15.9687290858
 30
0.0
 11
40.935922845796867
 21
16.036891317478378
 31
0.0
  0
LINE
  5
1910
  8
0
 10
41.782379119583538
 20
15.968730312235699
 30
0.0
 11
41.782379538696858
 21
16.036891317470491
 31
0.0
  0
ARC
  5
1911
  8
0
 10
40.962060237675253
 20
15.96744082856045
 30
0.0
 40
0.0261691203696249
 50
145.08774419402721
 51
213.06206455783391
  0
ARC
  5
1913
  8
0
 10
41.009057631020333
 20
15.92511992602584
 30
0.0
 40
0.0892715275477246
 50
110.7660493662048
 51
140.07083062136289
  0
LINE
  5
19E0
  8
0
 10
40.613117237496589
 20
10.83986671958659
 30
0.0
 11
40.716975447496857
 21
15.8643562452
 31
0.0
  0
LINE
  5
19E1
  8
0
 10
40.612865210596858
 20
10.7601429453
 30
0.0
 11
40.497670413296859
 21
6.7311558064999986
 31
0.0
  0
ARC
  5
19E2
  8
0
 10
40.350382568233449
 20
6.7428080433847031
 30
0.0
 40
0.1477480420440158
 50
328.1705410353884
 51
355.47663705286072
  0
LINE
  5
19E3
  8
0
 10
40.475912502496868
 20
6.6648868041
 30
0.0
 11
40.352969092005139
 21
6.482520370612292
 31
0.0
  0
ARC
  5
19E4
  8
0
 10
40.377844284629333
 20
6.4657506122983026
 30
0.0
 40
0.030000000027877
 50
146.01388747138751
 51
270.00254406156807
  0
LINE
  5
19E5
  8
0
 10
40.377845616710637
 20
6.4357506122999997
 30
0.0
 11
42.340458099796862
 21
6.4357506122999988
 31
0.0
  0
ARC
  5
19E6
  8
0
 10
42.340458099793757
 20
6.4657506123051451
 30
0.0
 40
0.0300000000051448
 50
270.00000739980891
 51
33.986112520832499
  0
LINE
  5
19E7
  8
0
 10
42.365333292396862
 20
6.4825203705999987
 30
0.0
 11
42.242391386396861
 21
6.6648844100999991
 31
0.0
  0
ARC
  5
19E8
  8
0
 10
42.360945672497017
 20
6.739552478025054
 30
0.0
 40
0.1401086660550575
 50
183.43037975729371
 51
212.20246127534261
  0
LINE
  5
19E9
  8
0
 10
42.221088047296853
 20
6.7311689837000088
 30
0.0
 11
42.191709476396859
 21
7.7377993936999996
 31
0.0
  0
ARC
  5
19EA
  8
0
 10
42.357166074865233
 20
7.7704368667435402
 30
0.0
 40
0.1686577687669105
 50
83.624445949254593
 51
191.1534779906514
  0
LINE
  5
19EB
  8
0
 10
42.375894663096858
 20
7.9380515527000002
 30
0.0
 11
43.144051583396859
 21
7.9382211700000003
 31
0.0
  0
ARC
  5
19EC
  8
0
 10
43.131513372269751
 20
8.9892802097004161
 30
0.0
 40
1.0511338219628501
 50
270.68345590456062
 51
275.24482772795329
  0
ARC
  5
19ED
  8
0
 10
43.222744696609169
 20
7.9738955045819271
 30
0.0
 40
0.0317218830984527
 50
278.80298186576522
 51
357.27040601482798
  0
LINE
  5
19EE
  8
0
 10
43.254430588396858
 20
7.972384832900004
 30
0.0
 11
43.254328033896869
 21
9.6549090231495516
 31
0.0
  0
ARC
  5
19EF
  8
0
 10
43.224452570589953
 20
9.6529548503650453
 30
0.0
 40
0.0299393069237453
 50
3.7424215546313411
 51
83.924536987535575
  0
ARC
  5
19F0
  8
0
 10
43.127010806386089
 20
8.5680847300523837
 30
0.0
 40
1.1191650888059981
 50
84.842270789051554
 51
89.908534091563908
  0
LINE
  5
19F1
  8
0
 10
43.128797419796868
 20
9.6872483921962722
 30
0.0
 11
42.57543068139686
 21
9.6872526093999998
 31
0.0
  0
ARC
  5
19F2
  8
0
 10
42.491436944184663
 20
10.51027586713681
 30
0.0
 40
0.8272981510112263
 50
264.17197373847961
 51
275.82715311492728
  0
LINE
  5
19F3
  8
0
 10
42.407430650296853
 20
9.6872538895000009
 30
0.0
 11
42.319475237196862
 21
9.6872545596999995
 31
0.0
  0
ARC
  5
19F4
  8
0
 10
42.279833591238607
 20
9.8359741918303278
 30
0.0
 40
0.1473976319101708
 50
187.23422034946719
 51
266.20456645018692
  0
LINE
  5
19F5
  8
0
 10
42.319474500126113
 20
9.6872535602845335
 30
0.0
 11
42.27007669699686
 21
9.6888998401999995
 31
0.0
  0
LINE
  5
19F6
  8
0
 10
42.133609293396859
 20
9.8174130330999994
 30
0.0
 11
42.131015875996873
 21
9.8644946197000003
 31
0.0
  0
LINE
  5
19F8
  8
0
 10
42.13060642879686
 20
9.8644828557000004
 30
0.0
 11
42.105449090296858
 21
10.7601431569
 31
0.0
  0
LINE
  5
19F9
  8
0
 10
42.105185151896862
 20
10.8398671904
 30
0.0
 11
42.00132693714199
 21
15.864356245191569
 31
0.0
  0
LINE
  5
19FA
  8
0
 10
40.609154916696859
 20
10.7892986865
 30
0.0
 11
42.109151192196862
 21
10.7892986865
 31
0.0
  0
LINE
  5
19FB
  8
0
 10
42.089147942396863
 20
10.8192986865
 30
0.0
 11
40.629151192196858
 21
10.8192986865
 31
0.0
  0
ARC
  5
19FC
  8
0
 10
40.629151192196858
 20
10.7992986865
 30
0.0
 40
0.0200000000000014
 50
90.000000000005087
 51
180.0
  0
ARC
  5
19FD
  8
0
 10
40.634967754522243
 20
10.84115840260295
 30
0.0
 40
0.0218859650310023
 50
183.29380851402871
 51
267.19357150414612
  0
LINE
  5
19FE
  8
0
 10
40.609151192196862
 20
10.7992986865
 30
0.0
 11
40.609154916696859
 21
10.7892986865
 31
0.0
  0
ARC
  5
19FF
  8
0
 10
40.642840042137387
 20
10.759312349853509
 30
0.0
 40
0.0299863371334224
 50
90.01032550486444
 51
178.41275375136601
  0
ARC
  5
1A00
  8
0
 10
42.089151192676638
 20
10.79929868692046
 30
0.0
 40
0.0200000000000014
 50
0.0000000330010465
 51
90.000000032995956
  0
ARC
  5
1A01
  8
0
 10
42.083228968337018
 20
10.841204935277901
 30
0.0
 40
0.0219941631107931
 50
275.1245950643704
 51
356.60098814006261
  0
LINE
  5
1A02
  8
0
 10
42.109151192676649
 20
10.79929868693198
 30
0.0
 11
42.109147468182407
 21
10.78929868693198
 31
0.0
  0
ARC
  5
1A03
  8
0
 10
42.075462342759138
 20
10.75931235026607
 30
0.0
 40
0.0299863371334311
 50
1.587246281667313
 51
90.010325537909765
  0
LINE
  5
1A04
  8
0
 10
40.880094376832929
 20
16.050750453012942
 30
0.0
 11
40.870838418982927
 21
16.101851710812941
 31
0.0
  0
LINE
  5
1A05
  8
0
 10
40.870187408882941
 20
16.103464219212938
 30
0.0
 11
40.870838406282942
 21
16.101851780912941
 31
0.0
  0
ARC
  5
1A06
  8
0
 10
40.874869915619051
 20
16.122106048662431
 30
0.0
 40
0.0192209176304768
 50
230.7481429283726
 51
255.8999918213236
  0
ARC
  5
1A07
  8
0
 10
40.864955753165709
 20
16.11020909208715
 30
0.0
 40
0.0037382517616802
 50
149.72460195221711
 51
233.04298450328861
  0
ARC
  5
1A08
  8
0
 10
40.875768090502604
 20
16.098588330917661
 30
0.0
 40
0.0194817564032966
 50
101.7767902566888
 51
136.11330088744089
  0
LINE
  5
1A0A
  8
0
 10
40.961656437408443
 20
16.050568131755469
 30
0.0
 11
40.96440512852886
 21
16.065769488754029
 31
0.0
  0
ARC
  5
1A0B
  8
0
 10
40.893743436463289
 20
16.05366407196459
 30
0.0
 40
0.0139791156045938
 50
192.7949461828932
 51
253.97196164681921
  0
ARC
  5
1A0C
  8
0
 10
40.915487946507909
 20
16.11951948446978
 30
0.0
 40
0.083358806335162
 50
252.0997478615684
 51
269.2876606210902
  0
ARC
  5
1A0D
  8
0
 10
40.921356279359109
 20
16.151376616539899
 30
0.0
 40
0.1154162144824246
 50
266.57028005517611
 51
275.36034995283228
  0
ARC
  5
1A0E
  8
0
 10
40.930876088449068
 20
16.094492833514028
 30
0.0
 40
0.0580414271792475
 50
271.2461790305216
 51
294.42460378920561
  0
ARC
  5
1A0F
  8
0
 10
40.948702146303063
 20
16.053373875291999
 30
0.0
 40
0.0132538564853725
 50
297.76280101977233
 51
347.86822785173041
  0
ARC
  5
1A10
  8
0
 10
40.882475390714298
 20
16.050860842149731
 30
0.0
 40
0.0023827669189991
 50
145.86017800258779
 51
186.7205040668135
  0
ARC
  5
1A11
  8
0
 10
40.890843522447071
 20
16.041902966556439
 30
0.0
 40
0.014591463540543
 50
100.2500199839882
 51
135.125387012522
  0
ARC
  5
1A12
  8
0
 10
40.921285306166112
 20
15.901960057682199
 30
0.0
 40
0.1577988566583699
 50
79.235414406678373
 51
102.0853976458925
  0
ARC
  5
1A13
  8
0
 10
40.94663935000478
 20
16.032658613459269
 30
0.0
 40
0.0246697412860537
 50
56.035455057812023
 51
80.389236003680963
  0
ARC
  5
1A14
  8
0
 10
812.88725042623935
 20
460.30664072576508
 30
0.0
 40
890.63585151511325
 50
209.9209638663657
 51
209.92112718282539
  0
ARC
  5
1A15
  8
0
 10
40.90260704208567
 20
16.042983079152521
 30
0.0
 40
0.0014065533333585
 50
107.3096716589189
 51
252.3132767242945
  0
ARC
  5
1A16
  8
0
 10
40.920879325282861
 20
15.986584600001221
 30
0.0
 40
0.0606910754321011
 50
72.045378941138054
 51
107.9366906758014
  0
ARC
  5
1A17
  8
0
 10
40.939005315080202
 20
16.042983079152521
 30
0.0
 40
0.0014065533333585
 50
287.68672327570539
 51
72.690328341081084
  0
ARC
  5
1A18
  8
0
 10
40.920879325282861
 20
16.099381558303818
 30
0.0
 40
0.0606910754321011
 50
252.0633093241986
 51
287.9546210588619
  0
ARC
  5
1A19
  8
0
 10
40.916063633268251
 20
15.958987971559379
 30
0.0
 40
0.1648282614230371
 50
87.73696090420836
 51
105.5299792752101
  0
LINE
  5
1A1C
  8
0
 10
40.930517246554061
 20
16.080211229154479
 30
0.0
 11
40.921261288704073
 21
16.131312486954481
 31
0.0
  0
LINE
  5
1A1D
  8
0
 10
40.920610278604073
 20
16.132924995354479
 30
0.0
 11
40.921261276004067
 21
16.131312557054478
 31
0.0
  0
ARC
  5
1A1E
  8
0
 10
40.925292785340183
 20
16.151566824803972
 30
0.0
 40
0.0192209176304768
 50
230.7481429283726
 51
255.8999918213236
  0
ARC
  5
1A1F
  8
0
 10
40.915378622886841
 20
16.13966986822869
 30
0.0
 40
0.0037382517616802
 50
149.72460195221711
 51
233.04298450328861
  0
ARC
  5
1A20
  8
0
 10
40.926190960223742
 20
16.128049107059201
 30
0.0
 40
0.0194817564032966
 50
101.7767902566888
 51
136.11330088744089
  0
LINE
  5
1A21
  8
0
 10
41.012079307129568
 20
16.08002890789701
 30
0.0
 11
41.021262361798428
 21
16.131435542944729
 31
0.0
  0
ARC
  5
1A22
  8
0
 10
40.944166306184421
 20
16.08312484810612
 30
0.0
 40
0.0139791156045938
 50
192.7949461828932
 51
253.97196164681921
  0
ARC
  5
1A23
  8
0
 10
40.965910816229041
 20
16.14898026061131
 30
0.0
 40
0.083358806335162
 50
252.0997478615684
 51
269.2876606210902
  0
ARC
  5
1A24
  8
0
 10
40.971779149080241
 20
16.18083739268144
 30
0.0
 40
0.1154162144824246
 50
266.57028005517611
 51
275.36034995283228
  0
ARC
  5
1A25
  8
0
 10
40.9812989581702
 20
16.123953609655558
 30
0.0
 40
0.0580414271792475
 50
271.2461790305216
 51
294.42460378920561
  0
ARC
  5
1A26
  8
0
 10
40.999125016024188
 20
16.082834651433529
 30
0.0
 40
0.0132538564853725
 50
297.76280101977233
 51
347.86822785173041
  0
ARC
  5
1A27
  8
0
 10
40.932898260435429
 20
16.080321618291261
 30
0.0
 40
0.0023827669189991
 50
145.86017800258779
 51
186.7205040668135
  0
ARC
  5
1A28
  8
0
 10
40.941266392168203
 20
16.071363742697969
 30
0.0
 40
0.014591463540543
 50
100.2500199839882
 51
135.125387012522
  0
ARC
  5
1A29
  8
0
 10
40.971708175887237
 20
15.93142083382374
 30
0.0
 40
0.1577988566583699
 50
79.235414406678373
 51
102.0853976458925
  0
ARC
  5
1A2A
  8
0
 10
40.997062219725912
 20
16.062119389600799
 30
0.0
 40
0.0246697412860537
 50
56.035455057812023
 51
80.389236003680963
  0
ARC
  5
1A2B
  8
0
 10
812.93767329596062
 20
460.33610150190668
 30
0.0
 40
890.63585151511325
 50
209.9209638663657
 51
209.92112718282539
  0
ARC
  5
1A2C
  8
0
 10
40.953029911806802
 20
16.072443855294061
 30
0.0
 40
0.0014065533333585
 50
107.3096716589189
 51
252.3132767242945
  0
ARC
  5
1A2D
  8
0
 10
40.971302195004
 20
16.01604537614276
 30
0.0
 40
0.0606910754321011
 50
72.045378941138054
 51
107.9366906758014
  0
ARC
  5
1A2E
  8
0
 10
40.989428184801334
 20
16.072443855294061
 30
0.0
 40
0.0014065533333585
 50
287.68672327570539
 51
72.690328341081084
  0
ARC
  5
1A2F
  8
0
 10
40.971302195004
 20
16.128842334445348
 30
0.0
 40
0.0606910754321011
 50
252.0633093241986
 51
287.9546210588619
  0
ARC
  5
1A30
  8
0
 10
40.966486502989383
 20
15.988448747700909
 30
0.0
 40
0.1648282614230371
 50
87.73696090420836
 51
105.5299792752101
  0
ARC
  5
1A31
  8
0
 10
40.970993538882048
 20
15.9439090137639
 30
0.0
 40
0.2092490150610337
 50
76.859399169599214
 51
89.451928436094562
  0
ARC
  5
1A32
  8
0
 10
41.01138087788032
 20
16.11727193537552
 30
0.0
 40
0.0312439762120441
 50
54.796417220664352
 51
76.707608393132688
  0
ARC
  5
1A33
  8
0
 10
41.027616835756049
 20
16.1399265697153
 30
0.0
 40
0.003379230397313
 50
330.07753653508871
 51
58.300271731203033
  0
ARC
  5
1A34
  8
0
 10
41.017988967801671
 20
16.149674433610961
 30
0.0
 40
0.0171123083081814
 50
283.27997180659389
 51
317.6164825629279
  0
LINE
  5
1A35
  8
0
 10
41.021262349014179
 20
16.131435471378669
 30
0.0
 11
41.021919828284481
 21
16.13301972162008
 31
0.0
  0
LINE
  5
1A78
  8
0
 10
41.065489977236062
 20
16.091335012534149
 30
0.0
 11
41.056234019386068
 21
16.142436270334152
 31
0.0
  0
LINE
  5
1A79
  8
0
 10
41.05558300928606
 20
16.144048778734149
 30
0.0
 11
41.056234006686068
 21
16.142436340434148
 31
0.0
  0
ARC
  5
1A7A
  8
0
 10
41.060265516022177
 20
16.162690608183642
 30
0.0
 40
0.0192209176304768
 50
230.7481429283726
 51
255.8999918213236
  0
ARC
  5
1A7B
  8
0
 10
41.050351353568843
 20
16.15079365160836
 30
0.0
 40
0.0037382517616802
 50
149.72460195221711
 51
233.04298450328861
  0
ARC
  5
1A7C
  8
0
 10
41.06116369090573
 20
16.139172890438871
 30
0.0
 40
0.0194817564032966
 50
101.7767902566888
 51
136.11330088744089
  0
LINE
  5
1A7D
  8
0
 10
41.147052037811569
 20
16.09115269127668
 30
0.0
 11
41.156235092480429
 21
16.142559326324399
 31
0.0
  0
ARC
  5
1A7E
  8
0
 10
41.079139036866408
 20
16.094248631485801
 30
0.0
 40
0.0139791156045938
 50
192.7949461828932
 51
253.97196164681921
  0
ARC
  5
1A7F
  8
0
 10
41.100883546911042
 20
16.16010404399098
 30
0.0
 40
0.083358806335162
 50
252.0997478615684
 51
269.2876606210902
  0
ARC
  5
1A80
  8
0
 10
41.106751879762228
 20
16.19196117606111
 30
0.0
 40
0.1154162144824246
 50
266.57028005517611
 51
275.36034995283228
  0
ARC
  5
1A81
  8
0
 10
41.116271688852187
 20
16.135077393035228
 30
0.0
 40
0.0580414271792475
 50
271.2461790305216
 51
294.42460378920561
  0
ARC
  5
1A82
  8
0
 10
41.134097746706189
 20
16.093958434813199
 30
0.0
 40
0.0132538564853725
 50
297.76280101977233
 51
347.86822785173041
  0
ARC
  5
1A83
  8
0
 10
41.067870991117417
 20
16.091445401670939
 30
0.0
 40
0.0023827669189991
 50
145.86017800258779
 51
186.7205040668135
  0
ARC
  5
1A84
  8
0
 10
41.076239122850197
 20
16.082487526077639
 30
0.0
 40
0.014591463540543
 50
100.2500199839882
 51
135.125387012522
  0
ARC
  5
1A85
  8
0
 10
41.106680906569238
 20
15.94254461720341
 30
0.0
 40
0.1577988566583699
 50
79.235414406678373
 51
102.0853976458925
  0
ARC
  5
1A86
  8
0
 10
41.132034950407899
 20
16.073243172980469
 30
0.0
 40
0.0246697412860537
 50
56.035455057812023
 51
80.389236003680963
  0
ARC
  5
1A87
  8
0
 10
813.07264602664259
 20
460.3472252852863
 30
0.0
 40
890.63585151511325
 50
209.9209638663657
 51
209.92112718282539
  0
ARC
  5
1A88
  8
0
 10
41.088002642488803
 20
16.083567638673731
 30
0.0
 40
0.0014065533333585
 50
107.3096716589189
 51
252.3132767242945
  0
ARC
  5
1A89
  8
0
 10
41.106274925685987
 20
16.02716915952243
 30
0.0
 40
0.0606910754321011
 50
72.045378941138054
 51
107.9366906758014
  0
ARC
  5
1A8A
  8
0
 10
41.124400915483321
 20
16.083567638673731
 30
0.0
 40
0.0014065533333585
 50
287.68672327570539
 51
72.690328341081084
  0
ARC
  5
1A8B
  8
0
 10
41.106274925685987
 20
16.139966117825029
 30
0.0
 40
0.0606910754321011
 50
252.0633093241986
 51
287.9546210588619
  0
ARC
  5
1A8C
  8
0
 10
41.10145923367137
 20
15.999572531080579
 30
0.0
 40
0.1648282614230371
 50
87.73696090420836
 51
105.5299792752101
  0
ARC
  5
1A8D
  8
0
 10
41.105966269564043
 20
15.955032797143581
 30
0.0
 40
0.2092490150610337
 50
76.859399169599214
 51
89.451928436094562
  0
ARC
  5
1A8E
  8
0
 10
41.146353608562308
 20
16.12839571875519
 30
0.0
 40
0.0312439762120441
 50
54.796417220664352
 51
76.707608393132688
  0
ARC
  5
1A8F
  8
0
 10
41.162589566438037
 20
16.15105035309497
 30
0.0
 40
0.003379230397313
 50
330.07753653508871
 51
58.300271731203033
  0
ARC
  5
1A90
  8
0
 10
41.152961698483658
 20
16.160798216990631
 30
0.0
 40
0.0171123083081814
 50
283.27997180659389
 51
317.6164825629279
  0
LINE
  5
1A91
  8
0
 10
41.156235079696181
 20
16.142559254758339
 30
0.0
 11
41.156892558966469
 21
16.14414350499975
 31
0.0
  0
LINE
  5
1A93
  8
0
 10
41.176277010171297
 20
16.111296600005812
 30
0.0
 11
41.167021052321303
 21
16.162397857805811
 31
0.0
  0
LINE
  5
1A94
  8
0
 10
41.166370042221303
 20
16.164010366205812
 30
0.0
 11
41.167021039621297
 21
16.162397927905811
 31
0.0
  0
ARC
  5
1A95
  8
0
 10
41.171052548957412
 20
16.182652195655301
 30
0.0
 40
0.0192209176304768
 50
230.7481429283726
 51
255.8999918213236
  0
ARC
  5
1A96
  8
0
 10
41.161138386504078
 20
16.170755239080009
 30
0.0
 40
0.0037382517616802
 50
149.72460195221711
 51
233.04298450328861
  0
ARC
  5
1A97
  8
0
 10
41.171950723840958
 20
16.159134477910531
 30
0.0
 40
0.0194817564032966
 50
126.1604245475629
 51
136.11330088744089
  0
LINE
  5
1A98
  8
0
 10
41.257839070746797
 20
16.111114278748339
 30
0.0
 11
41.267022125415657
 21
16.162520913796062
 31
0.0
  0
ARC
  5
1A99
  8
0
 10
41.18992606980165
 20
16.114210218957449
 30
0.0
 40
0.0139791156045938
 50
192.7949461828932
 51
253.97196164681921
  0
ARC
  5
1A9A
  8
0
 10
41.21167057984627
 20
16.180065631462639
 30
0.0
 40
0.083358806335162
 50
252.0997478615684
 51
269.2876606210902
  0
ARC
  5
1A9B
  8
0
 10
41.217538912697457
 20
16.211922763532769
 30
0.0
 40
0.1154162144824246
 50
266.57028005517611
 51
275.36034995283228
  0
ARC
  5
1A9C
  8
0
 10
41.227058721787436
 20
16.155038980506891
 30
0.0
 40
0.0580414271792475
 50
271.2461790305216
 51
294.42460378920561
  0
ARC
  5
1A9D
  8
0
 10
41.244884779641417
 20
16.113920022284859
 30
0.0
 40
0.0132538564853725
 50
297.76280101977233
 51
347.86822785173041
  0
ARC
  5
1A9E
  8
0
 10
41.178658024052652
 20
16.111406989142591
 30
0.0
 40
0.0023827669189991
 50
145.86017800258779
 51
186.7205040668135
  0
ARC
  5
1A9F
  8
0
 10
41.187026155785439
 20
16.102449113549302
 30
0.0
 40
0.014591463540543
 50
100.2500199839882
 51
135.125387012522
  0
ARC
  5
1AA0
  8
0
 10
41.217467939504473
 20
15.962506204675069
 30
0.0
 40
0.1577988566583699
 50
79.235414406678373
 51
102.0853976458925
  0
ARC
  5
1AA1
  8
0
 10
41.242821983343141
 20
16.093204760452132
 30
0.0
 40
0.0246697412860537
 50
56.035455057812023
 51
80.389236003680963
  0
ARC
  5
1AA2
  8
0
 10
813.18343305957774
 20
460.36718687275788
 30
0.0
 40
890.63585151511325
 50
209.9209638663657
 51
209.92112718282539
  0
ARC
  5
1AA3
  8
0
 10
41.198789675424038
 20
16.10352922614539
 30
0.0
 40
0.0014065533333585
 50
107.3096716589189
 51
252.3132767242945
  0
ARC
  5
1AA4
  8
0
 10
41.21706195862123
 20
16.047130746994089
 30
0.0
 40
0.0606910754321011
 50
72.045378941138054
 51
107.9366906758014
  0
ARC
  5
1AA5
  8
0
 10
41.235187948418563
 20
16.10352922614539
 30
0.0
 40
0.0014065533333585
 50
287.68672327570539
 51
72.690328341081084
  0
ARC
  5
1AA6
  8
0
 10
41.21706195862123
 20
16.159927705296681
 30
0.0
 40
0.0606910754321011
 50
252.0633093241986
 51
287.9546210588619
  0
ARC
  5
1AA9
  8
0
 10
41.256124199529367
 20
16.146561088486589
 30
0.0
 40
0.033298274273528
 50
55.14906658065189
 51
77.269634529628675
  0
ARC
  5
1AAA
  8
0
 10
41.273376599373272
 20
16.171011940566629
 30
0.0
 40
0.003379230397313
 50
330.07753653508871
 51
58.300271731203033
  0
ARC
  5
1AAB
  8
0
 10
41.2637487314189
 20
16.180759804462291
 30
0.0
 40
0.0171123083081814
 50
283.27997180659389
 51
317.6164825629279
  0
LINE
  5
1AAC
  8
0
 10
41.267022112631409
 20
16.162520842229998
 30
0.0
 11
41.267679591901697
 21
16.164105092471409
 31
0.0
  0
LINE
  5
1AAE
  8
0
 10
41.318272089112376
 20
16.10601602037713
 30
0.0
 11
41.309016131262382
 21
16.157117278177129
 31
0.0
  0
LINE
  5
1AAF
  8
0
 10
41.308365121162382
 20
16.15872978657713
 30
0.0
 11
41.309016118562383
 21
16.157117348277129
 31
0.0
  0
ARC
  5
1AB0
  8
0
 10
41.313047627898491
 20
16.177371616026619
 30
0.0
 40
0.0192209176304768
 50
230.7481429283726
 51
255.8999918213236
  0
ARC
  5
1AB1
  8
0
 10
41.30313346544515
 20
16.165474659451341
 30
0.0
 40
0.0037382517616802
 50
149.72460195221711
 51
233.04298450328861
  0
ARC
  5
1AB2
  8
0
 10
41.313945802782037
 20
16.153853898281849
 30
0.0
 40
0.0194817564032966
 50
101.7767902566888
 51
136.11330088744089
  0
LINE
  5
1AB3
  8
0
 10
41.399834149687877
 20
16.10583369911966
 30
0.0
 11
41.409017204356743
 21
16.15724033416739
 31
0.0
  0
ARC
  5
1AB4
  8
0
 10
41.331921148742722
 20
16.108929639328782
 30
0.0
 40
0.0139791156045938
 50
192.7949461828932
 51
253.97196164681921
  0
ARC
  5
1AB5
  8
0
 10
41.353665658787357
 20
16.174785051833961
 30
0.0
 40
0.083358806335162
 50
252.0997478615684
 51
269.2876606210902
  0
ARC
  5
1AB6
  8
0
 10
41.35953399163855
 20
16.206642183904091
 30
0.0
 40
0.1154162144824246
 50
266.57028005517611
 51
275.36034995283228
  0
ARC
  5
1AB7
  8
0
 10
41.369053800728508
 20
16.149758400878209
 30
0.0
 40
0.0580414271792475
 50
271.2461790305216
 51
294.42460378920561
  0
ARC
  5
1AB8
  8
0
 10
41.386879858582503
 20
16.10863944265618
 30
0.0
 40
0.0132538564853725
 50
297.76280101977233
 51
347.86822785173041
  0
ARC
  5
1AB9
  8
0
 10
41.320653102993731
 20
16.106126409513919
 30
0.0
 40
0.0023827669189991
 50
145.86017800258779
 51
186.7205040668135
  0
ARC
  5
1ABA
  8
0
 10
41.329021234726518
 20
16.09716853392062
 30
0.0
 40
0.014591463540543
 50
100.2500199839882
 51
135.125387012522
  0
ARC
  5
1ABB
  8
0
 10
41.359463018445553
 20
15.957225625046391
 30
0.0
 40
0.1577988566583699
 50
79.235414406678373
 51
102.0853976458925
  0
ARC
  5
1ABC
  8
0
 10
41.38481706228422
 20
16.08792418082346
 30
0.0
 40
0.0246697412860537
 50
56.035455057812023
 51
80.389236003680963
  0
ARC
  5
1ABD
  8
0
 10
813.32542813851876
 20
460.36190629312932
 30
0.0
 40
890.63585151511325
 50
209.9209638663657
 51
209.92112718282539
  0
ARC
  5
1ABE
  8
0
 10
41.340784754365117
 20
16.098248646516709
 30
0.0
 40
0.0014065533333585
 50
107.3096716589189
 51
252.3132767242945
  0
ARC
  5
1ABF
  8
0
 10
41.359057037562309
 20
16.041850167365411
 30
0.0
 40
0.0606910754321011
 50
72.045378941138054
 51
107.9366906758014
  0
ARC
  5
1AC0
  8
0
 10
41.377183027359642
 20
16.098248646516709
 30
0.0
 40
0.0014065533333585
 50
287.68672327570539
 51
72.690328341081084
  0
ARC
  5
1AC1
  8
0
 10
41.359057037562309
 20
16.15464712566801
 30
0.0
 40
0.0606910754321011
 50
252.0633093241986
 51
287.9546210588619
  0
ARC
  5
1AC2
  8
0
 10
41.354241345547692
 20
16.014253538923569
 30
0.0
 40
0.1648282614230371
 50
87.73696090420836
 51
105.5299792752101
  0
ARC
  5
1AC3
  8
0
 10
41.358748381440357
 20
15.96971380498656
 30
0.0
 40
0.2092490150610337
 50
76.859399169599214
 51
89.451928436094562
  0
ARC
  5
1AC4
  8
0
 10
41.399135720438622
 20
16.143076726598171
 30
0.0
 40
0.0312439762120441
 50
54.796417220664352
 51
76.707608393132688
  0
ARC
  5
1AC5
  8
0
 10
41.415371678314358
 20
16.165731360937951
 30
0.0
 40
0.003379230397313
 50
330.07753653508871
 51
58.300271731203033
  0
ARC
  5
1AC6
  8
0
 10
41.405743810359979
 20
16.175479224833609
 30
0.0
 40
0.0171123083081814
 50
283.27997180659389
 51
317.6164825629279
  0
LINE
  5
1AC7
  8
0
 10
41.409017191572488
 20
16.157240262601331
 30
0.0
 11
41.40967467084279
 21
16.158824512842742
 31
0.0
  0
LINE
  5
1AC9
  8
0
 10
41.460415054813659
 20
16.111124730200999
 30
0.0
 11
41.451159096963657
 21
16.162225988001001
 31
0.0
  0
LINE
  5
1ACA
  8
0
 10
41.450508086863657
 20
16.163838496400999
 30
0.0
 11
41.451159084263658
 21
16.162226058101002
 31
0.0
  0
ARC
  5
1ACB
  8
0
 10
41.455190593599767
 20
16.182480325850491
 30
0.0
 40
0.0192209176304768
 50
230.7481429283726
 51
255.8999918213236
  0
ARC
  5
1ACC
  8
0
 10
41.445276431146439
 20
16.17058336927521
 30
0.0
 40
0.0037382517616802
 50
149.72460195221711
 51
233.04298450328861
  0
ARC
  5
1ACD
  8
0
 10
41.456088768483319
 20
16.158962608105721
 30
0.0
 40
0.0194817564032966
 50
101.7767902566888
 51
136.11330088744089
  0
LINE
  5
1ACE
  8
0
 10
41.541977115389159
 20
16.11094240894354
 30
0.0
 11
41.551160170058019
 21
16.162349043991259
 31
0.0
  0
ARC
  5
1ACF
  8
0
 10
41.474064114444012
 20
16.114038349152651
 30
0.0
 40
0.0139791156045938
 50
192.7949461828932
 51
253.97196164681921
  0
ARC
  5
1AD0
  8
0
 10
41.495808624488632
 20
16.17989376165783
 30
0.0
 40
0.083358806335162
 50
252.0997478615684
 51
269.2876606210902
  0
ARC
  5
1AD1
  8
0
 10
41.501676957339832
 20
16.21175089372797
 30
0.0
 40
0.1154162144824246
 50
266.57028005517611
 51
275.36034995283228
  0
ARC
  5
1AD2
  8
0
 10
41.511196766429798
 20
16.154867110702089
 30
0.0
 40
0.0580414271792475
 50
271.2461790305216
 51
294.42460378920561
  0
ARC
  5
1AD3
  8
0
 10
41.529022824283778
 20
16.11374815248006
 30
0.0
 40
0.0132538564853725
 50
297.76280101977233
 51
347.86822785173041
  0
ARC
  5
1AD4
  8
0
 10
41.46279606869502
 20
16.111235119337788
 30
0.0
 40
0.0023827669189991
 50
145.86017800258779
 51
186.7205040668135
  0
ARC
  5
1AD5
  8
0
 10
41.4711642004278
 20
16.102277243744499
 30
0.0
 40
0.014591463540543
 50
100.2500199839882
 51
135.125387012522
  0
ARC
  5
1AD6
  8
0
 10
41.501605984146828
 20
15.96233433487026
 30
0.0
 40
0.1577988566583699
 50
79.235414406678373
 51
102.0853976458925
  0
ARC
  5
1AD7
  8
0
 10
41.526960027985503
 20
16.093032890647329
 30
0.0
 40
0.0246697412860537
 50
56.035455057812023
 51
80.389236003680963
  0
ARC
  5
1AD8
  8
0
 10
813.46757110422016
 20
460.36701500295322
 30
0.0
 40
890.63585151511325
 50
209.9209638663657
 51
209.92112718282539
  0
ARC
  5
1AD9
  8
0
 10
41.4829277200664
 20
16.103357356340581
 30
0.0
 40
0.0014065533333585
 50
107.3096716589189
 51
252.3132767242945
  0
ARC
  5
1ADA
  8
0
 10
41.501200003263591
 20
16.04695887718929
 30
0.0
 40
0.0606910754321011
 50
72.045378941138054
 51
107.9366906758014
  0
ARC
  5
1ADB
  8
0
 10
41.519325993060917
 20
16.103357356340581
 30
0.0
 40
0.0014065533333585
 50
287.68672327570539
 51
72.690328341081084
  0
ARC
  5
1ADC
  8
0
 10
41.501200003263591
 20
16.159755835491879
 30
0.0
 40
0.0606910754321011
 50
252.0633093241986
 51
287.9546210588619
  0
ARC
  5
1ADD
  8
0
 10
41.496244090035049
 20
16.019223813660378
 30
0.0
 40
0.1648282614230371
 50
103.7277699148367
 51
105.5299792752101
  0
ARC
  5
1ADF
  8
0
 10
41.541278686139911
 20
16.14818543642205
 30
0.0
 40
0.0312439762120441
 50
54.796417220664352
 51
58.698665730978277
  0
ARC
  5
1AE0
  8
0
 10
41.557514644015633
 20
16.17084007076182
 30
0.0
 40
0.003379230397313
 50
330.07753653508871
 51
58.300271731203033
  0
ARC
  5
1AE1
  8
0
 10
41.547886776061262
 20
16.180587934657481
 30
0.0
 40
0.0171123083081814
 50
283.27997180659389
 51
317.6164825629279
  0
LINE
  5
1AE2
  8
0
 10
41.551160157273777
 20
16.1623489724252
 30
0.0
 11
41.551817636544072
 21
16.163933222666611
 31
0.0
  0
LINE
  5
1AE3
  8
0
 10
41.929868925692773
 20
16.026683935832661
 30
0.0
 11
41.939124884748622
 21
16.07778519341425
 31
0.0
  0
LINE
  5
1AE4
  8
0
 10
41.939775894886672
 20
16.079397701798889
 30
0.0
 11
41.939124897448622
 21
16.077785263514251
 31
0.0
  0
ARC
  5
1AE5
  8
0
 10
41.935093388590452
 20
16.098039531358872
 30
0.0
 40
0.0192209176304768
 50
284.10000682665691
 51
309.25185571960799
  0
ARC
  5
1AE6
  8
0
 10
41.945007550763052
 20
16.08614257454964
 30
0.0
 40
0.0037382517616802
 50
306.95701414469193
 51
30.275396695763469
  0
ARC
  5
1AE7
  8
0
 10
41.934195213151952
 20
16.0745218136353
 30
0.0
 40
0.0194817564032966
 50
43.88669776053959
 51
78.223208391291735
  0
ARC
  5
1AE8
  8
0
 10
41.894039888302771
 20
15.934783020137511
 30
0.0
 40
0.1648282614230371
 50
74.470019372770395
 51
94.958083437291634
  0
ARC
  5
1AE9
  8
0
 10
41.883400354700179
 20
15.919568593005231
 30
0.0
 40
0.179462166349624
 50
91.151363816059586
 51
101.9475398781484
  0
LINE
  5
1AEA
  8
0
 10
41.84830686511296
 20
16.026501616499829
 30
0.0
 11
41.841067550226782
 21
16.066537917422519
 31
0.0
  0
ARC
  5
1AEB
  8
0
 10
41.916219866131172
 20
16.029597555106388
 30
0.0
 40
0.0139791156045938
 50
286.02803700116118
 51
347.20505246508731
  0
ARC
  5
1AEC
  8
0
 10
41.894475357640552
 20
16.095452968124679
 30
0.0
 40
0.083358806335162
 50
270.71233802689039
 51
287.90025078641219
  0
ARC
  5
1AED
  8
0
 10
41.888607025541091
 20
16.12731010033329
 30
0.0
 40
0.1154162144824246
 50
264.63964869514831
 51
273.42971859280459
  0
ARC
  5
1AEE
  8
0
 10
41.879087215108832
 20
16.07042631753205
 30
0.0
 40
0.0580414271792475
 50
245.57539485877501
 51
268.75381961745899
  0
ARC
  5
1AEF
  8
0
 10
41.861261156284549
 20
16.029307359730669
 30
0.0
 40
0.0132538564853725
 50
192.13177079625021
 51
242.23719762820841
  0
ARC
  5
1AF0
  8
0
 10
41.927487911814019
 20
16.02679432502563
 30
0.0
 40
0.0023827669189991
 50
353.27949458116711
 51
34.139820645392689
  0
ARC
  5
1AF1
  8
0
 10
41.919119779869852
 20
16.017836449629812
 30
0.0
 40
0.014591463540543
 50
44.874611635458507
 51
79.749978663992394
  0
ARC
  5
1AF2
  8
0
 10
41.888677992848557
 20
15.87789354147392
 30
0.0
 40
0.1577988566583699
 50
77.914601002087849
 51
100.7645842413022
  0
ARC
  5
1AF3
  8
0
 10
41.863323952094007
 20
16.00859209784926
 30
0.0
 40
0.0246697412860537
 50
99.610762644299598
 51
123.9645435901686
  0
ARC
  5
1AF4
  8
0
 10
-730.07727664052254
 20
460.28259242578463
 30
0.0
 40
890.63585151511313
 50
330.07887146515509
 51
330.07903478161478
  0
ARC
  5
1AF5
  8
0
 10
41.907356260256741
 20
16.018916562503481
 30
0.0
 40
0.0014065533333585
 50
287.68672192368598
 51
72.690326989061788
  0
ARC
  5
1AF6
  8
0
 10
41.88908397572871
 20
15.962518083783349
 30
0.0
 40
0.0606910754321011
 50
72.063307972179203
 51
107.95461970684271
  0
ARC
  5
1AF7
  8
0
 10
41.870957987262223
 20
16.018916563362371
 30
0.0
 40
0.0014065533333585
 50
107.30967030689931
 51
252.31327537227509
  0
ARC
  5
1AF8
  8
0
 10
41.889083978390403
 20
16.075315042085951
 30
0.0
 40
0.0606910754321011
 50
252.04537758911849
 51
287.93668932378199
  0
LINE
  5
1AF9
  8
0
 10
41.782379497475198
 20
15.968729075813
 30
0.0
 11
41.782379499083632
 21
16.036891307491381
 31
0.0
  0
ARC
  5
1AFA
  8
0
 10
41.756242105566407
 20
15.96744081919022
 30
0.0
 40
0.0261691203696249
 50
326.93793409014671
 51
34.912254453953523
  0
ARC
  5
1AFB
  8
0
 10
41.709244711222681
 20
15.92511991776462
 30
0.0
 40
0.0892715275477246
 50
39.929168026617667
 51
69.233949281775708
  0
LINE
  5
1AFC
  8
0
 10
41.838207968374597
 20
16.050750441708551
 30
0.0
 11
41.847463927430439
 21
16.10185169929013
 31
0.0
  0
LINE
  5
1AFD
  8
0
 10
41.848114937568489
 20
16.103464207674769
 30
0.0
 11
41.847463940130439
 21
16.10185176939013
 31
0.0
  0
ARC
  5
1AFE
  8
0
 10
41.843432431272269
 20
16.122106037234751
 30
0.0
 40
0.0192209176304768
 50
284.10000682665691
 51
309.25185571960799
  0
ARC
  5
1AFF
  8
0
 10
41.853346593444883
 20
16.11020908042553
 30
0.0
 40
0.0037382517616802
 50
306.95701414469193
 51
30.275396695763469
  0
ARC
  5
1B00
  8
0
 10
41.842534255833769
 20
16.09858831951118
 30
0.0
 40
0.0194817564032966
 50
43.88669776053959
 51
78.223208391291735
  0
LINE
  5
1B01
  8
0
 10
41.756645907794777
 20
16.050568122375712
 30
0.0
 11
41.753897217033071
 21
16.06576947943913
 31
0.0
  0
ARC
  5
1B02
  8
0
 10
41.824558908813003
 20
16.053664060982271
 30
0.0
 40
0.0139791156045938
 50
286.02803700116118
 51
347.20505246508731
  0
ARC
  5
1B03
  8
0
 10
41.802814400322383
 20
16.119519474000569
 30
0.0
 40
0.083358806335162
 50
270.71233802689039
 51
287.90025078641219
  0
ARC
  5
1B04
  8
0
 10
41.796946068222923
 20
16.151376606209169
 30
0.0
 40
0.1154162144824246
 50
264.63964869514831
 51
273.42971859280459
  0
ARC
  5
1B05
  8
0
 10
41.787426257790649
 20
16.09449282340794
 30
0.0
 40
0.0580414271792475
 50
245.57539485877501
 51
268.75381961745899
  0
ARC
  5
1B06
  8
0
 10
41.76960019896638
 20
16.053373865606549
 30
0.0
 40
0.0132538564853725
 50
192.13177079625021
 51
242.23719762820841
  0
ARC
  5
1B07
  8
0
 10
41.835826954495843
 20
16.05086083090152
 30
0.0
 40
0.0023827669189991
 50
353.27949458116711
 51
34.139820645392689
  0
ARC
  5
1B08
  8
0
 10
41.827458822551677
 20
16.041902955505691
 30
0.0
 40
0.014591463540543
 50
44.874611635458507
 51
79.749978663992394
  0
ARC
  5
1B09
  8
0
 10
41.797017035530381
 20
15.9019600473498
 30
0.0
 40
0.1577988566583699
 50
77.914601002087849
 51
100.7645842413022
  0
ARC
  5
1B0A
  8
0
 10
41.771662994775831
 20
16.03265860372515
 30
0.0
 40
0.0246697412860537
 50
99.610762644299598
 51
123.9645435901686
  0
ARC
  5
1B0B
  8
0
 10
-730.16893759784045
 20
460.30665893166048
 30
0.0
 40
890.63585151511313
 50
330.07887146515509
 51
330.07903478161478
  0
ARC
  5
1B0C
  8
0
 10
41.815695302938572
 20
16.04298306837936
 30
0.0
 40
0.0014065533333585
 50
287.68672192368598
 51
72.690326989061788
  0
ARC
  5
1B0D
  8
0
 10
41.797423018410527
 20
15.986584589659239
 30
0.0
 40
0.0606910754321011
 50
72.063307972179203
 51
107.95461970684271
  0
ARC
  5
1B0E
  8
0
 10
41.77929702994404
 20
16.042983069238261
 30
0.0
 40
0.0014065533333585
 50
107.30967030689931
 51
252.31327537227509
  0
ARC
  5
1B0F
  8
0
 10
41.79742302107222
 20
16.09938154796183
 30
0.0
 40
0.0606910754321011
 50
252.04537758911849
 51
287.93668932378199
  0
ARC
  5
1B10
  8
0
 10
41.802238709773938
 20
15.958987961103761
 30
0.0
 40
0.1648282614230371
 50
74.470019372770395
 51
92.263037743772088
  0
LINE
  5
1B11
  8
0
 10
41.78778509934866
 20
16.080211219039921
 30
0.0
 11
41.797041058404503
 21
16.131312476621499
 31
0.0
  0
LINE
  5
1B12
  8
0
 10
41.797692068542553
 20
16.132924985006142
 30
0.0
 11
41.797041071104509
 21
16.13131254672151
 31
0.0
  0
ARC
  5
1B13
  8
0
 10
41.79300956224634
 20
16.15156681456612
 30
0.0
 40
0.0192209176304768
 50
284.10000682665691
 51
309.25185571960799
  0
ARC
  5
1B14
  8
0
 10
41.802923724418932
 20
16.1396698577569
 30
0.0
 40
0.0037382517616802
 50
306.95701414469193
 51
30.275396695763469
  0
ARC
  5
1B15
  8
0
 10
41.792111386807832
 20
16.128049096842549
 30
0.0
 40
0.0194817564032966
 50
43.88669776053959
 51
78.223208391291735
  0
LINE
  5
1B16
  8
0
 10
41.706223038768847
 20
16.080028899707091
 30
0.0
 11
41.69703998531304
 21
16.131435534971502
 31
0.0
  0
ARC
  5
1B17
  8
0
 10
41.774136039787059
 20
16.083124838313651
 30
0.0
 40
0.0139791156045938
 50
286.02803700116118
 51
347.20505246508731
  0
ARC
  5
1B18
  8
0
 10
41.752391531296439
 20
16.148980251331938
 30
0.0
 40
0.083358806335162
 50
270.71233802689039
 51
287.90025078641219
  0
ARC
  5
1B19
  8
0
 10
41.746523199196979
 20
16.180837383540549
 30
0.0
 40
0.1154162144824246
 50
264.63964869514831
 51
273.42971859280459
  0
ARC
  5
1B1A
  8
0
 10
41.737003388764712
 20
16.123953600739309
 30
0.0
 40
0.0580414271792475
 50
245.57539485877501
 51
268.75381961745899
  0
ARC
  5
1B1B
  8
0
 10
41.719177329940429
 20
16.082834642937922
 30
0.0
 40
0.0132538564853725
 50
192.13177079625021
 51
242.23719762820841
  0
ARC
  5
1B1C
  8
0
 10
41.785404085469899
 20
16.080321608232889
 30
0.0
 40
0.0023827669189991
 50
353.27949458116711
 51
34.139820645392689
  0
ARC
  5
1B1D
  8
0
 10
41.77703595352574
 20
16.07136373283706
 30
0.0
 40
0.014591463540543
 50
44.874611635458507
 51
79.749978663992394
  0
ARC
  5
1B1E
  8
0
 10
41.746594166504437
 20
15.931420824681171
 30
0.0
 40
0.1577988566583699
 50
77.914601002087849
 51
100.7645842413022
  0
ARC
  5
1B1F
  8
0
 10
41.721240125749901
 20
16.062119381056519
 30
0.0
 40
0.0246697412860537
 50
99.610762644299598
 51
123.9645435901686
  0
ARC
  5
1B20
  8
0
 10
-730.21936046686665
 20
460.33611970899187
 30
0.0
 40
890.63585151511313
 50
330.07887146515509
 51
330.07903478161478
  0
ARC
  5
1B21
  8
0
 10
41.765272433912628
 20
16.07244384571074
 30
0.0
 40
0.0014065533333585
 50
287.68672192368598
 51
72.690326989061788
  0
ARC
  5
1B22
  8
0
 10
41.74700014938459
 20
16.01604536699061
 30
0.0
 40
0.0606910754321011
 50
72.063307972179203
 51
107.95461970684271
  0
ARC
  5
1B23
  8
0
 10
41.72887416091811
 20
16.07244384656963
 30
0.0
 40
0.0014065533333585
 50
107.30967030689931
 51
252.31327537227509
  0
ARC
  5
1B24
  8
0
 10
41.74700015204629
 20
16.12884232529321
 30
0.0
 40
0.0606910754321011
 50
252.04537758911849
 51
287.93668932378199
  0
ARC
  5
1B25
  8
0
 10
41.751815840748009
 20
15.98844873843513
 30
0.0
 40
0.1648282614230371
 50
74.470019372770395
 51
92.263037743772088
  0
ARC
  5
1B26
  8
0
 10
41.747308803804323
 20
15.94390900460448
 30
0.0
 40
0.2092490150610336
 50
90.548070211885957
 51
103.1405994783814
  0
ARC
  5
1B27
  8
0
 10
41.706921468896937
 20
16.117271927169121
 30
0.0
 40
0.0312439762120441
 50
103.2923902548479
 51
125.20358142731619
  0
ARC
  5
1B28
  8
0
 10
41.690685511555792
 20
16.139926561892018
 30
0.0
 40
0.003379230397313
 50
121.69972691677749
 51
209.92246211289191
  0
ARC
  5
1B29
  8
0
 10
41.700313379740187
 20
16.14967442556048
 30
0.0
 40
0.0171123083081814
 50
222.38351608505261
 51
256.72002684138658
  0
LINE
  5
1B2A
  8
0
 10
41.697039998097289
 20
16.131435463405442
 30
0.0
 11
41.696382518864382
 21
16.133019713662371
 31
0.0
  0
LINE
  5
1B2B
  8
0
 10
41.652812368929148
 20
16.09133500560457
 30
0.0
 11
41.662068327984997
 21
16.142436263186148
 31
0.0
  0
LINE
  5
1B2C
  8
0
 10
41.662719338123047
 20
16.144048771570791
 30
0.0
 11
41.662068340685003
 21
16.142436333286149
 31
0.0
  0
ARC
  5
1B2D
  8
0
 10
41.658036831826827
 20
16.16269060113078
 30
0.0
 40
0.0192209176304768
 50
284.10000682665691
 51
309.25185571960799
  0
ARC
  5
1B2E
  8
0
 10
41.667950993999433
 20
16.150793644321549
 30
0.0
 40
0.0037382517616802
 50
306.95701414469193
 51
30.275396695763469
  0
ARC
  5
1B2F
  8
0
 10
41.657138656388319
 20
16.139172883407198
 30
0.0
 40
0.0194817564032966
 50
43.88669776053959
 51
78.223208391291735
  0
LINE
  5
1B30
  8
0
 10
41.571250308349349
 20
16.091152686271741
 30
0.0
 11
41.562067254893542
 21
16.142559321536151
 31
0.0
  0
ARC
  5
1B31
  8
0
 10
41.639163309367561
 20
16.094248624878301
 30
0.0
 40
0.0139791156045938
 50
286.02803700116118
 51
347.20505246508731
  0
ARC
  5
1B32
  8
0
 10
41.617418800876933
 20
16.160104037896591
 30
0.0
 40
0.083358806335162
 50
270.71233802689039
 51
287.90025078641219
  0
ARC
  5
1B33
  8
0
 10
41.611550468777473
 20
16.191961170105198
 30
0.0
 40
0.1154162144824246
 50
264.63964869514831
 51
273.42971859280459
  0
ARC
  5
1B34
  8
0
 10
41.602030658345207
 20
16.135077387303959
 30
0.0
 40
0.0580414271792475
 50
245.57539485877501
 51
268.75381961745899
  0
ARC
  5
1B35
  8
0
 10
41.584204599520923
 20
16.093958429502582
 30
0.0
 40
0.0132538564853725
 50
192.13177079625021
 51
242.23719762820841
  0
ARC
  5
1B36
  8
0
 10
41.650431355050387
 20
16.091445394797539
 30
0.0
 40
0.0023827669189991
 50
353.27949458116711
 51
34.139820645392689
  0
ARC
  5
1B37
  8
0
 10
41.642063223106241
 20
16.08248751940172
 30
0.0
 40
0.014591463540543
 50
44.874611635458507
 51
79.749978663992394
  0
ARC
  5
1B38
  8
0
 10
41.611621436084938
 20
15.94254461124582
 30
0.0
 40
0.1577988566583699
 50
77.914601002087849
 51
100.7645842413022
  0
ARC
  5
1B39
  8
0
 10
41.586267395330403
 20
16.073243167621168
 30
0.0
 40
0.0246697412860537
 50
99.610762644299598
 51
123.9645435901686
  0
ARC
  5
1B3A
  8
0
 10
-730.35433319728611
 20
460.34724349555648
 30
0.0
 40
890.63585151511313
 50
330.07887146515509
 51
330.07903478161478
  0
ARC
  5
1B3B
  8
0
 10
41.630299703493122
 20
16.083567632275379
 30
0.0
 40
0.0014065533333585
 50
287.68672192368598
 51
72.690326989061788
  0
ARC
  5
1B3C
  8
0
 10
41.612027418965077
 20
16.02716915355526
 30
0.0
 40
0.0606910754321011
 50
72.063307972179203
 51
107.95461970684271
  0
ARC
  5
1B3D
  8
0
 10
41.593901430498597
 20
16.08356763313428
 30
0.0
 40
0.0014065533333585
 50
107.30967030689931
 51
252.31327537227509
  0
ARC
  5
1B3E
  8
0
 10
41.612027421626777
 20
16.139966111857859
 30
0.0
 40
0.0606910754321011
 50
252.04537758911849
 51
287.93668932378199
  0
ARC
  5
1B3F
  8
0
 10
41.616843110328503
 20
15.999572524999779
 30
0.0
 40
0.1648282614230371
 50
74.470019372770395
 51
92.263037743772088
  0
ARC
  5
1B40
  8
0
 10
41.612336073384817
 20
15.955032791169129
 30
0.0
 40
0.2092490150610336
 50
90.548070211885957
 51
103.1405994783814
  0
ARC
  5
1B41
  8
0
 10
41.571948738477431
 20
16.12839571373377
 30
0.0
 40
0.0312439762120441
 50
103.2923902548479
 51
125.20358142731619
  0
ARC
  5
1B42
  8
0
 10
41.555712781136293
 20
16.151050348456671
 30
0.0
 40
0.003379230397313
 50
121.69972691677749
 51
209.92246211289191
  0
ARC
  5
1B43
  8
0
 10
41.565340649320689
 20
16.16079821212514
 30
0.0
 40
0.0171123083081814
 50
222.38351608505261
 51
256.72002684138658
  0
LINE
  5
1B44
  8
0
 10
41.56206726767779
 20
16.142559249970091
 30
0.0
 11
41.56140978844487
 21
16.14414350022702
 31
0.0
  0
ARC
  5
1B45
  8
0
 10
41.547249799362639
 20
16.1826521912167
 30
0.0
 40
0.0192209176304768
 50
284.10000682665691
 51
309.25185571960799
  0
ARC
  5
1B46
  8
0
 10
41.557163961535238
 20
16.170755234407469
 30
0.0
 40
0.0037382517616802
 50
306.95701414469193
 51
30.275396695763469
  0
ARC
  5
1B47
  8
0
 10
41.546351623924132
 20
16.159134473493118
 30
0.0
 40
0.0194817564032966
 50
43.88669776053959
 51
53.839574100417799
  0
LINE
  5
1B48
  8
0
 10
40.788596458296539
 20
15.964878730655849
 30
0.0
 11
40.77934050044653
 21
16.01597998845585
 31
0.0
  0
LINE
  5
1B49
  8
0
 10
40.778689490346537
 20
16.017592496855851
 30
0.0
 11
40.779340487746531
 21
16.01598005855584
 31
0.0
  0
ARC
  5
1B4A
  8
0
 10
40.783371997082639
 20
16.03623432630534
 30
0.0
 40
0.0192209176304768
 50
230.7481429283726
 51
255.8999918213236
  0
ARC
  5
1B4B
  8
0
 10
40.773457834629312
 20
16.024337369730048
 30
0.0
 40
0.0037382517616802
 50
149.72460195221711
 51
233.04298450328861
  0
ARC
  5
1B4C
  8
0
 10
40.784270171966192
 20
16.012716608560559
 30
0.0
 40
0.0194817564032966
 50
101.7767902566888
 51
136.11330088744089
  0
ARC
  5
1B4D
  8
0
 10
40.824425493517921
 20
15.872977814115229
 30
0.0
 40
0.1648282614230371
 50
103.0558664519545
 51
105.5299792752101
  0
LINE
  5
1B4F
  8
0
 10
40.870158518872039
 20
15.96469640939838
 30
0.0
 11
40.873356002125711
 21
15.982379765696541
 31
0.0
  0
ARC
  5
1B50
  8
0
 10
40.802245517926877
 20
15.967792349607491
 30
0.0
 40
0.0139791156045938
 50
192.7949461828932
 51
253.97196164681921
  0
ARC
  5
1B51
  8
0
 10
40.823990027971512
 20
16.033647762112679
 30
0.0
 40
0.083358806335162
 50
252.0997478615684
 51
269.2876606210902
  0
ARC
  5
1B52
  8
0
 10
40.829858360822712
 20
16.065504894182808
 30
0.0
 40
0.1154162144824246
 50
266.57028005517611
 51
275.36034995283228
  0
ARC
  5
1B53
  8
0
 10
40.839378169912671
 20
16.008621111156931
 30
0.0
 40
0.0580414271792475
 50
271.2461790305216
 51
294.42460378920561
  0
ARC
  5
1B54
  8
0
 10
40.857204227766658
 20
15.9675021529349
 30
0.0
 40
0.0132538564853725
 50
297.76280101977233
 51
347.86822785173041
  0
ARC
  5
1B55
  8
0
 10
40.790977472177893
 20
15.96498911979263
 30
0.0
 40
0.0023827669189991
 50
145.86017800258779
 51
186.7205040668135
  0
ARC
  5
1B56
  8
0
 10
40.799345603910673
 20
15.956031244199339
 30
0.0
 40
0.014591463540543
 50
100.2500199839882
 51
135.125387012522
  0
ARC
  5
1B57
  8
0
 10
40.8297873876297
 20
15.8160883353251
 30
0.0
 40
0.1577988566583699
 50
79.235414406678373
 51
102.0853976458925
  0
ARC
  5
1B58
  8
0
 10
40.855141431468368
 20
15.946786891102169
 30
0.0
 40
0.0246697412860537
 50
56.035455057812023
 51
80.389236003680963
  0
ARC
  5
1B59
  8
0
 10
812.7957525077029
 20
460.22076900340801
 30
0.0
 40
890.63585151511325
 50
209.9209638663657
 51
209.92112718282539
  0
ARC
  5
1B5A
  8
0
 10
40.811109123549272
 20
15.957111356795419
 30
0.0
 40
0.0014065533333585
 50
107.3096716589189
 51
252.3132767242945
  0
ARC
  5
1B5B
  8
0
 10
40.829381406746457
 20
15.90071287764413
 30
0.0
 40
0.0606910754321011
 50
72.045378941138054
 51
107.9366906758014
  0
ARC
  5
1B5C
  8
0
 10
40.847507396543797
 20
15.957111356795419
 30
0.0
 40
0.0014065533333585
 50
287.68672327570539
 51
72.690328341081084
  0
ARC
  5
1B5D
  8
0
 10
40.829381406746457
 20
16.013509835946721
 30
0.0
 40
0.0606910754321011
 50
252.0633093241986
 51
287.9546210588619
  0
LINE
  5
1B5E
  8
0
 10
40.880095474735789
 20
15.940731095827211
 30
0.0
 11
40.872954177432447
 21
15.980157515052319
 31
0.0
  0
ARC
  5
1B63
  8
0
 10
40.915924509957179
 20
15.84883017928659
 30
0.0
 40
0.1648282614230371
 50
85.041915210688813
 51
96.561786423359337
  0
ARC
  5
1B64
  8
0
 10
40.926564043200763
 20
15.83361575190324
 30
0.0
 40
0.179462166349624
 50
87.010716833875833
 51
88.848634831921103
  0
ARC
  5
1B66
  8
0
 10
40.893744534366142
 20
15.94364471477885
 30
0.0
 40
0.0139791156045938
 50
192.7949461828932
 51
253.97196164681921
  0
ARC
  5
1B67
  8
0
 10
40.915489044410769
 20
16.009500127284038
 30
0.0
 40
0.083358806335162
 50
252.0997478615684
 51
269.2876606210902
  0
ARC
  5
1B68
  8
0
 10
40.92135737726197
 20
16.041357259354172
 30
0.0
 40
0.1154162144824246
 50
266.57028005517611
 51
275.36034995283228
  0
ARC
  5
1B69
  8
0
 10
40.930877186351921
 20
15.98447347632829
 30
0.0
 40
0.0580414271792475
 50
271.2461790305216
 51
294.42460378920561
  0
ARC
  5
1B6A
  8
0
 10
40.948703244205909
 20
15.943354518106259
 30
0.0
 40
0.0132538564853725
 50
297.76280101977233
 51
319.04845858780811
  0
ARC
  5
1B6B
  8
0
 10
40.882476488617151
 20
15.94084148496399
 30
0.0
 40
0.0023827669189991
 50
145.86017800258779
 51
186.7205040668135
  0
ARC
  5
1B6C
  8
0
 10
40.890844620349931
 20
15.931883609370701
 30
0.0
 40
0.014591463540543
 50
100.2500199839882
 51
135.125387012522
  0
ARC
  5
1B6D
  8
0
 10
40.921286404068972
 20
15.79194070049647
 30
0.0
 40
0.1577988566583699
 50
81.501380055820917
 51
102.0853976458925
  0
ARC
  5
1B70
  8
0
 10
40.902608139988523
 20
15.932963721966789
 30
0.0
 40
0.0014065533333585
 50
107.3096716589189
 51
252.3132767242945
  0
ARC
  5
1B71
  8
0
 10
40.920880423185721
 20
15.87656524281549
 30
0.0
 40
0.0606910754321011
 50
72.045378941138054
 51
107.9366906758014
  0
ARC
  5
1B72
  8
0
 10
40.939006412983048
 20
15.932963721966789
 30
0.0
 40
0.0014065533333585
 50
287.68672327570539
 51
72.690328341081084
  0
ARC
  5
1B73
  8
0
 10
40.920880423185721
 20
15.989362201118089
 30
0.0
 40
0.0606910754321011
 50
252.0633093241986
 51
287.9546210588619
  0
LINE
  5
1BFE
  8
0
 10
40.812431568834349
 20
15.99564332631636
 30
0.0
 11
40.809147044967901
 21
16.013776868362449
 31
0.0
  0
LINE
  5
1C05
  8
0
 10
40.893993629409863
 20
15.995461005058891
 30
0.0
 11
40.901232945240793
 21
16.03549730581075
 31
0.0
  0
ARC
  5
1C06
  8
0
 10
40.826080628464702
 20
15.99855694526801
 30
0.0
 40
0.0139791156045938
 50
192.7949461828932
 51
253.97196164681921
  0
ARC
  5
1C07
  8
0
 10
40.847825138509329
 20
16.06441235777319
 30
0.0
 40
0.083358806335162
 50
252.0997478615684
 51
269.2876606210902
  0
ARC
  5
1C08
  8
0
 10
40.853693471360529
 20
16.096269489843319
 30
0.0
 40
0.1154162144824246
 50
266.57028005517611
 51
275.36034995283228
  0
ARC
  5
1C09
  8
0
 10
40.863213280450481
 20
16.039385706817441
 30
0.0
 40
0.0580414271792475
 50
271.2461790305216
 51
294.42460378920561
  0
ARC
  5
1C0A
  8
0
 10
40.881039338304468
 20
15.998266748595411
 30
0.0
 40
0.0132538564853725
 50
297.76280101977233
 51
347.86822785173041
  0
ARC
  5
1C0B
  8
0
 10
40.82318071444849
 20
15.98679583985985
 30
0.0
 40
0.014591463540543
 50
100.2500199839882
 51
135.125387012522
  0
ARC
  5
1C0C
  8
0
 10
40.853622498167518
 20
15.846852930985619
 30
0.0
 40
0.1577988566583699
 50
79.235414406678373
 51
102.0853976458925
  0
ARC
  5
1C0D
  8
0
 10
40.878976542006193
 20
15.97755148676268
 30
0.0
 40
0.0246697412860537
 50
56.035455057812023
 51
80.389236003680963
  0
ARC
  5
1C0E
  8
0
 10
812.8195876182408
 20
460.25153359906852
 30
0.0
 40
890.63585151511325
 50
209.9209638663657
 51
209.92112718282539
  0
ARC
  5
1C0F
  8
0
 10
40.834944234087082
 20
15.987875952455941
 30
0.0
 40
0.0014065533333585
 50
107.3096716589189
 51
252.3132767242945
  0
ARC
  5
1C10
  8
0
 10
40.853216517284281
 20
15.931477473304639
 30
0.0
 40
0.0606910754321011
 50
72.045378941138054
 51
107.9366906758014
  0
ARC
  5
1C11
  8
0
 10
40.871342507081607
 20
15.987875952455941
 30
0.0
 40
0.0014065533333585
 50
287.68672327570539
 51
72.690328341081084
  0
ARC
  5
1C12
  8
0
 10
40.853216517284281
 20
16.044274431607239
 30
0.0
 40
0.0606910754321011
 50
252.0633093241986
 51
287.9546210588619
  0
ARC
  5
1C1A
  8
0
 10
41.267665446741091
 20
15.15860164788376
 30
0.0
 40
0.8981837677485786
 50
93.994367768936613
 51
108.85428697248081
  0
ARC
  5
1C1B
  8
0
 10
41.359151192180988
 20
-1361.7797736789889
 30
0.0
 40
1377.834385930789
 50
89.993593919492113
 51
90.006406080506636
  0
ARC
  5
1C1C
  8
0
 10
41.431765228713878
 20
14.971673347577189
 30
0.0
 40
1.0859502020532159
 50
78.124223796873693
 51
85.732142222655696
  0
ARC
  5
1C1D
  8
0
 10
41.566453431435953
 20
15.584331860306881
 30
0.0
 40
0.4587231760660865
 50
67.649013911488524
 51
78.839446387918983
  0
ARC
  5
1C1E
  8
0
 10
41.687749404122791
 20
16.026724823209332
 30
0.0
 40
0.1165806467251826
 50
285.99576179194452
 51
320.83270934835281
  0
ARC
  5
1C1F
  8
0
 10
41.537642427921483
 20
16.416088669511069
 30
0.0
 40
0.5335180647113039
 50
279.55338103917319
 51
289.97243043995923
  0
ARC
  5
1C20
  8
0
 10
41.369113388807847
 20
17.417881741018849
 30
0.0
 40
1.5493878365563021
 50
275.31298489721479
 51
279.55070949971321
  0
ARC
  5
1C21
  8
0
 10
41.359151192206987
 20
-569.19426663366585
 30
0.0
 40
585.06943723090967
 50
89.984974648484126
 51
90.015025351517707
  0
ARC
  5
1C22
  8
0
 10
41.293640592636777
 20
16.980432084047031
 30
0.0
 40
1.1087728319685519
 50
257.22459763438047
 51
265.45201063232992
  0
ARC
  5
1C23
  8
0
 10
41.127150385195449
 20
16.24897845252444
 30
0.0
 40
0.3586113783405138
 50
245.15058082764151
 51
257.32403828085319
  0
ARC
  5
1C24
  8
0
 10
41.006707393570842
 20
15.997788341826929
 30
0.0
 40
0.0801502438850011
 50
213.8316407603169
 51
247.82007507743501
  0
LINE
  5
1C25
  8
0
 10
43.254328033896861
 20
9.6549090231786945
 30
0.0
 11
43.254328033896861
 21
9.7642616679999996
 31
0.0
  0
ARC
  5
1C26
  8
0
 10
43.295351804783287
 20
9.7632529004779194
 30
0.0
 40
0.0410361396462267
 50
92.251143001821887
 51
178.5932129310782
  0
ARC
  5
1C27
  8
0
 10
43.554137424027118
 20
10.271459108613779
 30
0.0
 40
0.4604096369916847
 50
266.5878183661348
 51
322.57480811305243
  0
ARC
  5
1C28
  8
0
 10
42.277397195501351
 20
10.64414192414948
 30
0.0
 40
1.767237228144763
 50
338.33296944708019
 51
0.4985328227815931
  0
LINE
  5
1C29
  8
0
 10
43.293739915496701
 20
9.8042573705999985
 30
0.0
 11
43.52673448349686
 21
9.8118656875500001
 31
0.0
  0
LINE
  5
1C2A
  8
0
 10
44.044567526996858
 20
10.659518530499991
 30
0.0
 11
44.048237635796859
 21
11.4034130404
 31
0.0
  0
LINE
  5
1C2B
  8
0
 10
44.086678937393287
 20
11.44522322494506
 30
0.0
 11
44.198432895096857
 21
11.4493966397
 31
0.0
  0
ARC
  5
1C2C
  8
0
 10
44.088256739965921
 20
11.405200405783869
 30
0.0
 40
0.0400589986583535
 50
92.179174831426835
 51
182.5572906438255
  0
ARC
  5
1C2D
  8
0
 10
44.198809070463753
 20
11.40823383949232
 30
0.0
 40
0.0411645190527404
 50
0.719987450636857
 51
90.523595595674195
  0
ARC
  5
1C2F
  8
0
 10
-54.634684539304487
 20
7.8343060519602634
 30
0.0
 40
98.939244159402264
 50
1.1443595702717411
 51
2.0704139683316649
  0
ARC
  5
1C30
  8
0
 10
40.501568950441602
 20
9.6060850472597572
 30
0.0
 40
3.7887633129506049
 50
346.01613981153218
 51
3.0893340236997289
  0
ARC
  5
1C31
  8
0
 10
42.14935665126589
 20
9.4476008753695684
 30
0.0
 40
2.1653488033049948
 50
320.59735272027461
 51
339.535479927285
  0
LINE
  5
1C32
  8
0
 10
43.689334599296863
 20
8.0627518422000009
 30
0.0
 11
43.789485874096862
 21
8.0581739069000005
 31
0.0
  0
ARC
  5
1C33
  8
0
 10
43.7913228903708
 20
8.098131830144343
 30
0.0
 40
0.0399999894252764
 50
267.36772873771213
 51
321.27885187983662
  0
ARC
  5
1C34
  8
0
 10
43.690239823622349
 20
8.0827328586237392
 30
0.0
 40
0.0200000878442762
 50
151.9626571421567
 51
267.40448604275912
  0
ARC
  5
1C36
  8
0
 10
41.459166253784652
 20
9.3699408133776423
 30
0.0
 40
2.5557820134034932
 50
330.00217524021389
 51
340.37710550783851
  0
ARC
  5
1C37
  8
0
 10
43.084487842361618
 20
8.7960668830686863
 30
0.0
 40
0.8321475318451274
 50
340.01333870926288
 51
54.151542161656238
  0
ARC
  5
1C38
  8
0
 10
43.079653524865613
 20
8.7749260757039522
 30
0.0
 40
0.8521568165047829
 50
54.720532938021542
 51
76.071531659657396
  0
ARC
  5
1C39
  8
0
 10
43.292772374037142
 20
9.6401271624181213
 30
0.0
 40
0.0389302256633502
 50
189.06178776802321
 51
258.14763610267772
  0
ARC
  5
1C3A
  8
0
 10
43.100066021188077
 20
8.8545666743239995
 30
0.0
 40
0.9246913005939106
 50
283.17064860759172
 51
306.30030210683168
  0
ARC
  5
1C3B
  8
0
 10
40.414191931316118
 20
10.578296894786529
 30
0.0
 40
4.0681754478432843
 50
322.6345500266043
 51
325.59157665672637
  0
ARC
  5
1C3C
  8
0
 10
50.663053859324421
 20
2.2912718306870161
 30
0.0
 40
11.14970245125323
 50
138.4453177689779
 51
141.5777395958263
  0
ARC
  5
1C3D
  8
0
 10
42.413625592608163
 20
8.8233971209071989
 30
0.0
 40
0.6273319031070374
 50
140.7540426363031
 51
212.21431539248761
  0
ARC
  5
1C3E
  8
0
 10
43.612664248740103
 20
9.6754461224547956
 30
0.0
 40
2.097598740176867
 50
214.44628743598199
 51
227.98310740654421
  0
ARC
  5
1C3F
  8
0
 10
40.32383540294834
 20
6.1875313851919174
 30
0.0
 40
2.697310271038988
 50
40.497213942661809
 51
45.67152757687505
  0
LINE
  5
1C84
  8
0
 10
40.497214348296858
 20
6.7311689911999988
 30
0.0
 11
42.220631971096857
 21
6.7311558064999986
 31
0.0
  0
LINE
  5
1CFE
  8
0
 10
40.930787690048362
 20
15.911076205016521
 30
0.0
 11
40.928059944296201
 21
15.92613582835887
 31
0.0
  0
ARC
  5
1CFF
  8
0
 10
40.944436749678701
 20
15.91398982396816
 30
0.0
 40
0.0139791156045938
 50
192.7949461828932
 51
253.97196164681921
  0
ARC
  5
1D00
  8
0
 10
40.966181259723328
 20
15.97984523647335
 30
0.0
 40
0.083358806335162
 50
252.0997478615684
 51
269.2876606210902
  0
ARC
  5
1D01
  8
0
 10
40.972049592574528
 20
16.011702368543482
 30
0.0
 40
0.1154162144824246
 50
266.57028005517611
 51
275.36034995283228
  0
ARC
  5
1D02
  8
0
 10
40.981569401664487
 20
15.9548185855176
 30
0.0
 40
0.0580414271792475
 50
271.2461790305216
 51
294.42460378920561
  0
ARC
  5
1D03
  8
0
 10
40.999395459518482
 20
15.91369962729557
 30
0.0
 40
0.0132538564853725
 50
297.76280101977233
 51
319.04845858780811
  0
ARC
  5
1D04
  8
0
 10
40.941536835662497
 20
15.902228718560011
 30
0.0
 40
0.014591463540543
 50
100.2500199839882
 51
135.125387012522
  0
ARC
  5
1D05
  8
0
 10
40.971978619381531
 20
15.76228580968578
 30
0.0
 40
0.1577988566583699
 50
85.058796816317709
 51
102.0853976458925
  0
ARC
  5
1D06
  8
0
 10
40.953300355301103
 20
15.9033088311561
 30
0.0
 40
0.0014065533333585
 50
107.3096716589189
 51
252.3132767242945
  0
ARC
  5
1D07
  8
0
 10
40.971572638498287
 20
15.8469103520048
 30
0.0
 40
0.0606910754321011
 50
72.045378941138054
 51
107.9366906758014
  0
ARC
  5
1D08
  8
0
 10
40.989698628295614
 20
15.9033088311561
 30
0.0
 40
0.0014065533333585
 50
287.68672327570539
 51
72.690328341081084
  0
ARC
  5
1D09
  8
0
 10
40.971572638498287
 20
15.959707310307399
 30
0.0
 40
0.0606910754321011
 50
252.0633093241986
 51
287.9546210588619
  0
ARC
  5
1D0A
  8
0
 10
41.071600289164842
 20
15.87734963868435
 30
0.0
 40
0.068069272363884
 50
151.8211799414191
 51
156.02130788875371
  0
LINE
  5
1D0B
  8
0
 10
41.930292632741029
 20
15.96445670144894
 30
0.0
 11
41.93958636732512
 21
16.01555110233538
 31
0.0
  0
LINE
  5
1D0C
  8
0
 10
41.940238569377939
 20
16.017163129001609
 30
0.0
 11
41.939586380076939
 21
16.015551172425969
 31
0.0
  0
ARC
  5
1D0D
  8
0
 10
41.935569845863817
 20
16.035808415143329
 30
0.0
 40
0.0192209176304768
 50
284.0576492887601
 51
309.2094981817113
  0
ARC
  5
1D0E
  8
0
 10
41.945475210163629
 20
16.023904132258881
 30
0.0
 40
0.0037382517616802
 50
306.91465660679518
 51
30.23303915786672
  0
ARC
  5
1D0F
  8
0
 10
41.934654284529273
 20
16.012291367848078
 30
0.0
 40
0.0194817564032966
 50
43.844340222642948
 51
78.180850853395
  0
ARC
  5
1D10
  8
0
 10
41.894395664777043
 20
15.872582298501801
 30
0.0
 40
0.1648282614230372
 50
74.427661834873675
 51
76.901774658129256
  0
LINE
  5
1D11
  8
0
 10
41.848730459664637
 20
15.96433467923819
 30
0.0
 11
41.845546050625963
 21
15.98202039460964
 31
0.0
  0
ARC
  5
1D12
  8
0
 10
41.916645730885151
 20
15.96738041038182
 30
0.0
 40
0.0139791156045938
 50
285.9856794632646
 51
347.16269492719061
  0
ARC
  5
1D13
  8
0
 10
41.894949913823041
 20
16.033251880650191
 30
0.0
 40
0.083358806335162
 50
270.66998048899359
 51
287.8578932485155
  0
ARC
  5
1D14
  8
0
 10
41.889105134617942
 20
16.065113342484668
 30
0.0
 40
0.1154162144824247
 50
264.59729115725162
 51
273.38736105490767
  0
ARC
  5
1D15
  8
0
 10
41.87954327383337
 20
16.008236613018379
 30
0.0
 40
0.0580414271792476
 50
245.53303732087821
 51
268.71146207956218
  0
ARC
  5
1D16
  8
0
 10
41.861686821521708
 20
15.967130844874241
 30
0.0
 40
0.0132538564853725
 50
192.0894132583534
 51
242.19484009031149
  0
ARC
  5
1D17
  8
0
 10
41.927911701121282
 20
15.96456885084396
 30
0.0
 40
0.0023827669189991
 50
353.23713704327031
 51
34.097463107495862
  0
ARC
  5
1D18
  8
0
 10
41.919536949099772
 20
15.95561716427547
 30
0.0
 40
0.014591463540543
 50
44.83225409756168
 51
79.707621126095574
  0
ARC
  5
1D19
  8
0
 10
41.888991713623483
 20
15.815696799317839
 30
0.0
 40
0.15779885665837
 50
77.872243464191129
 51
100.7222267034055
  0
ARC
  5
1D1A
  8
0
 10
41.863734302421157
 20
15.946414063673171
 30
0.0
 40
0.0246697412860537
 50
99.568405106402736
 51
123.9221860522718
  0
ARC
  5
1D1B
  8
0
 10
-729.74821315847544
 20
460.79097202328057
 30
0.0
 40
890.63585151511359
 50
330.03651392725828
 51
330.03667724371809
  0
ARC
  5
1D1C
  8
0
 10
41.90777423120538
 20
15.956705973370321
 30
0.0
 40
0.0014065533333585
 50
287.64436438578917
 51
72.647969451165054
  0
ARC
  5
1D1D
  8
0
 10
41.889460257491628
 20
15.90032101836786
 30
0.0
 40
0.0606910754321011
 50
72.020950434282511
 51
107.9122621689458
  0
ARC
  5
1D1E
  8
0
 10
41.871375968157921
 20
15.956732882687399
 30
0.0
 40
0.0014065533333585
 50
107.2673127690026
 51
252.27091783437839
  0
ARC
  5
1D1F
  8
0
 10
41.88954364851179
 20
16.013117945844868
 30
0.0
 40
0.0606910754321011
 50
252.00302005122171
 51
287.89433178588507
  0
LINE
  5
1D20
  8
0
 10
41.838775788911548
 20
15.940376718627981
 30
0.0
 11
41.845946232295013
 21
15.97979784750291
 31
0.0
  0
ARC
  5
1D21
  8
0
 10
41.825128887055662
 20
15.943300427560869
 30
0.0
 40
0.0139791156045938
 50
285.9856794632646
 51
347.16269492719061
  0
ARC
  5
1D22
  8
0
 10
41.803433069993559
 20
16.00917189782923
 30
0.0
 40
0.083358806335162
 50
270.66998048899359
 51
287.8578932485155
  0
ARC
  5
1D23
  8
0
 10
41.797588290788461
 20
16.041033359663711
 30
0.0
 40
0.1154162144824247
 50
264.59729115725162
 51
273.38736105490767
  0
ARC
  5
1D24
  8
0
 10
41.788026430003889
 20
15.984156630197431
 30
0.0
 40
0.0580414271792476
 50
245.53303732087821
 51
268.71146207956218
  0
ARC
  5
1D25
  8
0
 10
41.770169977692213
 20
15.94305086205328
 30
0.0
 40
0.0132538564853725
 50
220.9091825222757
 51
242.19484009031149
  0
ARC
  5
1D26
  8
0
 10
41.836394857291793
 20
15.940488868022999
 30
0.0
 40
0.0023827669189991
 50
353.23713704327031
 51
34.097463107495862
  0
ARC
  5
1D27
  8
0
 10
41.828020105270276
 20
15.931537181454519
 30
0.0
 40
0.014591463540543
 50
44.83225409756168
 51
79.707621126095574
  0
ARC
  5
1D28
  8
0
 10
41.79747486979398
 20
15.79161681649688
 30
0.0
 40
0.15779885665837
 50
77.872243464191129
 51
98.456261054263024
  0
ARC
  5
1D29
  8
0
 10
41.816257387375892
 20
15.93262599054936
 30
0.0
 40
0.0014065533333585
 50
287.64436438578917
 51
72.647969451165054
  0
ARC
  5
1D2A
  8
0
 10
41.797943413662132
 20
15.876241035546901
 30
0.0
 40
0.0606910754321011
 50
72.020950434282511
 51
107.9122621689458
  0
ARC
  5
1D2B
  8
0
 10
41.779859124328418
 20
15.932652899866451
 30
0.0
 40
0.0014065533333585
 50
107.2673127690026
 51
252.27091783437839
  0
ARC
  5
1D2C
  8
0
 10
41.798026804682301
 20
15.98903796302392
 30
0.0
 40
0.0606910754321011
 50
252.00302005122171
 51
287.89433178588507
  0
LINE
  5
1D2D
  8
0
 10
41.906044125715198
 20
15.996715281877711
 30
0.0
 11
41.909778202178231
 21
16.01337001888291
 31
0.0
  0
ARC
  5
1D2E
  8
0
 10
41.893739094836882
 20
15.99667178930973
 30
0.0
 40
0.0123051077410917
 50
283.84269653713898
 51
0.2025131210954849
  0
ARC
  5
1D2F
  8
0
 10
41.871137554126967
 20
16.064034089248828
 30
0.0
 40
0.083358806335162
 50
270.66998048899359
 51
287.8578932485155
  0
ARC
  5
1D30
  8
0
 10
41.865292774921883
 20
16.095895551083309
 30
0.0
 40
0.1154162144824247
 50
264.59729115725162
 51
273.38736105490767
  0
ARC
  5
1D31
  8
0
 10
41.855730914137311
 20
16.03901882161702
 30
0.0
 40
0.0580414271792476
 50
245.53303732087821
 51
268.71146207956218
  0
ARC
  5
1D32
  8
0
 10
41.840939617799897
 20
16.00152333359549
 30
0.0
 40
0.0179065671807826
 50
200.61676512970249
 51
238.9063724100082
  0
ARC
  5
1D33
  8
0
 10
41.895724589403699
 20
15.986399372874111
 30
0.0
 40
0.014591463540543
 50
44.83225409756168
 51
79.707621126095574
  0
ARC
  5
1D34
  8
0
 10
41.864287790944687
 20
15.858505548092269
 30
0.0
 40
0.1462675239286376
 50
76.540926237854549
 51
101.2225176660076
  0
ARC
  5
1D35
  8
0
 10
41.838073794279929
 20
15.98143090009229
 30
0.0
 40
0.0206682250247843
 50
96.535097038214317
 51
125.65128169018691
  0
ARC
  5
1D36
  8
0
 10
41.826894985060711
 20
15.995621315683319
 30
0.0
 40
0.0027449050084778
 50
108.4274831740962
 51
188.4459678296798
  0
ARC
  5
1D37
  8
0
 10
41.883961871509307
 20
15.98748818196896
 30
0.0
 40
0.0014065533333585
 50
287.64436438578917
 51
72.647969451165054
  0
ARC
  5
1D38
  8
0
 10
41.865647897795562
 20
15.93110322696649
 30
0.0
 40
0.0606910754321011
 50
72.020950434282511
 51
107.9122621689458
  0
ARC
  5
1D39
  8
0
 10
41.847563608461847
 20
15.98751509128604
 30
0.0
 40
0.0014065533333585
 50
107.2673127690026
 51
252.27091783437839
  0
ARC
  5
1D3A
  8
0
 10
41.865731288815716
 20
16.043900154443509
 30
0.0
 40
0.0606910754321011
 50
252.00302005122171
 51
287.89433178588507
  0
LINE
  5
1D3B
  8
0
 10
41.788061663531387
 20
15.91075931277914
 30
0.0
 11
41.79080054214819
 21
15.92581691537797
 31
0.0
  0
ARC
  5
1D3C
  8
0
 10
41.774414761675501
 20
15.91368302171202
 30
0.0
 40
0.0139791156045938
 50
285.9856794632646
 51
347.16269492719061
  0
ARC
  5
1D3D
  8
0
 10
41.752718944613399
 20
15.979554491980389
 30
0.0
 40
0.083358806335162
 50
270.66998048899359
 51
287.8578932485155
  0
ARC
  5
1D3E
  8
0
 10
41.7468741654083
 20
16.011415953814868
 30
0.0
 40
0.1154162144824247
 50
264.59729115725162
 51
273.38736105490767
  0
ARC
  5
1D3F
  8
0
 10
41.737312304623728
 20
15.954539224348579
 30
0.0
 40
0.0580414271792476
 50
245.53303732087821
 51
268.71146207956218
  0
ARC
  5
1D40
  8
0
 10
41.719455852312059
 20
15.913433456204441
 30
0.0
 40
0.0132538564853725
 50
220.9091825222757
 51
242.19484009031149
  0
ARC
  5
1D41
  8
0
 10
41.777305979890123
 20
15.90191977560567
 30
0.0
 40
0.014591463540543
 50
44.83225409756168
 51
79.707621126095574
  0
ARC
  5
1D42
  8
0
 10
41.746760744413827
 20
15.761999410648039
 30
0.0
 40
0.15779885665837
 50
77.872243464191129
 51
94.898844293766075
  0
ARC
  5
1D43
  8
0
 10
41.765543261995738
 20
15.903008584700521
 30
0.0
 40
0.0014065533333585
 50
287.64436438578917
 51
72.647969451165054
  0
ARC
  5
1D44
  8
0
 10
41.747229288281979
 20
15.84662362969806
 30
0.0
 40
0.0606910754321011
 50
72.020950434282511
 51
107.9122621689458
  0
ARC
  5
1D45
  8
0
 10
41.729144998948271
 20
15.903035494017599
 30
0.0
 40
0.0014065533333585
 50
107.2673127690026
 51
252.27091783437839
  0
ARC
  5
1D46
  8
0
 10
41.747312679302141
 20
15.95942055717507
 30
0.0
 40
0.0606910754321011
 50
252.00302005122171
 51
287.89433178588507
  0
ARC
  5
1D47
  8
0
 10
41.647224168777768
 20
15.87713685870415
 30
0.0
 40
0.068069272363884
 50
23.936333221330091
 51
28.136461168664638
  0
LINE
  5
1D48
  8
0
 10
41.824186504030493
 20
15.996066999443929
 30
0.0
 11
41.8167254478386
 21
16.03732961239572
 31
0.0
  0
ARC
  5
1D8A
  8
0
 10
41.090414739949821
 20
15.89880643506455
 30
0.0
 40
0.1023621441242113
 50
110.0904521949606
 51
134.6817449077945
  0
ARC
  5
1D8B
  8
0
 10
41.032370492660213
 20
15.9591289074384
 30
0.0
 40
0.0186917421151882
 50
138.19683618340821
 51
221.5331708413822
  0
ARC
  5
1D8C
  8
0
 10
41.083111467473103
 20
16.00767221259548
 30
0.0
 40
0.0889026567727818
 50
223.26977247506679
 51
252.9655935646303
  0
ARC
  5
1D8D
  8
0
 10
41.317926719663738
 20
16.772448315808301
 30
0.0
 40
0.8889155742137601
 50
252.9349366002628
 51
271.88198879976818
  0
ARC
  5
1D8E
  8
0
 10
41.375430975589921
 20
16.976302615723089
 30
0.0
 40
1.092657225220544
 50
268.51526857038618
 51
284.40566928443633
  0
ARC
  5
1D8F
  8
0
 10
41.610903188766983
 20
16.047335303226252
 30
0.0
 40
0.1343503835360027
 50
285.70445450766027
 51
311.46527658585973
  0
ARC
  5
1D90
  8
0
 10
41.685931891833498
 20
15.95911830436159
 30
0.0
 40
0.0186917421151996
 50
318.19683618362211
 51
41.53317084137732
  0
ARC
  5
1D91
  8
0
 10
41.622090604616588
 20
15.88932388050126
 30
0.0
 40
0.1131941430273989
 50
46.558802687793609
 51
72.369518881159351
  0
ARC
  5
1D92
  8
0
 10
41.400179848796903
 20
15.042651643866931
 30
0.0
 40
0.9906404688930776
 50
78.34826907162244
 51
88.986330307197704
  0
ARC
  5
1D93
  8
0
 10
41.358949460742572
 20
14.567539974224941
 30
0.0
 40
1.4667743919545311
 50
87.704242693301254
 51
96.658790882767192
  0
ARC
  5
1D94
  8
0
 10
41.244913676333688
 20
15.45286092716025
 30
0.0
 40
0.5743003430004903
 50
95.600422550464572
 51
109.2837358214107
  0
ARC
  5
1DD6
  8
0
 10
41.112631176421438
 20
15.94777410850908
 30
0.0
 40
0.0519569481955147
 50
88.147626842972997
 51
98.813321675875613
  0
ARC
  5
1DD7
  8
0
 10
41.113708958662528
 20
15.96593234207243
 30
0.0
 40
0.0337769223256298
 50
73.178694438787986
 51
88.979278639109722
  0
ARC
  5
1DD8
  8
0
 10
41.112137912930571
 20
15.979708604307289
 30
0.0
 40
0.0217491978713527
 50
54.64489068164908
 51
58.556373102252472
  0
ARC
  5
1DD9
  8
0
 10
41.124201972340479
 20
15.997010318780511
 30
0.0
 40
0.0006796632312668
 50
321.12531236521693
 51
39.961254456900882
  0
ARC
  5
1DDA
  8
0
 10
41.120517319546877
 20
16.00156466485312
 30
0.0
 40
0.0065242239428375
 50
275.98570951604108
 51
310.23076424558337
  0
ARC
  5
1DDB
  8
0
 10
41.112379851250893
 20
16.046716956470469
 30
0.0
 40
0.0523883680336371
 50
260.35935857250507
 51
279.68994045164959
  0
ARC
  5
1DDC
  8
0
 10
41.104299555906842
 20
16.001674450212029
 30
0.0
 40
0.0066422656399525
 50
230.18295843221989
 51
264.01058853551888
  0
ARC
  5
1DDD
  8
0
 10
41.106127711148247
 20
15.98681993326753
 30
0.0
 40
0.012383684519022
 50
96.757472117464104
 51
110.8619684893479
  0
ARC
  5
1DDE
  8
0
 10
41.102432850623401
 20
15.99517973401033
 30
0.0
 40
0.003290681698077
 50
102.5527292284302
 51
136.61808777751941
  0
ARC
  5
1DDF
  8
0
 10
41.100568323725902
 20
15.997009321927971
 30
0.0
 40
0.0006806626397263
 50
140.7516747291358
 51
219.91528939359969
  0
ARC
  5
1DE0
  8
0
 10
41.109563080908721
 20
15.954699584415099
 30
0.0
 40
0.0519569481955147
 50
88.147626842972997
 51
88.846299466496674
  0
ARC
  5
1DE1
  8
0
 10
41.110640863149811
 20
15.972857817978451
 30
0.0
 40
0.0337769223256298
 50
73.178694438787986
 51
88.979278639109722
  0
ARC
  5
1DE2
  8
0
 10
41.109069817417861
 20
15.98663408021331
 30
0.0
 40
0.0217491978713527
 50
54.64489068164908
 51
58.556373102252472
  0
ARC
  5
1DE3
  8
0
 10
41.12113387682777
 20
16.00393579468653
 30
0.0
 40
0.0006796632312668
 50
321.12531236521693
 51
39.961254456900882
  0
ARC
  5
1DE4
  8
0
 10
41.117449224034168
 20
16.00849014075914
 30
0.0
 40
0.0065242239428375
 50
275.98570951604108
 51
310.23076424558337
  0
ARC
  5
1DE5
  8
0
 10
41.109311755738183
 20
16.053642432376488
 30
0.0
 40
0.0523883680336371
 50
261.09507491074999
 51
279.68994045164959
  0
LINE
  5
1E2C
  8
0
 10
41.049151192196859
 20
15.99248315670096
 30
0.0
 11
41.049151192196859
 21
15.981354528700001
 31
0.0
  0
ARC
  5
1E2D
  8
0
 10
41.07647964349816
 20
15.985695898342779
 30
0.0
 40
0.0276711355188556
 50
189.02652128564489
 51
237.85357488922
  0
LINE
  5
1E2E
  8
0
 10
41.061756252796862
 20
15.9622669951
 30
0.0
 11
41.040962961796858
 21
15.9622669951
 31
0.0
  0
LINE
  5
1E2F
  8
0
 10
41.040962961796858
 20
15.9622669951
 30
0.0
 11
41.037774790201652
 21
15.98627996106393
 31
0.0
  0
ARC
  5
1E30
  8
0
 10
41.120199627642549
 20
16.07473600172224
 30
0.0
 40
0.1375780747973132
 50
234.83453817459241
 51
249.61889917650771
  0
LINE
  5
1E31
  8
0
 10
41.072286293396857
 20
15.9457707387
 30
0.0
 11
41.086989370496873
 21
15.948978115599999
 31
0.0
  0
ARC
  5
1E32
  8
0
 10
41.265833472477333
 20
16.471698852372889
 30
0.0
 40
0.5524691678868605
 50
251.1120887980282
 51
264.27609932009182
  0
LINE
  5
1E33
  8
0
 10
41.19602998009686
 20
15.9187768898
 30
0.0
 11
41.195556428193768
 21
15.923717722668259
 31
0.0
  0
ARC
  5
1E34
  8
0
 10
41.355561469686727
 20
17.26245786967614
 30
0.0
 40
1.353118203207563
 50
263.22912783077999
 51
266.44466280036551
  0
LINE
  5
1E35
  8
0
 10
41.271651192196863
 20
15.9119439167
 30
0.0
 11
41.271651192196863
 21
15.916467114280721
 31
0.0
  0
ARC
  5
1E36
  8
0
 10
41.359049983459769
 20
17.309073281599691
 30
0.0
 40
1.395346009407366
 50
266.40887494941097
 51
273.59945311934371
  0
LINE
  5
1E37
  8
0
 10
41.446651192196867
 20
15.9164798326
 30
0.0
 11
41.446651192196867
 21
15.9119439167
 31
0.0
  0
ARC
  5
1E38
  8
0
 10
41.362740914706997
 20
17.262457869675892
 30
0.0
 40
1.353118203207315
 50
273.55533719963501
 51
276.77087216922081
  0
LINE
  5
1E39
  8
0
 10
41.522272404296857
 20
15.9187768898
 30
0.0
 11
41.522736725544767
 21
15.92362141406036
 31
0.0
  0
LINE
  5
1E3A
  8
0
 10
41.522272404296857
 20
15.9187768898
 30
0.0
 11
41.507569327196862
 21
15.921984266700001
 31
0.0
  0
ARC
  5
1E3B
  8
0
 10
41.459272359553019
 20
16.440510869660692
 30
0.0
 40
0.5207710005957932
 50
275.32133051118888
 51
289.2904813706914
  0
LINE
  5
1E3C
  8
0
 10
41.631313013896857
 20
15.948978115599999
 30
0.0
 11
41.646016090996859
 21
15.9457707387
 31
0.0
  0
ARC
  5
1E3D
  8
0
 10
41.59996366731577
 20
16.07120247814321
 30
0.0
 40
0.1336186625687162
 50
290.16077526994968
 51
305.3857872281153
  0
LINE
  5
1E3E
  8
0
 10
41.67733942269691
 20
15.96226699510003
 30
0.0
 11
41.680526041395026
 21
15.986268265286229
 31
0.0
  0
LINE
  5
1E3F
  8
0
 10
41.656546131596862
 20
15.9622669951
 30
0.0
 11
41.677339422696861
 21
15.9622669951
 31
0.0
  0
ARC
  5
1E40
  8
0
 10
41.641585208416871
 20
15.985852760478609
 30
0.0
 40
0.0279305845068188
 50
302.38777420663121
 51
350.73212961851192
  0
ARC
  5
1E41
  8
0
 10
41.64499564903695
 20
15.97824122928963
 30
0.0
 40
0.0243553464062645
 50
7.344108648933144
 51
42.457745715967008
  0
LINE
  5
1E42
  8
0
 10
41.669151192196857
 20
15.981354528700001
 30
0.0
 11
41.669151192196857
 21
15.99227151336529
 31
0.0
  0
ARC
  5
1E43
  8
0
 10
41.169331784189758
 20
15.889100385535841
 30
0.0
 40
0.1314586014748956
 50
100.3108305866855
 51
126.540615322769
  0
ARC
  5
1E44
  8
0
 10
41.100937621638039
 20
15.98132755896035
 30
0.0
 40
0.0166387380647724
 50
126.4066624421539
 51
195.8096507332971
  0
ARC
  5
1E45
  8
0
 10
41.118017722042147
 20
15.99331729698676
 30
0.0
 40
0.0369853274886859
 50
206.53473317959279
 51
246.18405359193599
  0
ARC
  5
1E46
  8
0
 10
41.267328799376791
 20
16.349878591858609
 30
0.0
 40
0.4235406213785672
 50
247.18280842183739
 51
266.72361359432671
  0
ARC
  5
1E47
  8
0
 10
41.359519145077641
 20
17.13776889225997
 30
0.0
 40
1.2163207763864681
 50
264.50863173879532
 51
274.08161784715981
  0
ARC
  5
1E48
  8
0
 10
41.414284282834963
 20
16.54339356826371
 30
0.0
 40
0.6196774259020436
 50
272.94241591944711
 51
287.18052247267588
  0
ARC
  5
1E49
  8
0
 10
41.579942006347011
 20
16.014198084753058
 30
0.0
 40
0.06519192154934
 50
285.46611959720917
 51
325.04598004565457
  0
ARC
  5
1E4A
  8
0
 10
41.620640180555533
 20
15.981353896114859
 30
0.0
 40
0.0135074870561453
 50
340.51539878008867
 51
19.25344239047287
  0
ARC
  5
1E4B
  8
0
 10
41.594704559283819
 20
15.96697120143509
 30
0.0
 40
0.0416288519458198
 50
49.590724047286031
 51
70.194951006453735
  0
ARC
  5
1E4C
  8
0
 10
41.534332672460557
 20
15.84963219358885
 30
0.0
 40
0.1733226842594014
 50
64.551531430715343
 51
74.256698389197837
  0
ARC
  5
1E4D
  8
0
 10
41.5411946746921
 20
15.69316167031052
 30
0.0
 40
0.3251253034383005
 50
69.25172534554045
 51
79.53444668063257
  0
LINE
  5
1E4E
  8
0
 10
41.205722463785669
 20
16.054603709272889
 30
0.0
 11
41.20572149469686
 21
16.09678503896059
 31
0.0
  0
LINE
  5
1E4F
  8
0
 10
41.512580889696864
 20
16.054612251799998
 30
0.0
 11
41.512459063713663
 21
16.096839411501008
 31
0.0
  0
ARC
  5
1E50
  8
0
 10
41.119643339879048
 20
15.94105240037857
 30
0.0
 40
0.0519569481955147
 50
88.147626842972997
 51
98.813321675875613
  0
ARC
  5
1E51
  8
0
 10
41.120721122120152
 20
15.95921063394192
 30
0.0
 40
0.0337769223256298
 50
73.178694438787986
 51
88.979278639109722
  0
ARC
  5
1E52
  8
0
 10
41.119150076388202
 20
15.97298689617678
 30
0.0
 40
0.0217491978713527
 50
54.64489068164908
 51
58.556373102252472
  0
ARC
  5
1E53
  8
0
 10
41.131214135798103
 20
15.99028861065
 30
0.0
 40
0.0006796632312668
 50
321.12531236521693
 51
39.961254456900882
  0
ARC
  5
1E54
  8
0
 10
41.127529483004508
 20
15.994842956722611
 30
0.0
 40
0.0065242239428375
 50
275.98570951604108
 51
310.23076424558337
  0
ARC
  5
1E55
  8
0
 10
41.119392014708517
 20
16.039995248339959
 30
0.0
 40
0.0523883680336371
 50
260.35935857250507
 51
279.68994045164959
  0
ARC
  5
1E56
  8
0
 10
41.111311719364458
 20
15.994952742081519
 30
0.0
 40
0.0066422656399525
 50
230.18295843221989
 51
264.01058853551888
  0
ARC
  5
1E57
  8
0
 10
41.113139874605871
 20
15.98009822513702
 30
0.0
 40
0.012383684519022
 50
96.757472117464104
 51
110.8619684893479
  0
ARC
  5
1E58
  8
0
 10
41.109445014081011
 20
15.988458025879821
 30
0.0
 40
0.003290681698077
 50
102.5527292284302
 51
136.61808777751941
  0
ARC
  5
1E59
  8
0
 10
41.107580487183519
 20
15.990287613797459
 30
0.0
 40
0.0006806626397263
 50
140.7516747291358
 51
219.91528939359969
  0
ARC
  5
1E5A
  8
0
 10
41.130386814353528
 20
15.93459502574891
 30
0.0
 40
0.0519569481955147
 50
88.147626842972997
 51
98.813321675875613
  0
ARC
  5
1E5B
  8
0
 10
41.131464596594633
 20
15.95275325931226
 30
0.0
 40
0.0337769223256298
 50
73.178694438787986
 51
88.979278639109722
  0
ARC
  5
1E5C
  8
0
 10
41.129893550862683
 20
15.96652952154712
 30
0.0
 40
0.0217491978713527
 50
54.64489068164908
 51
58.556373102252472
  0
ARC
  5
1E5D
  8
0
 10
41.141957610272577
 20
15.983831236020331
 30
0.0
 40
0.0006796632312668
 50
321.12531236521693
 51
39.961254456900882
  0
ARC
  5
1E5E
  8
0
 10
41.138272957478989
 20
15.988385582092951
 30
0.0
 40
0.0065242239428375
 50
275.98570951604108
 51
310.23076424558337
  0
ARC
  5
1E5F
  8
0
 10
41.13013548918299
 20
16.033537873710301
 30
0.0
 40
0.0523883680336371
 50
260.35935857250507
 51
279.68994045164959
  0
ARC
  5
1E60
  8
0
 10
41.122055193838939
 20
15.98849536745186
 30
0.0
 40
0.0066422656399525
 50
230.18295843221989
 51
264.01058853551888
  0
ARC
  5
1E61
  8
0
 10
41.123883349080351
 20
15.97364085050736
 30
0.0
 40
0.012383684519022
 50
96.757472117464104
 51
110.8619684893479
  0
ARC
  5
1E62
  8
0
 10
41.120188488555499
 20
15.982000651250161
 30
0.0
 40
0.003290681698077
 50
102.5527292284302
 51
136.61808777751941
  0
ARC
  5
1E63
  8
0
 10
41.118323961658007
 20
15.983830239167791
 30
0.0
 40
0.0006806626397263
 50
140.7516747291358
 51
219.91528939359969
  0
ARC
  5
1E64
  8
0
 10
41.144667909218583
 20
15.928587926582329
 30
0.0
 40
0.0519569481955147
 50
88.147626842972997
 51
98.813321675875613
  0
ARC
  5
1E65
  8
0
 10
41.14574569145968
 20
15.946746160145681
 30
0.0
 40
0.0337769223256298
 50
73.178694438787986
 51
88.979278639109722
  0
ARC
  5
1E66
  8
0
 10
41.14417464572773
 20
15.96052242238054
 30
0.0
 40
0.0217491978713527
 50
54.64489068164908
 51
58.556373102252472
  0
ARC
  5
1E67
  8
0
 10
41.156238705137639
 20
15.97782413685375
 30
0.0
 40
0.0006796632312668
 50
321.12531236521693
 51
39.961254456900882
  0
ARC
  5
1E68
  8
0
 10
41.152554052344051
 20
15.98237848292637
 30
0.0
 40
0.0065242239428375
 50
275.98570951604108
 51
310.23076424558337
  0
ARC
  5
1E69
  8
0
 10
41.144416584048052
 20
16.02753077454372
 30
0.0
 40
0.0523883680336371
 50
260.35935857250507
 51
279.68994045164959
  0
ARC
  5
1E6A
  8
0
 10
41.136336288704001
 20
15.98248826828528
 30
0.0
 40
0.0066422656399525
 50
230.18295843221989
 51
264.01058853551888
  0
ARC
  5
1E6B
  8
0
 10
41.138164443945413
 20
15.96763375134077
 30
0.0
 40
0.012383684519022
 50
96.757472117464104
 51
110.8619684893479
  0
ARC
  5
1E6C
  8
0
 10
41.134469583420547
 20
15.97599355208358
 30
0.0
 40
0.003290681698077
 50
102.5527292284302
 51
136.61808777751941
  0
ARC
  5
1E6D
  8
0
 10
41.132605056523062
 20
15.97782314000121
 30
0.0
 40
0.0006806626397263
 50
140.7516747291358
 51
219.91528939359969
  0
ARC
  5
1E6E
  8
0
 10
41.162469205485749
 20
15.92290673114492
 30
0.0
 40
0.0519569481955147
 50
88.147626842972997
 51
98.813321675875613
  0
ARC
  5
1E6F
  8
0
 10
41.163546987726839
 20
15.94106496470827
 30
0.0
 40
0.0337769223256298
 50
73.178694438787986
 51
88.979278639109722
  0
ARC
  5
1E70
  8
0
 10
41.161975941994903
 20
15.954841226943129
 30
0.0
 40
0.0217491978713527
 50
54.64489068164908
 51
58.556373102252472
  0
ARC
  5
1E71
  8
0
 10
41.174040001404812
 20
15.97214294141634
 30
0.0
 40
0.0006796632312668
 50
321.12531236521693
 51
39.961254456900882
  0
ARC
  5
1E72
  8
0
 10
41.17035534861121
 20
15.97669728748896
 30
0.0
 40
0.0065242239428375
 50
275.98570951604108
 51
310.23076424558337
  0
ARC
  5
1E73
  8
0
 10
41.162217880315218
 20
16.021849579106309
 30
0.0
 40
0.0523883680336371
 50
260.35935857250507
 51
279.68994045164959
  0
ARC
  5
1E74
  8
0
 10
41.15413758497116
 20
15.976807072847871
 30
0.0
 40
0.0066422656399525
 50
230.18295843221989
 51
264.01058853551888
  0
ARC
  5
1E75
  8
0
 10
41.155965740212572
 20
15.96195255590337
 30
0.0
 40
0.012383684519022
 50
96.757472117464104
 51
110.8619684893479
  0
ARC
  5
1E76
  8
0
 10
41.152270879687713
 20
15.97031235664617
 30
0.0
 40
0.003290681698077
 50
102.5527292284302
 51
136.61808777751941
  0
ARC
  5
1E77
  8
0
 10
41.150406352790213
 20
15.9721419445638
 30
0.0
 40
0.0006806626397263
 50
140.7516747291358
 51
219.91528939359969
  0
ARC
  5
1E78
  8
0
 10
41.183496100335752
 20
15.917954275894919
 30
0.0
 40
0.0519569481955147
 50
88.147626842972997
 51
98.813321675875613
  0
ARC
  5
1E79
  8
0
 10
41.184573882576842
 20
15.936112509458271
 30
0.0
 40
0.0337769223256298
 50
73.178694438787986
 51
88.979278639109722
  0
ARC
  5
1E7A
  8
0
 10
41.183002836844892
 20
15.94988877169313
 30
0.0
 40
0.0217491978713527
 50
54.64489068164908
 51
58.556373102252472
  0
ARC
  5
1E7B
  8
0
 10
41.195066896254801
 20
15.96719048616635
 30
0.0
 40
0.0006796632312668
 50
321.12531236521693
 51
39.961254456900882
  0
ARC
  5
1E7C
  8
0
 10
41.191382243461213
 20
15.97174483223896
 30
0.0
 40
0.0065242239428375
 50
275.98570951604108
 51
310.23076424558337
  0
ARC
  5
1E7D
  8
0
 10
41.183244775165207
 20
16.01689712385631
 30
0.0
 40
0.0523883680336371
 50
260.35935857250507
 51
279.68994045164959
  0
ARC
  5
1E7E
  8
0
 10
41.175164479821163
 20
15.97185461759787
 30
0.0
 40
0.0066422656399525
 50
230.18295843221989
 51
264.01058853551888
  0
ARC
  5
1E7F
  8
0
 10
41.176992635062568
 20
15.957000100653371
 30
0.0
 40
0.012383684519022
 50
96.757472117464104
 51
110.8619684893479
  0
ARC
  5
1E80
  8
0
 10
41.173297774537708
 20
15.96535990139617
 30
0.0
 40
0.003290681698077
 50
102.5527292284302
 51
136.61808777751941
  0
ARC
  5
1E81
  8
0
 10
41.171433247640223
 20
15.9671894893138
 30
0.0
 40
0.0006806626397263
 50
140.7516747291358
 51
219.91528939359969
  0
ARC
  5
1E82
  8
0
 10
41.206932878088239
 20
15.913375844139329
 30
0.0
 40
0.0519569481955147
 50
88.147626842972997
 51
98.813321675875613
  0
ARC
  5
1E83
  8
0
 10
41.208010660329329
 20
15.931534077702681
 30
0.0
 40
0.0337769223256298
 50
73.178694438787986
 51
88.979278639109722
  0
ARC
  5
1E84
  8
0
 10
41.206439614597379
 20
15.94531033993754
 30
0.0
 40
0.0217491978713527
 50
54.64489068164908
 51
58.556373102252472
  0
ARC
  5
1E85
  8
0
 10
41.218503674007287
 20
15.96261205441076
 30
0.0
 40
0.0006796632312668
 50
321.12531236521693
 51
39.961254456900882
  0
ARC
  5
1E86
  8
0
 10
41.214819021213692
 20
15.96716640048337
 30
0.0
 40
0.0065242239428375
 50
275.98570951604108
 51
310.23076424558337
  0
ARC
  5
1E87
  8
0
 10
41.206681552917701
 20
16.012318692100731
 30
0.0
 40
0.0523883680336371
 50
260.35935857250507
 51
279.68994045164959
  0
ARC
  5
1E88
  8
0
 10
41.19860125757365
 20
15.96727618584228
 30
0.0
 40
0.0066422656399525
 50
230.18295843221989
 51
264.01058853551888
  0
ARC
  5
1E89
  8
0
 10
41.200429412815062
 20
15.952421668897779
 30
0.0
 40
0.012383684519022
 50
96.757472117464104
 51
110.8619684893479
  0
ARC
  5
1E8A
  8
0
 10
41.196734552290209
 20
15.96078146964058
 30
0.0
 40
0.003290681698077
 50
102.5527292284302
 51
136.61808777751941
  0
ARC
  5
1E8B
  8
0
 10
41.19487002539271
 20
15.96261105755822
 30
0.0
 40
0.0006806626397263
 50
140.7516747291358
 51
219.91528939359969
  0
ARC
  5
1E8C
  8
0
 10
41.232992048895149
 20
15.909490020184689
 30
0.0
 40
0.0519569481955147
 50
88.147626842972997
 51
98.813321675875613
  0
ARC
  5
1E8D
  8
0
 10
41.234069831136239
 20
15.927648253748041
 30
0.0
 40
0.0337769223256298
 50
73.178694438787986
 51
88.979278639109722
  0
ARC
  5
1E8E
  8
0
 10
41.232498785404303
 20
15.9414245159829
 30
0.0
 40
0.0217491978713527
 50
54.64489068164908
 51
58.556373102252472
  0
ARC
  5
1E8F
  8
0
 10
41.244562844814197
 20
15.95872623045612
 30
0.0
 40
0.0006796632312668
 50
321.12531236521693
 51
39.961254456900882
  0
ARC
  5
1E90
  8
0
 10
41.24087819202061
 20
15.96328057652873
 30
0.0
 40
0.0065242239428375
 50
275.98570951604108
 51
310.23076424558337
  0
ARC
  5
1E91
  8
0
 10
41.232740723724611
 20
16.00843286814608
 30
0.0
 40
0.0523883680336371
 50
260.35935857250507
 51
279.68994045164959
  0
ARC
  5
1E92
  8
0
 10
41.224660428380552
 20
15.96339036188764
 30
0.0
 40
0.0066422656399525
 50
230.18295843221989
 51
264.01058853551888
  0
ARC
  5
1E93
  8
0
 10
41.226488583621972
 20
15.948535844943139
 30
0.0
 40
0.012383684519022
 50
96.757472117464104
 51
110.8619684893479
  0
ARC
  5
1E94
  8
0
 10
41.222793723097112
 20
15.95689564568594
 30
0.0
 40
0.003290681698077
 50
102.5527292284302
 51
136.61808777751941
  0
ARC
  5
1E95
  8
0
 10
41.220929196199613
 20
15.95872523360358
 30
0.0
 40
0.0006806626397263
 50
140.7516747291358
 51
219.91528939359969
  0
ARC
  5
1EDC
  8
0
 10
41.261066484308351
 20
15.90644751338572
 30
0.0
 40
0.0519569481955147
 50
88.147626842972997
 51
98.813321675875613
  0
ARC
  5
1EDD
  8
0
 10
41.262144266549448
 20
15.924605746949069
 30
0.0
 40
0.0337769223256298
 50
73.178694438787986
 51
88.979278639109722
  0
ARC
  5
1EDE
  8
0
 10
41.260573220817498
 20
15.938382009183931
 30
0.0
 40
0.0217491978713527
 50
54.64489068164908
 51
58.556373102252472
  0
ARC
  5
1EDF
  8
0
 10
41.272637280227393
 20
15.95568372365714
 30
0.0
 40
0.0006796632312668
 50
321.12531236521693
 51
39.961254456900882
  0
ARC
  5
1EE0
  8
0
 10
41.268952627433812
 20
15.96023806972976
 30
0.0
 40
0.0065242239428375
 50
275.98570951604108
 51
310.23076424558337
  0
ARC
  5
1EE1
  8
0
 10
41.260815159137813
 20
16.005390361347111
 30
0.0
 40
0.0523883680336371
 50
260.35935857250507
 51
279.68994045164959
  0
ARC
  5
1EE2
  8
0
 10
41.252734863793762
 20
15.960347855088671
 30
0.0
 40
0.0066422656399525
 50
230.18295843221989
 51
264.01058853551888
  0
ARC
  5
1EE3
  8
0
 10
41.254563019035167
 20
15.945493338144161
 30
0.0
 40
0.012383684519022
 50
96.757472117464104
 51
110.8619684893479
  0
ARC
  5
1EE4
  8
0
 10
41.250868158510308
 20
15.95385313888697
 30
0.0
 40
0.003290681698077
 50
102.5527292284302
 51
136.61808777751941
  0
ARC
  5
1EE5
  8
0
 10
41.249003631612823
 20
15.9556827268046
 30
0.0
 40
0.0006806626397263
 50
140.7516747291358
 51
219.91528939359969
  0
ARC
  5
1EE6
  8
0
 10
41.290568726160963
 20
15.90402152115751
 30
0.0
 40
0.0519569481955147
 50
88.147626842972997
 51
98.813321675875613
  0
ARC
  5
1EE7
  8
0
 10
41.29164650840206
 20
15.92217975472086
 30
0.0
 40
0.0337769223256298
 50
73.178694438787986
 51
88.979278639109722
  0
ARC
  5
1EE8
  8
0
 10
41.290075462670103
 20
15.93595601695572
 30
0.0
 40
0.0217491978713527
 50
54.64489068164908
 51
58.556373102252472
  0
ARC
  5
1EE9
  8
0
 10
41.302139522080012
 20
15.953257731428931
 30
0.0
 40
0.0006796632312668
 50
321.12531236521693
 51
39.961254456900882
  0
ARC
  5
1EEA
  8
0
 10
41.298454869286417
 20
15.95781207750154
 30
0.0
 40
0.0065242239428375
 50
275.98570951604108
 51
310.23076424558337
  0
ARC
  5
1EEB
  8
0
 10
41.290317400990418
 20
16.002964369118899
 30
0.0
 40
0.0523883680336371
 50
260.35935857250507
 51
279.68994045164959
  0
ARC
  5
1EEC
  8
0
 10
41.282237105646367
 20
15.95792186286045
 30
0.0
 40
0.0066422656399525
 50
230.18295843221989
 51
264.01058853551888
  0
ARC
  5
1EED
  8
0
 10
41.284065260887779
 20
15.943067345915949
 30
0.0
 40
0.012383684519022
 50
96.757472117464104
 51
110.8619684893479
  0
ARC
  5
1EEE
  8
0
 10
41.280370400362919
 20
15.95142714665876
 30
0.0
 40
0.003290681698077
 50
102.5527292284302
 51
136.61808777751941
  0
ARC
  5
1EEF
  8
0
 10
41.278505873465427
 20
15.95325673457639
 30
0.0
 40
0.0006806626397263
 50
140.7516747291358
 51
219.91528939359969
  0
ARC
  5
1EF0
  8
0
 10
41.321316188571679
 20
15.902544029943391
 30
0.0
 40
0.0519569481955147
 50
88.147626842972997
 51
98.813321675875613
  0
ARC
  5
1EF1
  8
0
 10
41.322393970812769
 20
15.92070226350674
 30
0.0
 40
0.0337769223256298
 50
73.178694438787986
 51
88.979278639109722
  0
ARC
  5
1EF2
  8
0
 10
41.320822925080833
 20
15.9344785257416
 30
0.0
 40
0.0217491978713527
 50
54.64489068164908
 51
58.556373102252472
  0
ARC
  5
1EF3
  8
0
 10
41.332886984490727
 20
15.951780240214809
 30
0.0
 40
0.0006796632312668
 50
321.12531236521693
 51
39.961254456900882
  0
ARC
  5
1EF4
  8
0
 10
41.32920233169714
 20
15.956334586287429
 30
0.0
 40
0.0065242239428375
 50
275.98570951604108
 51
310.23076424558337
  0
ARC
  5
1EF5
  8
0
 10
41.321064863401141
 20
16.001486877904782
 30
0.0
 40
0.0523883680336371
 50
260.35935857250507
 51
279.68994045164959
  0
ARC
  5
1EF6
  8
0
 10
41.312984568057082
 20
15.95644437164634
 30
0.0
 40
0.0066422656399525
 50
230.18295843221989
 51
264.01058853551888
  0
ARC
  5
1EF7
  8
0
 10
41.314812723298502
 20
15.94158985470184
 30
0.0
 40
0.012383684519022
 50
96.757472117464104
 51
110.8619684893479
  0
ARC
  5
1EF8
  8
0
 10
41.311117862773642
 20
15.949949655444639
 30
0.0
 40
0.003290681698077
 50
102.5527292284302
 51
136.61808777751941
  0
ARC
  5
1EF9
  8
0
 10
41.309253335876143
 20
15.951779243362269
 30
0.0
 40
0.0006806626397263
 50
140.7516747291358
 51
219.91528939359969
  0
ARC
  5
1EFA
  8
0
 10
41.352626409458033
 20
15.9019295112831
 30
0.0
 40
0.0519569481955147
 50
88.147626842972997
 51
98.813321675875613
  0
ARC
  5
1EFB
  8
0
 10
41.353704191699123
 20
15.92008774484645
 30
0.0
 40
0.0337769223256298
 50
73.178694438787986
 51
88.979278639109722
  0
ARC
  5
1EFC
  8
0
 10
41.352133145967173
 20
15.93386400708131
 30
0.0
 40
0.0217491978713527
 50
54.64489068164908
 51
58.556373102252472
  0
ARC
  5
1EFD
  8
0
 10
41.364197205377081
 20
15.951165721554529
 30
0.0
 40
0.0006796632312668
 50
321.12531236521693
 51
39.961254456900882
  0
ARC
  5
1EFE
  8
0
 10
41.360512552583486
 20
15.955720067627141
 30
0.0
 40
0.0065242239428375
 50
275.98570951604108
 51
310.23076424558337
  0
ARC
  5
1EFF
  8
0
 10
41.352375084287488
 20
16.0008723592445
 30
0.0
 40
0.0523883680336371
 50
260.35935857250507
 51
279.68994045164959
  0
ARC
  5
1F00
  8
0
 10
41.344294788943436
 20
15.955829852986049
 30
0.0
 40
0.0066422656399525
 50
230.18295843221989
 51
264.01058853551888
  0
ARC
  5
1F01
  8
0
 10
41.346122944184849
 20
15.94097533604155
 30
0.0
 40
0.012383684519022
 50
96.757472117464104
 51
110.8619684893479
  0
ARC
  5
1F02
  8
0
 10
41.342428083659989
 20
15.949335136784351
 30
0.0
 40
0.003290681698077
 50
102.5527292284302
 51
136.61808777751941
  0
ARC
  5
1F03
  8
0
 10
41.340563556762497
 20
15.951164724701989
 30
0.0
 40
0.0006806626397263
 50
140.7516747291358
 51
219.91528939359969
  0
ARC
  5
1F04
  8
0
 10
41.384094063315899
 20
15.90222654778503
 30
0.0
 40
0.0519569481955147
 50
88.147626842972997
 51
98.813321675875613
  0
ARC
  5
1F05
  8
0
 10
41.385171845556997
 20
15.92038478134838
 30
0.0
 40
0.0337769223256298
 50
73.178694438787986
 51
88.979278639109722
  0
ARC
  5
1F06
  8
0
 10
41.383600799825047
 20
15.93416104358324
 30
0.0
 40
0.0217491978713527
 50
54.64489068164908
 51
58.556373102252472
  0
ARC
  5
1F07
  8
0
 10
41.395664859234948
 20
15.95146275805646
 30
0.0
 40
0.0006796632312668
 50
321.12531236521693
 51
39.961254456900882
  0
ARC
  5
1F08
  8
0
 10
41.39198020644136
 20
15.956017104129071
 30
0.0
 40
0.0065242239428375
 50
275.98570951604108
 51
310.23076424558337
  0
ARC
  5
1F09
  8
0
 10
41.383842738145361
 20
16.00116939574643
 30
0.0
 40
0.0523883680336371
 50
260.35935857250507
 51
279.68994045164959
  0
ARC
  5
1F0A
  8
0
 10
41.375762442801317
 20
15.95612688948798
 30
0.0
 40
0.0066422656399525
 50
230.18295843221989
 51
264.01058853551888
  0
ARC
  5
1F0B
  8
0
 10
41.37759059804273
 20
15.94127237254348
 30
0.0
 40
0.012383684519022
 50
96.757472117464104
 51
110.8619684893479
  0
ARC
  5
1F0C
  8
0
 10
41.37389573751787
 20
15.949632173286281
 30
0.0
 40
0.003290681698077
 50
102.5527292284302
 51
136.61808777751941
  0
ARC
  5
1F0D
  8
0
 10
41.372031210620378
 20
15.95146176120392
 30
0.0
 40
0.0006806626397263
 50
140.7516747291358
 51
219.91528939359969
  0
ARC
  5
1F0E
  8
0
 10
41.414886528221849
 20
15.903430879500389
 30
0.0
 40
0.0519569481955147
 50
88.147626842972997
 51
98.813321675875613
  0
ARC
  5
1F0F
  8
0
 10
41.41596431046294
 20
15.921589113063741
 30
0.0
 40
0.0337769223256298
 50
73.178694438787986
 51
88.979278639109722
  0
ARC
  5
1F10
  8
0
 10
41.414393264730997
 20
15.9353653752986
 30
0.0
 40
0.0217491978713527
 50
54.64489068164908
 51
58.556373102252472
  0
ARC
  5
1F11
  8
0
 10
41.426457324140898
 20
15.95266708977182
 30
0.0
 40
0.0006796632312668
 50
321.12531236521693
 51
39.961254456900882
  0
ARC
  5
1F12
  8
0
 10
41.42277267134731
 20
15.95722143584443
 30
0.0
 40
0.0065242239428375
 50
275.98570951604108
 51
310.23076424558337
  0
ARC
  5
1F13
  8
0
 10
41.414635203051311
 20
16.00237372746178
 30
0.0
 40
0.0523883680336371
 50
260.35935857250507
 51
279.68994045164959
  0
ARC
  5
1F14
  8
0
 10
41.40655490770726
 20
15.95733122120334
 30
0.0
 40
0.0066422656399525
 50
230.18295843221989
 51
264.01058853551888
  0
ARC
  5
1F15
  8
0
 10
41.408383062948673
 20
15.942476704258841
 30
0.0
 40
0.012383684519022
 50
96.757472117464104
 51
110.8619684893479
  0
ARC
  5
1F16
  8
0
 10
41.404688202423813
 20
15.950836505001639
 30
0.0
 40
0.003290681698077
 50
102.5527292284302
 51
136.61808777751941
  0
ARC
  5
1F17
  8
0
 10
41.402823675526307
 20
15.95266609291928
 30
0.0
 40
0.0006806626397263
 50
140.7516747291358
 51
219.91528939359969
  0
ARC
  5
1F18
  8
0
 10
41.44497607536568
 20
15.90532758583811
 30
0.0
 40
0.0519569481955147
 50
88.147626842972997
 51
98.813321675875613
  0
ARC
  5
1F19
  8
0
 10
41.446053857606771
 20
15.92348581940146
 30
0.0
 40
0.0337769223256298
 50
73.178694438787986
 51
88.979278639109722
  0
ARC
  5
1F1A
  8
0
 10
41.444482811874821
 20
15.93726208163632
 30
0.0
 40
0.0217491978713527
 50
54.64489068164908
 51
58.556373102252472
  0
ARC
  5
1F1B
  8
0
 10
41.456546871284722
 20
15.954563796109539
 30
0.0
 40
0.0006796632312668
 50
321.12531236521693
 51
39.961254456900882
  0
ARC
  5
1F1C
  8
0
 10
41.452862218491141
 20
15.959118142182151
 30
0.0
 40
0.0065242239428375
 50
275.98570951604108
 51
310.23076424558337
  0
ARC
  5
1F1D
  8
0
 10
41.444724750195142
 20
16.004270433799501
 30
0.0
 40
0.0523883680336371
 50
260.35935857250507
 51
279.68994045164959
  0
ARC
  5
1F1E
  8
0
 10
41.436644454851091
 20
15.959227927541059
 30
0.0
 40
0.0066422656399525
 50
230.18295843221989
 51
264.01058853551888
  0
ARC
  5
1F1F
  8
0
 10
41.438472610092496
 20
15.94437341059656
 30
0.0
 40
0.012383684519022
 50
96.757472117464104
 51
110.8619684893479
  0
ARC
  5
1F20
  8
0
 10
41.434777749567637
 20
15.952733211339361
 30
0.0
 40
0.003290681698077
 50
102.5527292284302
 51
136.61808777751941
  0
ARC
  5
1F21
  8
0
 10
41.432913222670152
 20
15.954562799256999
 30
0.0
 40
0.0006806626397263
 50
140.7516747291358
 51
219.91528939359969
  0
ARC
  5
1F22
  8
0
 10
41.473731609149389
 20
15.908051781876679
 30
0.0
 40
0.0519569481955147
 50
88.147626842972997
 51
98.813321675875613
  0
ARC
  5
1F23
  8
0
 10
41.474809391390487
 20
15.926210015440031
 30
0.0
 40
0.0337769223256298
 50
73.178694438787986
 51
88.979278639109722
  0
ARC
  5
1F24
  8
0
 10
41.47323834565853
 20
15.93998627767489
 30
0.0
 40
0.0217491978713527
 50
54.64489068164908
 51
58.556373102252472
  0
ARC
  5
1F25
  8
0
 10
41.485302405068431
 20
15.95728799214811
 30
0.0
 40
0.0006796632312668
 50
321.12531236521693
 51
39.961254456900882
  0
ARC
  5
1F26
  8
0
 10
41.481617752274843
 20
15.96184233822072
 30
0.0
 40
0.0065242239428375
 50
275.98570951604108
 51
310.23076424558337
  0
ARC
  5
1F27
  8
0
 10
41.473480283978837
 20
16.006994629838069
 30
0.0
 40
0.0523883680336371
 50
260.35935857250507
 51
279.68994045164959
  0
ARC
  5
1F28
  8
0
 10
41.4653999886348
 20
15.96195212357963
 30
0.0
 40
0.0066422656399525
 50
230.18295843221989
 51
264.01058853551888
  0
ARC
  5
1F29
  8
0
 10
41.467228143876213
 20
15.947097606635131
 30
0.0
 40
0.012383684519022
 50
96.757472117464104
 51
110.8619684893479
  0
ARC
  5
1F2A
  8
0
 10
41.463533283351353
 20
15.95545740737793
 30
0.0
 40
0.003290681698077
 50
102.5527292284302
 51
136.61808777751941
  0
ARC
  5
1F2B
  8
0
 10
41.461668756453861
 20
15.95728699529557
 30
0.0
 40
0.0006806626397263
 50
140.7516747291358
 51
219.91528939359969
  0
ARC
  5
1F2C
  8
0
 10
41.500756289387773
 20
15.91164050284392
 30
0.0
 40
0.0519569481955147
 50
88.147626842972997
 51
98.813321675875613
  0
ARC
  5
1F2D
  8
0
 10
41.501834071628871
 20
15.92979873640728
 30
0.0
 40
0.0337769223256298
 50
73.178694438787986
 51
88.979278639109722
  0
ARC
  5
1F2E
  8
0
 10
41.500263025896921
 20
15.94357499864214
 30
0.0
 40
0.0217491978713527
 50
54.64489068164908
 51
58.556373102252472
  0
ARC
  5
1F2F
  8
0
 10
41.512327085306822
 20
15.960876713115351
 30
0.0
 40
0.0006796632312668
 50
321.12531236521693
 51
39.961254456900882
  0
ARC
  5
1F30
  8
0
 10
41.508642432513227
 20
15.965431059187971
 30
0.0
 40
0.0065242239428375
 50
275.98570951604108
 51
310.23076424558337
  0
ARC
  5
1F31
  8
0
 10
41.500504964217228
 20
16.010583350805319
 30
0.0
 40
0.0523883680336371
 50
260.35935857250507
 51
279.68994045164959
  0
ARC
  5
1F32
  8
0
 10
41.492424668873177
 20
15.965540844546871
 30
0.0
 40
0.0066422656399525
 50
230.18295843221989
 51
264.01058853551888
  0
ARC
  5
1F33
  8
0
 10
41.494252824114589
 20
15.950686327602369
 30
0.0
 40
0.012383684519022
 50
96.757472117464104
 51
110.8619684893479
  0
ARC
  5
1F34
  8
0
 10
41.490557963589737
 20
15.959046128345181
 30
0.0
 40
0.003290681698077
 50
102.5527292284302
 51
136.61808777751941
  0
ARC
  5
1F35
  8
0
 10
41.488693436692238
 20
15.960875716262811
 30
0.0
 40
0.0006806626397263
 50
140.7516747291358
 51
219.91528939359969
  0
ARC
  5
1F36
  8
0
 10
41.525384170065713
 20
15.915789261507591
 30
0.0
 40
0.0519569481955147
 50
88.147626842972997
 51
98.813321675875613
  0
ARC
  5
1F37
  8
0
 10
41.526461952306811
 20
15.933947495070941
 30
0.0
 40
0.0337769223256298
 50
73.178694438787986
 51
88.979278639109722
  0
ARC
  5
1F38
  8
0
 10
41.524890906574861
 20
15.9477237573058
 30
0.0
 40
0.0217491978713527
 50
54.64489068164908
 51
58.556373102252472
  0
ARC
  5
1F39
  8
0
 10
41.536954965984762
 20
15.965025471779009
 30
0.0
 40
0.0006796632312668
 50
321.12531236521693
 51
39.961254456900882
  0
ARC
  5
1F3A
  8
0
 10
41.533270313191167
 20
15.969579817851629
 30
0.0
 40
0.0065242239428375
 50
275.98570951604108
 51
310.23076424558337
  0
ARC
  5
1F3B
  8
0
 10
41.525132844895182
 20
16.01473210946898
 30
0.0
 40
0.0523883680336371
 50
260.35935857250507
 51
279.68994045164959
  0
ARC
  5
1F3C
  8
0
 10
41.517052549551117
 20
15.969689603210529
 30
0.0
 40
0.0066422656399525
 50
230.18295843221989
 51
264.01058853551888
  0
ARC
  5
1F3D
  8
0
 10
41.518880704792537
 20
15.95483508626603
 30
0.0
 40
0.012383684519022
 50
96.757472117464104
 51
110.8619684893479
  0
ARC
  5
1F3E
  8
0
 10
41.51518584426767
 20
15.963194887008839
 30
0.0
 40
0.003290681698077
 50
102.5527292284302
 51
136.61808777751941
  0
ARC
  5
1F3F
  8
0
 10
41.513321317370178
 20
15.965024474926469
 30
0.0
 40
0.0006806626397263
 50
140.7516747291358
 51
219.91528939359969
  0
ARC
  5
1F40
  8
0
 10
41.547594643979949
 20
15.920553647670671
 30
0.0
 40
0.0519569481955147
 50
88.147626842972997
 51
98.813321675875613
  0
ARC
  5
1F41
  8
0
 10
41.548672426221053
 20
15.938711881234029
 30
0.0
 40
0.0337769223256298
 50
73.178694438787986
 51
88.979278639109722
  0
ARC
  5
1F42
  8
0
 10
41.547101380489103
 20
15.952488143468891
 30
0.0
 40
0.0217491978713527
 50
54.64489068164908
 51
58.556373102252472
  0
ARC
  5
1F43
  8
0
 10
41.559165439898997
 20
15.9697898579421
 30
0.0
 40
0.0006796632312668
 50
321.12531236521693
 51
39.961254456900882
  0
ARC
  5
1F44
  8
0
 10
41.555480787105409
 20
15.974344204014709
 30
0.0
 40
0.0065242239428375
 50
275.98570951604108
 51
310.23076424558337
  0
ARC
  5
1F45
  8
0
 10
41.547343318809411
 20
16.019496495632069
 30
0.0
 40
0.0523883680336371
 50
260.35935857250507
 51
279.68994045164959
  0
ARC
  5
1F46
  8
0
 10
41.539263023465359
 20
15.97445398937362
 30
0.0
 40
0.0066422656399525
 50
230.18295843221989
 51
264.01058853551888
  0
ARC
  5
1F47
  8
0
 10
41.541091178706772
 20
15.959599472429121
 30
0.0
 40
0.012383684519022
 50
96.757472117464104
 51
110.8619684893479
  0
ARC
  5
1F48
  8
0
 10
41.537396318181919
 20
15.967959273171919
 30
0.0
 40
0.003290681698077
 50
102.5527292284302
 51
136.61808777751941
  0
ARC
  5
1F49
  8
0
 10
41.535531791284427
 20
15.96978886108956
 30
0.0
 40
0.0006806626397263
 50
140.7516747291358
 51
219.91528939359969
  0
ARC
  5
1F4A
  8
0
 10
41.566666459018478
 20
15.9261120365921
 30
0.0
 40
0.0519569481955147
 50
88.147626842972997
 51
98.813321675875613
  0
ARC
  5
1F4B
  8
0
 10
41.567744241259582
 20
15.94427027015546
 30
0.0
 40
0.0337769223256298
 50
73.178694438787986
 51
88.979278639109722
  0
ARC
  5
1F4C
  8
0
 10
41.566173195527632
 20
15.958046532390309
 30
0.0
 40
0.0217491978713527
 50
54.64489068164908
 51
58.556373102252472
  0
ARC
  5
1F4D
  8
0
 10
41.578237254937527
 20
15.975348246863531
 30
0.0
 40
0.0006796632312668
 50
321.12531236521693
 51
39.961254456900882
  0
ARC
  5
1F4E
  8
0
 10
41.574552602143939
 20
15.97990259293614
 30
0.0
 40
0.0065242239428375
 50
275.98570951604108
 51
310.23076424558337
  0
ARC
  5
1F4F
  8
0
 10
41.56641513384794
 20
16.025054884553491
 30
0.0
 40
0.0523883680336371
 50
260.35935857250507
 51
279.68994045164959
  0
ARC
  5
1F50
  8
0
 10
41.558334838503889
 20
15.980012378295051
 30
0.0
 40
0.0066422656399525
 50
230.18295843221989
 51
264.01058853551888
  0
ARC
  5
1F51
  8
0
 10
41.560162993745301
 20
15.96515786135055
 30
0.0
 40
0.012383684519022
 50
96.757472117464104
 51
110.8619684893479
  0
ARC
  5
1F52
  8
0
 10
41.556468133220449
 20
15.97351766209335
 30
0.0
 40
0.003290681698077
 50
102.5527292284302
 51
136.61808777751941
  0
ARC
  5
1F53
  8
0
 10
41.554603606322956
 20
15.975347250010991
 30
0.0
 40
0.0006806626397263
 50
140.7516747291358
 51
219.91528939359969
  0
ARC
  5
1F54
  8
0
 10
41.582595978616041
 20
15.93205238364148
 30
0.0
 40
0.0519569481955147
 50
88.147626842972997
 51
98.813321675875613
  0
ARC
  5
1F55
  8
0
 10
41.583673760857138
 20
15.95021061720483
 30
0.0
 40
0.0337769223256298
 50
73.178694438787986
 51
88.979278639109722
  0
ARC
  5
1F56
  8
0
 10
41.582102715125188
 20
15.963986879439689
 30
0.0
 40
0.0217491978713527
 50
54.64489068164908
 51
58.556373102252472
  0
ARC
  5
1F57
  8
0
 10
41.59416677453509
 20
15.981288593912909
 30
0.0
 40
0.0006796632312668
 50
321.12531236521693
 51
39.961254456900882
  0
ARC
  5
1F58
  8
0
 10
41.590482121741509
 20
15.98584293998552
 30
0.0
 40
0.0065242239428375
 50
275.98570951604108
 51
310.23076424558337
  0
ARC
  5
1F59
  8
0
 10
41.58234465344551
 20
16.030995231602869
 30
0.0
 40
0.0523883680336371
 50
260.35935857250507
 51
279.68994045164959
  0
ARC
  5
1F5A
  8
0
 10
41.574264358101459
 20
15.985952725344429
 30
0.0
 40
0.0066422656399525
 50
230.18295843221989
 51
264.01058853551888
  0
ARC
  5
1F5B
  8
0
 10
41.576092513342871
 20
15.97109820839993
 30
0.0
 40
0.012383684519022
 50
96.757472117464104
 51
110.8619684893479
  0
ARC
  5
1F5C
  8
0
 10
41.572397652818012
 20
15.97945800914273
 30
0.0
 40
0.003290681698077
 50
102.5527292284302
 51
136.61808777751941
  0
ARC
  5
1F5D
  8
0
 10
41.57053312592052
 20
15.98128759706036
 30
0.0
 40
0.0006806626397263
 50
140.7516747291358
 51
219.91528939359969
  0
ARC
  5
1F5E
  8
0
 10
41.59504000192522
 20
15.93832700873512
 30
0.0
 40
0.0519569481955147
 50
88.147626842972997
 51
98.813321675875613
  0
ARC
  5
1F5F
  8
0
 10
41.59611778416631
 20
15.95648524229847
 30
0.0
 40
0.0337769223256298
 50
73.178694438787986
 51
88.979278639109722
  0
ARC
  5
1F60
  8
0
 10
41.594546738434367
 20
15.97026150453333
 30
0.0
 40
0.0217491978713527
 50
54.64489068164908
 51
58.556373102252472
  0
ARC
  5
1F61
  8
0
 10
41.606610797844269
 20
15.987563219006541
 30
0.0
 40
0.0006796632312668
 50
321.12531236521693
 51
39.961254456900882
  0
ARC
  5
1F62
  8
0
 10
41.602926145050681
 20
15.992117565079161
 30
0.0
 40
0.0065242239428375
 50
275.98570951604108
 51
310.23076424558337
  0
ARC
  5
1F63
  8
0
 10
41.594788676754682
 20
16.037269856696511
 30
0.0
 40
0.0523883680336371
 50
260.35935857250507
 51
279.68994045164959
  0
ARC
  5
1F64
  8
0
 10
41.586708381410631
 20
15.992227350438069
 30
0.0
 40
0.0066422656399525
 50
230.18295843221989
 51
264.01058853551888
  0
ARC
  5
1F65
  8
0
 10
41.588536536652043
 20
15.97737283349357
 30
0.0
 40
0.012383684519022
 50
96.757472117464104
 51
110.8619684893479
  0
ARC
  5
1F66
  8
0
 10
41.584841676127184
 20
15.985732634236371
 30
0.0
 40
0.003290681698077
 50
102.5527292284302
 51
136.61808777751941
  0
ARC
  5
1F67
  8
0
 10
41.582977149229677
 20
15.987562222154001
 30
0.0
 40
0.0006806626397263
 50
140.7516747291358
 51
219.91528939359969
  0
ARC
  5
1F68
  8
0
 10
41.603558807595341
 20
15.944934803033821
 30
0.0
 40
0.0519569481955147
 50
88.147626842972997
 51
98.813321675875613
  0
ARC
  5
1F69
  8
0
 10
41.604636589836431
 20
15.96309303659717
 30
0.0
 40
0.0337769223256298
 50
73.178694438787986
 51
88.979278639109722
  0
ARC
  5
1F6A
  8
0
 10
41.603065544104489
 20
15.97686929883203
 30
0.0
 40
0.0217491978713527
 50
54.64489068164908
 51
58.556373102252472
  0
ARC
  5
1F6B
  8
0
 10
41.61512960351439
 20
15.99417101330525
 30
0.0
 40
0.0006796632312668
 50
321.12531236521693
 51
39.961254456900882
  0
ARC
  5
1F6C
  8
0
 10
41.611444950720802
 20
15.998725359377859
 30
0.0
 40
0.0065242239428375
 50
275.98570951604108
 51
310.23076424558337
  0
ARC
  5
1F6D
  8
0
 10
41.603307482424803
 20
16.04387765099521
 30
0.0
 40
0.0523883680336371
 50
260.35935857250507
 51
279.68994045164959
  0
ARC
  5
1F6E
  8
0
 10
41.595227187080752
 20
15.99883514473677
 30
0.0
 40
0.0066422656399525
 50
230.18295843221989
 51
264.01058853551888
  0
ARC
  5
1F6F
  8
0
 10
41.597055342322157
 20
15.98398062779227
 30
0.0
 40
0.012383684519022
 50
96.757472117464104
 51
110.8619684893479
  0
ARC
  5
1F70
  8
0
 10
41.593360481797312
 20
15.992340428535069
 30
0.0
 40
0.003290681698077
 50
102.5527292284302
 51
136.61808777751941
  0
ARC
  5
1F71
  8
0
 10
41.591495954899813
 20
15.994170016452699
 30
0.0
 40
0.0006806626397263
 50
140.7516747291358
 51
219.91528939359969
  0
ARC
  5
1F72
  8
0
 10
41.608325890094541
 20
15.951566326490481
 30
0.0
 40
0.0519569481955147
 50
88.147626842972997
 51
98.813321675875613
  0
ARC
  5
1F73
  8
0
 10
41.609403672335631
 20
15.96972456005383
 30
0.0
 40
0.0337769223256298
 50
79.220446463624199
 51
88.979278639109722
  0
ARC
  5
1F76
  8
0
 10
41.616212033220002
 20
16.005356882834519
 30
0.0
 40
0.0065242239428375
 50
275.98570951604108
 51
305.40782067494899
  0
ARC
  5
1F77
  8
0
 10
41.608074564924003
 20
16.050509174451872
 30
0.0
 40
0.0523883680336371
 50
260.35935857250507
 51
279.68994045164959
  0
ARC
  5
1F78
  8
0
 10
41.599994269579952
 20
16.005466668193431
 30
0.0
 40
0.0066422656399525
 50
230.18295843221989
 51
264.01058853551888
  0
ARC
  5
1F79
  8
0
 10
41.601822424821357
 20
15.99061215124893
 30
0.0
 40
0.012383684519022
 50
96.757472117464104
 51
110.8619684893479
  0
ARC
  5
1F7A
  8
0
 10
41.598127564296497
 20
15.998971951991731
 30
0.0
 40
0.003290681698077
 50
102.5527292284302
 51
136.61808777751941
  0
ARC
  5
1F7B
  8
0
 10
41.596263037399012
 20
16.000801539909371
 30
0.0
 40
0.0006806626397263
 50
140.7516747291358
 51
219.91528939359969
  0
ARC
  5
1F81
  8
0
 10
41.609027345024899
 20
16.057341028182719
 30
0.0
 40
0.0523883680336371
 50
260.35935857250507
 51
272.81795277597541
  0
ARC
  5
1F82
  8
0
 10
41.600947049680848
 20
16.012298521924269
 30
0.0
 40
0.0066422656399525
 50
230.18295843221989
 51
264.01058853551888
  0
ARC
  5
1F83
  8
0
 10
41.60277520492226
 20
15.997444004979769
 30
0.0
 40
0.012383684519022
 50
98.897199083533494
 51
110.8619684893479
  0
ARC
  5
1F84
  8
0
 10
41.5990803443974
 20
16.005803805722579
 30
0.0
 40
0.003290681698077
 50
102.5527292284302
 51
136.61808777751941
  0
ARC
  5
1F85
  8
0
 10
41.597215817499908
 20
16.007633393640209
 30
0.0
 40
0.0006806626397263
 50
140.7516747291358
 51
219.91528939359969
  0
ARC
  5
1F88
  8
0
 10
41.10989033268676
 20
15.99336855048997
 30
0.0
 40
0.0217491978713527
 50
54.64489068164908
 51
57.094336252909777
  0
ARC
  5
1F89
  8
0
 10
41.121954392096661
 20
16.010670264963188
 30
0.0
 40
0.0006796632312668
 50
321.12531236521693
 51
39.961254456900882
  0
ARC
  5
1F8A
  8
0
 10
41.118269739303081
 20
16.015224611035801
 30
0.0
 40
0.0065242239428375
 50
275.98570951604108
 51
310.23076424558337
  0
ARC
  5
1F8B
  8
0
 10
41.110132271007082
 20
16.06037690265315
 30
0.0
 40
0.0523883680336371
 50
273.64021532184859
 51
279.68994045164959
  0
ARC
  5
1FCD
  8
0
 10
41.069338289973288
 20
15.980312117348779
 30
0.0
 40
0.0202139936197643
 50
133.06525146175881
 51
177.04401437644751
  0
ARC
  5
2050
  8
0
 10
41.636791892461098
 20
15.90594631809498
 30
0.0
 40
0.0175803278683756
 50
285.8641309074909
 51
319.7180037285047
  0
ARC
  5
2051
  8
0
 10
41.611771751933873
 20
16.04893232192639
 30
0.0
 40
0.1635215539556519
 50
265.96111358077809
 51
275.65522304867989
  0
ARC
  5
2052
  8
0
 10
41.621363649377727
 20
15.9524650292638
 30
0.0
 40
0.0665785846973022
 50
275.62153854157458
 51
287.69264638011651
  0
ARC
  5
2053
  8
0
 10
41.480987345117811
 20
15.89217211188382
 30
0.0
 40
0.0250835820957949
 50
222.73407027581769
 51
266.030171579902
  0
ARC
  5
2054
  8
0
 10
41.50160320101952
 20
16.005385032583519
 30
0.0
 40
0.1400318194149479
 50
260.81493495973098
 51
276.096697165504
  0
ARC
  5
2055
  8
0
 10
41.50984673792577
 20
15.934510348274291
 30
0.0
 40
0.0687213960964359
 50
275.53999510958062
 51
287.61107307996798
  0
ARC
  5
2056
  8
0
 10
41.5249360889229
 20
15.8879435981443
 30
0.0
 40
0.0197739550504093
 50
286.76153236845511
 51
314.33352415805729
  0
ARC
  5
2057
  8
0
 10
41.501231534083011
 20
15.89953085611236
 30
0.0
 40
0.0454982716246771
 50
325.5599598881314
 51
332.02543147723799
  0
ARC
  5
2058
  8
0
 10
41.48286117257323
 20
15.872337895698831
 30
0.0
 40
0.0014011866561674
 50
107.9263338896769
 51
252.54145900173751
  0
ARC
  5
2059
  8
0
 10
41.519422896252657
 20
15.8723376788127
 30
0.0
 40
0.0014057158810766
 50
287.27907268082271
 51
72.201583936496704
  0
ARC
  5
205A
  8
0
 10
41.512979977652513
 20
15.86142908171032
 30
0.0
 40
0.0140435921205289
 50
60.70038720786863
 51
82.207998219126878
  0
ARC
  5
205B
  8
0
 10
41.510561821157147
 20
15.88899884834551
 30
0.0
 40
0.0202538047941149
 50
275.78834945051602
 51
297.26565847437291
  0
ARC
  5
205C
  8
0
 10
41.501533983335207
 20
15.94466104318904
 30
0.0
 40
0.0766167499662805
 50
269.65097087428268
 51
278.30786883512332
  0
ARC
  5
205D
  8
0
 10
41.5029557425528
 20
15.975428199122881
 30
0.0
 40
0.1073990889532356
 50
262.83942693803499
 51
268.99247105186367
  0
ARC
  5
205E
  8
0
 10
41.491626039832859
 20
15.88870525287188
 30
0.0
 40
0.0199449302849243
 50
242.5786665914375
 51
264.0784624695192
  0
ARC
  5
205F
  8
0
 10
41.488327535584801
 20
15.863744304968471
 30
0.0
 40
0.0115465406365156
 50
98.943013978514117
 51
120.7152090200446
  0
ARC
  5
2060
  8
0
 10
41.354907272978338
 20
15.95560886425551
 30
0.0
 40
0.0849575266467343
 50
251.27003257993499
 51
270.71920920037343
  0
ARC
  5
2061
  8
0
 10
41.359287010175393
 20
16.022355208173391
 30
0.0
 40
0.1517333580533772
 50
268.74875380201109
 51
274.85495526585203
  0
ARC
  5
2062
  8
0
 10
41.366207130064822
 20
15.95092833864177
 30
0.0
 40
0.0799816021780239
 50
274.24590506957901
 51
284.00303611480291
  0
ARC
  5
2063
  8
0
 10
41.382697289713988
 20
15.890188319453189
 30
0.0
 40
0.0171060931539273
 50
279.63564249672743
 51
298.46690167564719
  0
ARC
  5
2064
  8
0
 10
41.189394975917509
 20
15.88293626740745
 30
0.0
 40
0.0134331568976615
 50
203.12553519994901
 51
246.19122669598451
  0
ARC
  5
2065
  8
0
 10
41.199070731781262
 20
15.899722166723
 30
0.0
 40
0.0327623476900799
 50
242.55804005816529
 51
261.14761729917569
  0
ARC
  5
2066
  8
0
 10
41.216382743712131
 20
15.99426883391944
 30
0.0
 40
0.1288722685952757
 50
260.01112774345489
 51
269.09399666810788
  0
ARC
  5
2067
  8
0
 10
41.21849842696232
 20
15.98872503233093
 30
0.0
 40
0.1233822838503788
 50
268.07088351383072
 51
278.74297768778769
  0
ARC
  5
2068
  8
0
 10
41.230053925108869
 20
15.917467171162031
 30
0.0
 40
0.0511993648682006
 50
278.0828562552565
 51
290.96250958960832
  0
ARC
  5
2069
  8
0
 10
41.243114130340047
 20
15.88439462036146
 30
0.0
 40
0.0156475817239049
 50
289.63001009384749
 51
323.78824449629309
  0
ARC
  5
206A
  8
0
 10
41.198873503773228
 20
15.872337895698831
 30
0.0
 40
0.001401186656164
 50
107.9263338896322
 51
252.5414590016938
  0
ARC
  5
206B
  8
0
 10
41.235435227595787
 20
15.87233767881205
 30
0.0
 40
0.0014057158379431
 50
287.27906711796459
 51
72.201589499415448
  0
ARC
  5
206C
  8
0
 10
41.229939709185487
 20
15.863652419900021
 30
0.0
 40
0.0116439887296024
 50
59.411825991562679
 51
80.919442727883094
  0
ARC
  5
206D
  8
0
 10
41.205279967840653
 20
15.86153596586559
 30
0.0
 40
0.013928933384416
 50
97.627689003906937
 51
119.3998827251875
  0
ARC
  5
206E
  8
0
 10
41.207638371572671
 20
15.88870525467442
 30
0.0
 40
0.0199449321335341
 50
242.57866759964611
 51
264.07846146129799
  0
ARC
  5
206F
  8
0
 10
41.216474303845693
 20
15.941803304464109
 30
0.0
 40
0.0737455867405102
 50
261.5052722986477
 51
272.83044429874769
  0
ARC
  5
2070
  8
0
 10
41.22117787171868
 20
15.90718490715272
 30
0.0
 40
0.0390516651594176
 50
268.44170017269812
 51
292.0726174228684
  0
ARC
  5
2071
  8
0
 10
41.083573237758209
 20
15.9088979262949
 30
0.0
 40
0.0210241046541909
 50
221.81102519409009
 51
259.20945954915538
  0
ARC
  5
2072
  8
0
 10
41.106493132265022
 20
16.000717338935509
 30
0.0
 40
0.1156336667817604
 50
256.5703791643557
 51
262.00842248720983
  0
ARC
  5
2073
  8
0
 10
41.106177041124802
 20
16.032447853752831
 30
0.0
 40
0.147087979650926
 50
263.84907091493142
 51
270.77703775206157
  0
ARC
  5
2074
  8
0
 10
41.109615651969257
 20
15.955174887293451
 30
0.0
 40
0.0698164193822342
 50
268.81496507222698
 51
276.28601968289217
  0
ARC
  5
2076
  8
0
 10
41.139039942081673
 20
16.010510531144849
 30
0.0
 40
0.0007381200219856
 50
155.67844446951469
 51
236.06095815482161
  0
ARC
  5
2077
  8
0
 10
41.142190732266123
 20
16.007178085990411
 30
0.0
 40
0.0052765640306318
 50
95.293697394048266
 51
136.4356232497305
  0
ARC
  5
2078
  8
0
 10
41.150721207246917
 20
15.969330976046621
 30
0.0
 40
0.0440343317509342
 50
87.833902223244607
 51
101.8165488396761
  0
ARC
  5
2079
  8
0
 10
41.152527829760572
 20
15.9766322363971
 30
0.0
 40
0.0367018824119671
 50
74.180274212726744
 51
90.222100998977965
  0
ARC
  5
207A
  8
0
 10
41.153298415206393
 20
15.99382473324949
 30
0.0
 40
0.0203368860616276
 50
58.235653401316149
 51
62.993648572024057
  0
ARC
  5
207B
  8
0
 10
41.17486466499723
 20
15.995940481032241
 30
0.0
 40
0.0178089043483083
 50
126.6868204250915
 51
131.13430122705319
  0
ARC
  5
207C
  8
0
 10
41.156062315846711
 20
16.026948250484079
 30
0.0
 40
0.0189683845586316
 50
274.31669542959997
 51
291.9397504675315
  0
ARC
  5
207D
  8
0
 10
41.15142439565345
 20
16.065735702655449
 30
0.0
 40
0.0580199641103896
 50
263.52968214370242
 51
276.00091293887903
  0
ARC
  5
207E
  8
0
 10
41.145875761084021
 20
16.02321047267279
 30
0.0
 40
0.0151575036950003
 50
241.4338105451935
 51
266.25682361495501
  0
ARC
  5
207F
  8
0
 10
41.163543361116737
 20
16.010527646983491
 30
0.0
 40
0.0007470711470356
 50
335.82264052229812
 51
51.903227660778761
  0
ARC
  5
2198
  8
0
 10
41.144054502512851
 20
16.016681927533899
 30
0.0
 40
0.0007381200219856
 50
155.67844446951469
 51
236.06095815482161
  0
ARC
  5
2199
  8
0
 10
41.147205292697301
 20
16.013349482379461
 30
0.0
 40
0.0052765640306318
 50
95.293697394048266
 51
136.4356232497305
  0
ARC
  5
219A
  8
0
 10
41.155735767678102
 20
15.97550237243567
 30
0.0
 40
0.0440343317509342
 50
87.833902223244607
 51
101.8165488396761
  0
ARC
  5
219B
  8
0
 10
41.15754239019175
 20
15.98280363278614
 30
0.0
 40
0.0367018824119671
 50
74.180274212726744
 51
90.222100998977965
  0
ARC
  5
219C
  8
0
 10
41.158312975637571
 20
15.99999612963853
 30
0.0
 40
0.0203368860616276
 50
58.235653401316149
 51
62.993648572024057
  0
ARC
  5
219D
  8
0
 10
41.179879225428408
 20
16.002111877421289
 30
0.0
 40
0.0178089043483083
 50
126.6868204250915
 51
131.13430122705319
  0
ARC
  5
219E
  8
0
 10
41.161076876277882
 20
16.033119646873129
 30
0.0
 40
0.0189683845586316
 50
274.31669542959997
 51
291.9397504675315
  0
ARC
  5
219F
  8
0
 10
41.156438956084628
 20
16.071907099044498
 30
0.0
 40
0.0580199641103896
 50
263.52968214370242
 51
276.00091293887903
  0
ARC
  5
21A0
  8
0
 10
41.150890321515199
 20
16.02938186906184
 30
0.0
 40
0.0151575036950003
 50
241.4338105451935
 51
266.25682361495501
  0
ARC
  5
21A1
  8
0
 10
41.168557921547922
 20
16.01669904337253
 30
0.0
 40
0.0007470711470356
 50
335.82264052229812
 51
51.903227660778761
  0
ARC
  5
21A7
  8
0
 10
41.18917449019159
 20
16.008283273810331
 30
0.0
 40
0.0178089043483083
 50
126.6868204250915
 51
131.13430122705319
  0
ARC
  5
21A8
  8
0
 10
41.170372141041057
 20
16.039291043262171
 30
0.0
 40
0.0189683845586316
 50
274.31669542959997
 51
291.9397504675315
  0
ARC
  5
21A9
  8
0
 10
41.165734220847789
 20
16.078078495433541
 30
0.0
 40
0.0580199641103896
 50
263.52968214370242
 51
276.00091293887903
  0
ARC
  5
21AA
  8
0
 10
41.160185586278381
 20
16.035553265450879
 30
0.0
 40
0.0151575036950003
 50
261.80788905174182
 51
266.25682361495501
  0
ARC
  5
21AB
  8
0
 10
41.17785318631109
 20
16.022870439761569
 30
0.0
 40
0.0007470711470356
 50
335.82264052229812
 51
35.452315302118741
  0
ARC
  5
21AC
  8
0
 10
41.138108473576359
 20
16.0043181523199
 30
0.0
 40
0.0007381200219856
 50
155.67844446951469
 51
236.06095815482161
  0
ARC
  5
21AD
  8
0
 10
41.141259263760801
 20
16.000985707165459
 30
0.0
 40
0.0052765640306318
 50
95.293697394048266
 51
136.4356232497305
  0
ARC
  5
21AE
  8
0
 10
41.149789738741603
 20
15.96313859722167
 30
0.0
 40
0.0440343317509342
 50
87.833902223244607
 51
101.8165488396761
  0
ARC
  5
21AF
  8
0
 10
41.151596361255237
 20
15.970439857572149
 30
0.0
 40
0.0367018824119671
 50
74.180274212726744
 51
90.222100998977965
  0
ARC
  5
21B0
  8
0
 10
41.152366946701072
 20
15.987632354424539
 30
0.0
 40
0.0203368860616276
 50
58.235653401316149
 51
62.993648572024057
  0
ARC
  5
21B1
  8
0
 10
41.173933196491909
 20
15.98974810220729
 30
0.0
 40
0.0178089043483083
 50
126.6868204250915
 51
131.13430122705319
  0
ARC
  5
21B2
  8
0
 10
41.15513084734139
 20
16.020755871659141
 30
0.0
 40
0.0189683845586316
 50
274.31669542959997
 51
291.9397504675315
  0
ARC
  5
21B3
  8
0
 10
41.150492927148129
 20
16.0595433238305
 30
0.0
 40
0.0580199641103896
 50
263.52968214370242
 51
276.00091293887903
  0
ARC
  5
21B4
  8
0
 10
41.144944292578707
 20
16.017018093847849
 30
0.0
 40
0.0151575036950003
 50
241.4338105451935
 51
266.25682361495501
  0
ARC
  5
21B5
  8
0
 10
41.162611892611423
 20
16.004335268158538
 30
0.0
 40
0.0007470711470356
 50
335.82264052229812
 51
51.903227660778761
  0
ARC
  5
21B6
  8
0
 10
41.141104969815188
 20
15.99778013687804
 30
0.0
 40
0.0007381200219856
 50
155.67844446951469
 51
236.06095815482161
  0
ARC
  5
21B7
  8
0
 10
41.144255759999631
 20
15.9944476917236
 30
0.0
 40
0.0052765640306318
 50
95.293697394048266
 51
136.4356232497305
  0
ARC
  5
21B8
  8
0
 10
41.152786234980432
 20
15.95660058177981
 30
0.0
 40
0.0440343317509342
 50
87.833902223244607
 51
101.8165488396761
  0
ARC
  5
21B9
  8
0
 10
41.15459285749408
 20
15.96390184213028
 30
0.0
 40
0.0367018824119671
 50
74.180274212726744
 51
90.222100998977965
  0
ARC
  5
21BA
  8
0
 10
41.155363442939901
 20
15.98109433898267
 30
0.0
 40
0.0203368860616276
 50
58.235653401316149
 51
62.993648572024057
  0
ARC
  5
21BB
  8
0
 10
41.176929692730752
 20
15.98321008676543
 30
0.0
 40
0.0178089043483083
 50
126.6868204250915
 51
131.13430122705319
  0
ARC
  5
21BC
  8
0
 10
41.158127343580219
 20
16.014217856217272
 30
0.0
 40
0.0189683845586316
 50
274.31669542959997
 51
291.9397504675315
  0
ARC
  5
21BD
  8
0
 10
41.153489423386951
 20
16.053005308388641
 30
0.0
 40
0.0580199641103896
 50
263.52968214370242
 51
276.00091293887903
  0
ARC
  5
21BE
  8
0
 10
41.147940788817529
 20
16.01048007840598
 30
0.0
 40
0.0151575036950003
 50
241.4338105451935
 51
266.25682361495501
  0
ARC
  5
21BF
  8
0
 10
41.165608388850252
 20
15.997797252716669
 30
0.0
 40
0.0007470711470356
 50
335.82264052229812
 51
51.903227660778761
  0
ARC
  5
21C0
  8
0
 10
41.148198741097559
 20
15.99154763905163
 30
0.0
 40
0.0007381200219856
 50
155.67844446951469
 51
236.06095815482161
  0
ARC
  5
21C1
  8
0
 10
41.151349531282001
 20
15.98821519389719
 30
0.0
 40
0.0052765640306318
 50
95.293697394048266
 51
136.4356232497305
  0
ARC
  5
21C2
  8
0
 10
41.15988000626281
 20
15.9503680839534
 30
0.0
 40
0.0440343317509342
 50
87.833902223244607
 51
101.8165488396761
  0
ARC
  5
21C3
  8
0
 10
41.161686628776458
 20
15.957669344303881
 30
0.0
 40
0.0367018824119671
 50
74.180274212726744
 51
90.222100998977965
  0
ARC
  5
21C4
  8
0
 10
41.162457214222272
 20
15.974861841156271
 30
0.0
 40
0.0203368860616276
 50
58.235653401316149
 51
62.993648572024057
  0
ARC
  5
21C5
  8
0
 10
41.184023464013123
 20
15.97697758893902
 30
0.0
 40
0.0178089043483083
 50
126.6868204250915
 51
131.13430122705319
  0
ARC
  5
21C6
  8
0
 10
41.165221114862597
 20
16.007985358390862
 30
0.0
 40
0.0189683845586316
 50
274.31669542959997
 51
291.9397504675315
  0
ARC
  5
21C7
  8
0
 10
41.160583194669329
 20
16.046772810562231
 30
0.0
 40
0.0580199641103896
 50
263.52968214370242
 51
276.00091293887903
  0
ARC
  5
21C8
  8
0
 10
41.155034560099907
 20
16.00424758057958
 30
0.0
 40
0.0151575036950003
 50
241.4338105451935
 51
266.25682361495501
  0
ARC
  5
21C9
  8
0
 10
41.172702160132623
 20
15.991564754890261
 30
0.0
 40
0.0007470711470356
 50
335.82264052229812
 51
51.903227660778761
  0
ARC
  5
21CA
  8
0
 10
41.159099348810031
 20
15.98584309664718
 30
0.0
 40
0.0007381200219856
 50
155.67844446951469
 51
236.06095815482161
  0
ARC
  5
21CB
  8
0
 10
41.162250138994459
 20
15.98251065149274
 30
0.0
 40
0.0052765640306318
 50
95.293697394048266
 51
136.4356232497305
  0
ARC
  5
21CC
  8
0
 10
41.170780613975268
 20
15.94466354154895
 30
0.0
 40
0.0440343317509342
 50
87.833902223244607
 51
101.8165488396761
  0
ARC
  5
21CD
  8
0
 10
41.172587236488909
 20
15.95196480189942
 30
0.0
 40
0.0367018824119671
 50
74.180274212726744
 51
90.222100998977965
  0
ARC
  5
21CE
  8
0
 10
41.173357821934736
 20
15.96915729875181
 30
0.0
 40
0.0203368860616276
 50
58.235653401316149
 51
62.993648572024057
  0
ARC
  5
21CF
  8
0
 10
41.19492407172558
 20
15.97127304653457
 30
0.0
 40
0.0178089043483083
 50
126.6868204250915
 51
131.13430122705319
  0
ARC
  5
21D0
  8
0
 10
41.176121722575061
 20
16.00228081598641
 30
0.0
 40
0.0189683845586316
 50
274.31669542959997
 51
291.9397504675315
  0
ARC
  5
21D1
  8
0
 10
41.171483802381793
 20
16.04106826815778
 30
0.0
 40
0.0580199641103896
 50
263.52968214370242
 51
276.00091293887903
  0
ARC
  5
21D2
  8
0
 10
41.165935167812378
 20
15.99854303817512
 30
0.0
 40
0.0151575036950003
 50
241.4338105451935
 51
266.25682361495501
  0
ARC
  5
21D3
  8
0
 10
41.183602767845088
 20
15.985860212485809
 30
0.0
 40
0.0007470711470356
 50
335.82264052229812
 51
51.903227660778761
  0
ARC
  5
21D4
  8
0
 10
41.173607523889892
 20
15.98045505843683
 30
0.0
 40
0.0007381200219856
 50
155.67844446951469
 51
236.06095815482161
  0
ARC
  5
21D5
  8
0
 10
41.176758314074313
 20
15.97712261328239
 30
0.0
 40
0.0052765640306318
 50
95.293697394048266
 51
136.4356232497305
  0
ARC
  5
21D6
  8
0
 10
41.185288789055122
 20
15.9392755033386
 30
0.0
 40
0.0440343317509342
 50
87.833902223244607
 51
101.8165488396761
  0
ARC
  5
21D7
  8
0
 10
41.18709541156877
 20
15.94657676368907
 30
0.0
 40
0.0367018824119671
 50
74.180274212726744
 51
90.222100998977965
  0
ARC
  5
21D8
  8
0
 10
41.18786599701459
 20
15.96376926054146
 30
0.0
 40
0.0203368860616276
 50
58.235653401316149
 51
62.993648572024057
  0
ARC
  5
21D9
  8
0
 10
41.209432246805427
 20
15.96588500832422
 30
0.0
 40
0.0178089043483083
 50
126.6868204250915
 51
131.13430122705319
  0
ARC
  5
21DA
  8
0
 10
41.190629897654908
 20
15.996892777776059
 30
0.0
 40
0.0189683845586316
 50
274.31669542959997
 51
291.9397504675315
  0
ARC
  5
21DB
  8
0
 10
41.18599197746164
 20
16.035680229947431
 30
0.0
 40
0.0580199641103896
 50
263.52968214370242
 51
276.00091293887903
  0
ARC
  5
21DC
  8
0
 10
41.180443342892232
 20
15.993154999964769
 30
0.0
 40
0.0151575036950003
 50
241.4338105451935
 51
266.25682361495501
  0
ARC
  5
21DD
  8
0
 10
41.198110942924941
 20
15.980472174275461
 30
0.0
 40
0.0007470711470356
 50
335.82264052229812
 51
51.903227660778761
  0
ARC
  5
21DE
  8
0
 10
41.191540221820517
 20
15.9752518940498
 30
0.0
 40
0.0007381200219856
 50
155.67844446951469
 51
236.06095815482161
  0
ARC
  5
21DF
  8
0
 10
41.194691012004959
 20
15.97191944889536
 30
0.0
 40
0.0052765640306318
 50
95.293697394048266
 51
136.4356232497305
  0
ARC
  5
21E0
  8
0
 10
41.203221486985761
 20
15.934072338951569
 30
0.0
 40
0.0440343317509342
 50
87.833902223244607
 51
101.8165488396761
  0
ARC
  5
21E1
  8
0
 10
41.205028109499409
 20
15.94137359930205
 30
0.0
 40
0.0367018824119671
 50
74.180274212726744
 51
90.222100998977965
  0
ARC
  5
21E2
  8
0
 10
41.20579869494523
 20
15.95856609615444
 30
0.0
 40
0.0203368860616276
 50
58.235653401316149
 51
62.993648572024057
  0
ARC
  5
21E3
  8
0
 10
41.227364944736081
 20
15.96068184393719
 30
0.0
 40
0.0178089043483083
 50
126.6868204250915
 51
131.13430122705319
  0
ARC
  5
21E4
  8
0
 10
41.208562595585562
 20
15.99168961338904
 30
0.0
 40
0.0189683845586316
 50
274.31669542959997
 51
291.9397504675315
  0
ARC
  5
21E5
  8
0
 10
41.20392467539228
 20
16.030477065560401
 30
0.0
 40
0.0580199641103896
 50
263.52968214370242
 51
276.00091293887903
  0
ARC
  5
21E6
  8
0
 10
41.198376040822872
 20
15.98795183557775
 30
0.0
 40
0.0151575036950003
 50
241.4338105451935
 51
266.25682361495501
  0
ARC
  5
21E7
  8
0
 10
41.216043640855581
 20
15.97526900988843
 30
0.0
 40
0.0007470711470356
 50
335.82264052229812
 51
51.903227660778761
  0
ARC
  5
21E8
  8
0
 10
41.212638052938672
 20
15.970730278184149
 30
0.0
 40
0.0007381200219856
 50
155.67844446951469
 51
236.06095815482161
  0
ARC
  5
21E9
  8
0
 10
41.215788843123107
 20
15.967397833029709
 30
0.0
 40
0.0052765640306318
 50
95.293697394048266
 51
136.4356232497305
  0
ARC
  5
21EA
  8
0
 10
41.224319318103923
 20
15.929550723085921
 30
0.0
 40
0.0440343317509342
 50
87.833902223244607
 51
101.8165488396761
  0
ARC
  5
21EB
  8
0
 10
41.226125940617557
 20
15.936851983436391
 30
0.0
 40
0.0367018824119671
 50
74.180274212726744
 51
90.222100998977965
  0
ARC
  5
21EC
  8
0
 10
41.226896526063392
 20
15.954044480288781
 30
0.0
 40
0.0203368860616276
 50
58.235653401316149
 51
62.993648572024057
  0
ARC
  5
21ED
  8
0
 10
41.248462775854222
 20
15.956160228071541
 30
0.0
 40
0.0178089043483083
 50
126.6868204250915
 51
131.13430122705319
  0
ARC
  5
21EE
  8
0
 10
41.229660426703703
 20
15.987167997523381
 30
0.0
 40
0.0189683845586316
 50
274.31669542959997
 51
291.9397504675315
  0
ARC
  5
21EF
  8
0
 10
41.225022506510442
 20
16.025955449694749
 30
0.0
 40
0.0580199641103896
 50
263.52968214370242
 51
276.00091293887903
  0
ARC
  5
21F0
  8
0
 10
41.21947387194102
 20
15.983430219712091
 30
0.0
 40
0.0151575036950003
 50
241.4338105451935
 51
266.25682361495501
  0
ARC
  5
21F1
  8
0
 10
41.237141471973729
 20
15.97074739402278
 30
0.0
 40
0.0007470711470356
 50
335.82264052229812
 51
51.903227660778761
  0
ARC
  5
21F2
  8
0
 10
41.236270825092738
 20
15.96717552295355
 30
0.0
 40
0.0007381200219856
 50
155.67844446951469
 51
236.06095815482161
  0
ARC
  5
21F3
  8
0
 10
41.239421615277173
 20
15.96384307779911
 30
0.0
 40
0.0052765640306318
 50
95.293697394048266
 51
136.4356232497305
  0
ARC
  5
21F4
  8
0
 10
41.247952090257982
 20
15.92599596785533
 30
0.0
 40
0.0440343317509342
 50
87.833902223244607
 51
101.8165488396761
  0
ARC
  5
21F5
  8
0
 10
41.249758712771623
 20
15.933297228205801
 30
0.0
 40
0.0367018824119671
 50
74.180274212726744
 51
90.222100998977965
  0
ARC
  5
21F6
  8
0
 10
41.250529298217451
 20
15.950489725058191
 30
0.0
 40
0.0203368860616276
 50
58.235653401316149
 51
62.993648572024057
  0
ARC
  5
21F7
  8
0
 10
41.272095548008288
 20
15.952605472840951
 30
0.0
 40
0.0178089043483083
 50
126.6868204250915
 51
131.13430122705319
  0
ARC
  5
21F8
  8
0
 10
41.253293198857783
 20
15.98361324229278
 30
0.0
 40
0.0189683845586316
 50
274.31669542959997
 51
291.9397504675315
  0
ARC
  5
21F9
  8
0
 10
41.248655278664494
 20
16.02240069446416
 30
0.0
 40
0.0580199641103896
 50
263.52968214370242
 51
276.00091293887903
  0
ARC
  5
21FA
  8
0
 10
41.243106644095093
 20
15.9798754644815
 30
0.0
 40
0.0151575036950003
 50
241.4338105451935
 51
266.25682361495501
  0
ARC
  5
21FB
  8
0
 10
41.260774244127802
 20
15.96719263879219
 30
0.0
 40
0.0007470711470356
 50
335.82264052229812
 51
51.903227660778761
  0
ARC
  5
21FC
  8
0
 10
41.261805802361721
 20
15.964110867159651
 30
0.0
 40
0.0007381200219856
 50
155.67844446951469
 51
236.06095815482161
  0
ARC
  5
21FD
  8
0
 10
41.264956592546163
 20
15.960778422005211
 30
0.0
 40
0.0052765640306318
 50
95.293697394048266
 51
136.4356232497305
  0
ARC
  5
21FE
  8
0
 10
41.273487067526958
 20
15.92293131206142
 30
0.0
 40
0.0440343317509342
 50
87.833902223244607
 51
101.8165488396761
  0
ARC
  5
21FF
  8
0
 10
41.275293690040613
 20
15.930232572411899
 30
0.0
 40
0.0367018824119671
 50
74.180274212726744
 51
90.222100998977965
  0
ARC
  5
2200
  8
0
 10
41.276064275486434
 20
15.947425069264289
 30
0.0
 40
0.0203368860616276
 50
58.235653401316149
 51
62.993648572024057
  0
ARC
  5
2201
  8
0
 10
41.297630525277278
 20
15.949540817047041
 30
0.0
 40
0.0178089043483083
 50
126.6868204250915
 51
131.13430122705319
  0
ARC
  5
2202
  8
0
 10
41.278828176126751
 20
15.98054858649888
 30
0.0
 40
0.0189683845586316
 50
274.31669542959997
 51
291.9397504675315
  0
ARC
  5
2203
  8
0
 10
41.27419025593349
 20
16.01933603867025
 30
0.0
 40
0.0580199641103896
 50
263.52968214370242
 51
276.00091293887903
  0
ARC
  5
2204
  8
0
 10
41.268641621364061
 20
15.976810808687601
 30
0.0
 40
0.0151575036950003
 50
241.4338105451935
 51
266.25682361495501
  0
ARC
  5
2205
  8
0
 10
41.286309221396778
 20
15.96412798299829
 30
0.0
 40
0.0007470711470356
 50
335.82264052229812
 51
51.903227660778761
  0
ARC
  5
2206
  8
0
 10
41.289263548663058
 20
15.96185005661966
 30
0.0
 40
0.0007381200219856
 50
155.67844446951469
 51
236.06095815482161
  0
ARC
  5
2207
  8
0
 10
41.2924143388475
 20
15.95851761146522
 30
0.0
 40
0.0052765640306318
 50
95.293697394048266
 51
136.4356232497305
  0
ARC
  5
2208
  8
0
 10
41.300944813828309
 20
15.920670501521441
 30
0.0
 40
0.0440343317509342
 50
87.833902223244607
 51
101.8165488396761
  0
ARC
  5
2209
  8
0
 10
41.302751436341957
 20
15.927971761871911
 30
0.0
 40
0.0367018824119671
 50
74.180274212726744
 51
90.222100998977965
  0
ARC
  5
220A
  8
0
 10
41.303522021787771
 20
15.945164258724301
 30
0.0
 40
0.0203368860616276
 50
58.235653401316149
 51
62.993648572024057
  0
ARC
  5
220B
  8
0
 10
41.325088271578622
 20
15.947280006507061
 30
0.0
 40
0.0178089043483083
 50
126.6868204250915
 51
131.13430122705319
  0
ARC
  5
220C
  8
0
 10
41.306285922428103
 20
15.97828777595889
 30
0.0
 40
0.0189683845586316
 50
274.31669542959997
 51
291.9397504675315
  0
ARC
  5
220D
  8
0
 10
41.301648002234828
 20
16.01707522813027
 30
0.0
 40
0.0580199641103896
 50
263.52968214370242
 51
276.00091293887903
  0
ARC
  5
220E
  8
0
 10
41.296099367665413
 20
15.97454999814761
 30
0.0
 40
0.0151575036950003
 50
241.4338105451935
 51
266.25682361495501
  0
ARC
  5
220F
  8
0
 10
41.313766967698122
 20
15.9618671724583
 30
0.0
 40
0.0007470711470356
 50
335.82264052229812
 51
51.903227660778761
  0
ARC
  5
2210
  8
0
 10
41.317806522573768
 20
15.96061995610034
 30
0.0
 40
0.0007381200219856
 50
155.67844446951469
 51
236.06095815482161
  0
ARC
  5
2211
  8
0
 10
41.320957312758203
 20
15.9572875109459
 30
0.0
 40
0.0052765640306318
 50
95.293697394048266
 51
136.4356232497305
  0
ARC
  5
2212
  8
0
 10
41.329487787739012
 20
15.91944040100211
 30
0.0
 40
0.0440343317509342
 50
87.833902223244607
 51
101.8165488396761
  0
ARC
  5
2213
  8
0
 10
41.33129441025266
 20
15.92674166135258
 30
0.0
 40
0.0367018824119671
 50
74.180274212726744
 51
90.222100998977965
  0
ARC
  5
2214
  8
0
 10
41.332064995698481
 20
15.94393415820497
 30
0.0
 40
0.0203368860616276
 50
58.235653401316149
 51
62.993648572024057
  0
ARC
  5
2215
  8
0
 10
41.353631245489318
 20
15.94604990598773
 30
0.0
 40
0.0178089043483083
 50
126.6868204250915
 51
131.13430122705319
  0
ARC
  5
2216
  8
0
 10
41.334828896338813
 20
15.977057675439569
 30
0.0
 40
0.0189683845586316
 50
274.31669542959997
 51
291.9397504675315
  0
ARC
  5
2217
  8
0
 10
41.330190976145531
 20
16.015845127610941
 30
0.0
 40
0.0580199641103896
 50
263.52968214370242
 51
276.00091293887903
  0
ARC
  5
2218
  8
0
 10
41.324642341576123
 20
15.973319897628279
 30
0.0
 40
0.0151575036950003
 50
241.4338105451935
 51
266.25682361495501
  0
ARC
  5
2219
  8
0
 10
41.342309941608832
 20
15.960637071938971
 30
0.0
 40
0.0007470711470356
 50
335.82264052229812
 51
51.903227660778761
  0
ARC
  5
221A
  8
0
 10
41.346944888160401
 20
15.96031355726428
 30
0.0
 40
0.0007381200219856
 50
155.67844446951469
 51
236.06095815482161
  0
ARC
  5
221B
  8
0
 10
41.350095678344843
 20
15.95698111210984
 30
0.0
 40
0.0052765640306318
 50
95.293697394048266
 51
136.4356232497305
  0
ARC
  5
221C
  8
0
 10
41.358626153325638
 20
15.91913400216605
 30
0.0
 40
0.0440343317509342
 50
87.833902223244607
 51
101.8165488396761
  0
ARC
  5
221D
  8
0
 10
41.360432775839293
 20
15.926435262516531
 30
0.0
 40
0.0367018824119671
 50
74.180274212726744
 51
90.222100998977965
  0
ARC
  5
221E
  8
0
 10
41.361203361285121
 20
15.943627759368921
 30
0.0
 40
0.0203368860616276
 50
58.235653401316149
 51
62.993648572024057
  0
ARC
  5
221F
  8
0
 10
41.382769611075958
 20
15.94574350715167
 30
0.0
 40
0.0178089043483083
 50
126.6868204250915
 51
131.13430122705319
  0
ARC
  5
2220
  8
0
 10
41.363967261925431
 20
15.97675127660351
 30
0.0
 40
0.0189683845586316
 50
274.31669542959997
 51
291.9397504675315
  0
ARC
  5
2221
  8
0
 10
41.35932934173217
 20
16.015538728774882
 30
0.0
 40
0.0580199641103896
 50
263.52968214370242
 51
276.00091293887903
  0
ARC
  5
2222
  8
0
 10
41.353780707162748
 20
15.973013498792231
 30
0.0
 40
0.0151575036950003
 50
241.4338105451935
 51
266.25682361495501
  0
ARC
  5
2223
  8
0
 10
41.371448307195458
 20
15.960330673102909
 30
0.0
 40
0.0007470711470356
 50
335.82264052229812
 51
51.903227660778761
  0
ARC
  5
2224
  8
0
 10
41.375943378493687
 20
15.96049764372483
 30
0.0
 40
0.0007381200219856
 50
155.67844446951469
 51
236.06095815482161
  0
ARC
  5
2225
  8
0
 10
41.37909416867813
 20
15.95716519857039
 30
0.0
 40
0.0052765640306318
 50
95.293697394048266
 51
136.4356232497305
  0
ARC
  5
2226
  8
0
 10
41.387624643658938
 20
15.9193180886266
 30
0.0
 40
0.0440343317509342
 50
87.833902223244607
 51
101.8165488396761
  0
ARC
  5
2227
  8
0
 10
41.389431266172579
 20
15.92661934897707
 30
0.0
 40
0.0367018824119671
 50
74.180274212726744
 51
90.222100998977965
  0
ARC
  5
2228
  8
0
 10
41.3902018516184
 20
15.94381184582946
 30
0.0
 40
0.0203368860616276
 50
58.235653401316149
 51
62.993648572024057
  0
ARC
  5
2229
  8
0
 10
41.411768101409251
 20
15.94592759361222
 30
0.0
 40
0.0178089043483083
 50
126.6868204250915
 51
131.13430122705319
  0
ARC
  5
222A
  8
0
 10
41.392965752258732
 20
15.97693536306406
 30
0.0
 40
0.0189683845586316
 50
274.31669542959997
 51
291.9397504675315
  0
ARC
  5
222B
  8
0
 10
41.38832783206545
 20
16.015722815235431
 30
0.0
 40
0.0580199641103896
 50
263.52968214370242
 51
276.00091293887903
  0
ARC
  5
222C
  8
0
 10
41.382779197496042
 20
15.97319758525277
 30
0.0
 40
0.0151575036950003
 50
241.4338105451935
 51
266.25682361495501
  0
ARC
  5
222D
  8
0
 10
41.400446797528751
 20
15.960514759563461
 30
0.0
 40
0.0007470711470356
 50
335.82264052229812
 51
51.903227660778761
  0
ARC
  5
222E
  8
0
 10
41.404344029574602
 20
15.96190301328444
 30
0.0
 40
0.0007381200219856
 50
155.67844446951469
 51
236.06095815482161
  0
ARC
  5
222F
  8
0
 10
41.407494819759037
 20
15.95857056813
 30
0.0
 40
0.0052765640306318
 50
95.293697394048266
 51
136.4356232497305
  0
ARC
  5
2230
  8
0
 10
41.416025294739839
 20
15.92072345818621
 30
0.0
 40
0.0440343317509342
 50
87.833902223244607
 51
101.8165488396761
  0
ARC
  5
2231
  8
0
 10
41.417831917253487
 20
15.92802471853669
 30
0.0
 40
0.0367018824119671
 50
74.180274212726744
 51
90.222100998977965
  0
ARC
  5
2232
  8
0
 10
41.418602502699308
 20
15.94521721538908
 30
0.0
 40
0.0203368860616276
 50
58.235653401316149
 51
62.993648572024057
  0
ARC
  5
2233
  8
0
 10
41.440168752490159
 20
15.94733296317183
 30
0.0
 40
0.0178089043483083
 50
126.6868204250915
 51
131.13430122705319
  0
ARC
  5
2234
  8
0
 10
41.421366403339633
 20
15.978340732623669
 30
0.0
 40
0.0189683845586316
 50
274.31669542959997
 51
291.9397504675315
  0
ARC
  5
2235
  8
0
 10
41.416728483146372
 20
16.017128184795041
 30
0.0
 40
0.0580199641103896
 50
263.52968214370242
 51
276.00091293887903
  0
ARC
  5
2236
  8
0
 10
41.41117984857695
 20
15.974602954812379
 30
0.0
 40
0.0151575036950003
 50
241.4338105451935
 51
266.25682361495501
  0
ARC
  5
2237
  8
0
 10
41.428847448609673
 20
15.961920129123071
 30
0.0
 40
0.0007470711470356
 50
335.82264052229812
 51
51.903227660778761
  0
ARC
  5
2238
  8
0
 10
41.431933132708203
 20
15.96422482618965
 30
0.0
 40
0.0007381200219856
 50
155.67844446951469
 51
236.06095815482161
  0
ARC
  5
2239
  8
0
 10
41.43508392289263
 20
15.960892381035221
 30
0.0
 40
0.0052765640306318
 50
95.293697394048266
 51
136.4356232497305
  0
ARC
  5
223A
  8
0
 10
41.443614397873432
 20
15.92304527109143
 30
0.0
 40
0.0440343317509342
 50
87.833902223244607
 51
101.8165488396761
  0
ARC
  5
223B
  8
0
 10
41.44542102038708
 20
15.9303465314419
 30
0.0
 40
0.0367018824119671
 50
74.180274212726744
 51
90.222100998977965
  0
ARC
  5
223C
  8
0
 10
41.446191605832908
 20
15.94753902829429
 30
0.0
 40
0.0203368860616276
 50
58.235653401316149
 51
62.993648572024057
  0
ARC
  5
223D
  8
0
 10
41.467757855623752
 20
15.94965477607705
 30
0.0
 40
0.0178089043483083
 50
126.6868204250915
 51
131.13430122705319
  0
ARC
  5
223E
  8
0
 10
41.448955506473219
 20
15.98066254552889
 30
0.0
 40
0.0189683845586316
 50
274.31669542959997
 51
291.9397504675315
  0
ARC
  5
223F
  8
0
 10
41.444317586279951
 20
16.019449997700249
 30
0.0
 40
0.0580199641103896
 50
263.52968214370242
 51
276.00091293887903
  0
ARC
  5
2240
  8
0
 10
41.438768951710543
 20
15.9769247677176
 30
0.0
 40
0.0151575036950003
 50
241.4338105451935
 51
266.25682361495501
  0
ARC
  5
2241
  8
0
 10
41.456436551743252
 20
15.96424194202829
 30
0.0
 40
0.0007470711470356
 50
335.82264052229812
 51
51.903227660778761
  0
ARC
  5
2242
  8
0
 10
41.457642144419772
 20
15.966976314956201
 30
0.0
 40
0.0007381200219856
 50
155.67844446951469
 51
236.06095815482161
  0
ARC
  5
2243
  8
0
 10
41.460792934604207
 20
15.963643869801761
 30
0.0
 40
0.0052765640306318
 50
95.293697394048266
 51
136.4356232497305
  0
ARC
  5
2244
  8
0
 10
41.469323409585009
 20
15.92579675985797
 30
0.0
 40
0.0440343317509342
 50
87.833902223244607
 51
101.8165488396761
  0
ARC
  5
2245
  8
0
 10
41.471130032098657
 20
15.93309802020844
 30
0.0
 40
0.0367018824119671
 50
74.180274212726744
 51
90.222100998977965
  0
ARC
  5
2246
  8
0
 10
41.471900617544478
 20
15.95029051706083
 30
0.0
 40
0.0203368860616276
 50
58.235653401316149
 51
62.993648572024057
  0
ARC
  5
2247
  8
0
 10
41.493466867335322
 20
15.95240626484359
 30
0.0
 40
0.0178089043483083
 50
126.6868204250915
 51
131.13430122705319
  0
ARC
  5
2248
  8
0
 10
41.474664518184802
 20
15.98341403429543
 30
0.0
 40
0.0189683845586316
 50
274.31669542959997
 51
291.9397504675315
  0
ARC
  5
2249
  8
0
 10
41.470026597991541
 20
16.022201486466798
 30
0.0
 40
0.0580199641103896
 50
263.52968214370242
 51
276.00091293887903
  0
ARC
  5
224A
  8
0
 10
41.464477963422119
 20
15.97967625648414
 30
0.0
 40
0.0151575036950003
 50
241.4338105451935
 51
266.25682361495501
  0
ARC
  5
224B
  8
0
 10
41.482145563454829
 20
15.96699343079483
 30
0.0
 40
0.0007470711470356
 50
335.82264052229812
 51
51.903227660778761
  0
ARC
  5
224C
  8
0
 10
41.481308391724248
 20
15.97082579936788
 30
0.0
 40
0.0007381200219856
 50
155.67844446951469
 51
236.06095815482161
  0
ARC
  5
224D
  8
0
 10
41.48445918190869
 20
15.967493354213451
 30
0.0
 40
0.0052765640306318
 50
95.293697394048266
 51
136.4356232497305
  0
ARC
  5
224E
  8
0
 10
41.492989656889499
 20
15.92964624426966
 30
0.0
 40
0.0440343317509342
 50
87.833902223244607
 51
101.8165488396761
  0
ARC
  5
224F
  8
0
 10
41.494796279403147
 20
15.936947504620131
 30
0.0
 40
0.0367018824119671
 50
74.180274212726744
 51
90.222100998977965
  0
ARC
  5
2250
  8
0
 10
41.495566864848961
 20
15.954140001472521
 30
0.0
 40
0.0203368860616276
 50
58.235653401316149
 51
62.993648572024057
  0
ARC
  5
2251
  8
0
 10
41.517133114639812
 20
15.956255749255281
 30
0.0
 40
0.0178089043483083
 50
126.6868204250915
 51
131.13430122705319
  0
ARC
  5
2252
  8
0
 10
41.498330765489293
 20
15.98726351870712
 30
0.0
 40
0.0189683845586316
 50
274.31669542959997
 51
291.9397504675315
  0
ARC
  5
2253
  8
0
 10
41.493692845296017
 20
16.02605097087849
 30
0.0
 40
0.0580199641103896
 50
263.52968214370242
 51
276.00091293887903
  0
ARC
  5
2254
  8
0
 10
41.488144210726603
 20
15.98352574089583
 30
0.0
 40
0.0151575036950003
 50
241.4338105451935
 51
266.25682361495501
  0
ARC
  5
2255
  8
0
 10
41.505811810759312
 20
15.97084291520652
 30
0.0
 40
0.0007470711470356
 50
335.82264052229812
 51
51.903227660778761
  0
ARC
  5
2256
  8
0
 10
41.502190526159602
 20
15.97506033546434
 30
0.0
 40
0.0007381200219856
 50
155.67844446951469
 51
236.06095815482161
  0
ARC
  5
2257
  8
0
 10
41.505341316344037
 20
15.971727890309911
 30
0.0
 40
0.0052765640306318
 50
95.293697394048266
 51
136.4356232497305
  0
ARC
  5
2258
  8
0
 10
41.513871791324839
 20
15.93388078036612
 30
0.0
 40
0.0440343317509342
 50
87.833902223244607
 51
101.8165488396761
  0
ARC
  5
2259
  8
0
 10
41.515678413838486
 20
15.941182040716591
 30
0.0
 40
0.0367018824119671
 50
74.180274212726744
 51
90.222100998977965
  0
ARC
  5
225A
  8
0
 10
41.516448999284307
 20
15.958374537568981
 30
0.0
 40
0.0203368860616276
 50
58.235653401316149
 51
62.993648572024057
  0
ARC
  5
225B
  8
0
 10
41.538015249075158
 20
15.960490285351741
 30
0.0
 40
0.0178089043483083
 50
126.6868204250915
 51
131.13430122705319
  0
ARC
  5
225C
  8
0
 10
41.519212899924639
 20
15.99149805480358
 30
0.0
 40
0.0189683845586316
 50
274.31669542959997
 51
291.9397504675315
  0
ARC
  5
225D
  8
0
 10
41.514574979731371
 20
16.030285506974948
 30
0.0
 40
0.0580199641103896
 50
263.52968214370242
 51
276.00091293887903
  0
ARC
  5
225E
  8
0
 10
41.509026345161949
 20
15.98776027699229
 30
0.0
 40
0.0151575036950003
 50
241.4338105451935
 51
266.25682361495501
  0
ARC
  5
225F
  8
0
 10
41.526693945194658
 20
15.97507745130298
 30
0.0
 40
0.0007470711470356
 50
335.82264052229812
 51
51.903227660778761
  0
ARC
  5
2260
  8
0
 10
41.520249643017159
 20
15.98021024075585
 30
0.0
 40
0.0007381200219856
 50
155.67844446951469
 51
236.06095815482161
  0
ARC
  5
2261
  8
0
 10
41.523400433201608
 20
15.976877795601419
 30
0.0
 40
0.0052765640306318
 50
95.293697394048266
 51
136.4356232497305
  0
ARC
  5
2262
  8
0
 10
41.531930908182403
 20
15.939030685657629
 30
0.0
 40
0.0440343317509342
 50
87.833902223244607
 51
101.8165488396761
  0
ARC
  5
2263
  8
0
 10
41.533737530696051
 20
15.946331946008099
 30
0.0
 40
0.0367018824119671
 50
74.180274212726744
 51
90.222100998977965
  0
ARC
  5
2264
  8
0
 10
41.534508116141872
 20
15.963524442860489
 30
0.0
 40
0.0203368860616276
 50
58.235653401316149
 51
62.993648572024057
  0
ARC
  5
2265
  8
0
 10
41.556074365932723
 20
15.965640190643249
 30
0.0
 40
0.0178089043483083
 50
126.6868204250915
 51
131.13430122705319
  0
ARC
  5
2266
  8
0
 10
41.53727201678219
 20
15.996647960095091
 30
0.0
 40
0.0189683845586316
 50
274.31669542959997
 51
291.9397504675315
  0
ARC
  5
2267
  8
0
 10
41.532634096588929
 20
16.035435412266459
 30
0.0
 40
0.0580199641103896
 50
263.52968214370242
 51
276.00091293887903
  0
ARC
  5
2268
  8
0
 10
41.527085462019507
 20
15.992910182283801
 30
0.0
 40
0.0151575036950003
 50
241.4338105451935
 51
266.25682361495501
  0
ARC
  5
2269
  8
0
 10
41.54475306205223
 20
15.98022735659449
 30
0.0
 40
0.0007470711470356
 50
335.82264052229812
 51
51.903227660778761
  0
ARC
  5
226A
  8
0
 10
41.534751266287572
 20
15.985658207180879
 30
0.0
 40
0.0007381200219856
 50
155.67844446951469
 51
236.06095815482161
  0
ARC
  5
226B
  8
0
 10
41.537902056471999
 20
15.98232576202645
 30
0.0
 40
0.0052765640306318
 50
95.293697394048266
 51
136.4356232497305
  0
ARC
  5
226C
  8
0
 10
41.546432531452801
 20
15.94447865208266
 30
0.0
 40
0.0440343317509342
 50
87.833902223244607
 51
101.8165488396761
  0
ARC
  5
226D
  8
0
 10
41.548239153966449
 20
15.95177991243313
 30
0.0
 40
0.0367018824119671
 50
74.180274212726744
 51
90.222100998977965
  0
ARC
  5
226E
  8
0
 10
41.54900973941227
 20
15.96897240928552
 30
0.0
 40
0.0203368860616276
 50
58.235653401316149
 51
62.993648572024057
  0
ARC
  5
226F
  8
0
 10
41.570575989203121
 20
15.97108815706828
 30
0.0
 40
0.0178089043483083
 50
126.6868204250915
 51
131.13430122705319
  0
ARC
  5
2270
  8
0
 10
41.551773640052602
 20
16.00209592652012
 30
0.0
 40
0.0189683845586316
 50
274.31669542959997
 51
291.9397504675315
  0
ARC
  5
2271
  8
0
 10
41.547135719859327
 20
16.04088337869149
 30
0.0
 40
0.0580199641103896
 50
263.52968214370242
 51
276.00091293887903
  0
ARC
  5
2272
  8
0
 10
41.541587085289912
 20
15.99835814870883
 30
0.0
 40
0.0151575036950003
 50
241.4338105451935
 51
266.25682361495501
  0
ARC
  5
2273
  8
0
 10
41.559254685322621
 20
15.985675323019519
 30
0.0
 40
0.0007470711470356
 50
335.82264052229812
 51
51.903227660778761
  0
ARC
  5
2274
  8
0
 10
41.545703219664958
 20
15.991593134020141
 30
0.0
 40
0.0007381200219856
 50
155.67844446951469
 51
236.06095815482161
  0
ARC
  5
2275
  8
0
 10
41.5488540098494
 20
15.988260688865701
 30
0.0
 40
0.0052765640306318
 50
95.293697394048266
 51
136.4356232497305
  0
ARC
  5
2276
  8
0
 10
41.557384484830202
 20
15.950413578921911
 30
0.0
 40
0.0440343317509342
 50
87.833902223244607
 51
101.8165488396761
  0
ARC
  5
2277
  8
0
 10
41.559191107343857
 20
15.957714839272381
 30
0.0
 40
0.0367018824119671
 50
74.180274212726744
 51
90.222100998977965
  0
ARC
  5
2278
  8
0
 10
41.55996169278967
 20
15.974907336124771
 30
0.0
 40
0.0203368860616276
 50
58.235653401316149
 51
62.993648572024057
  0
ARC
  5
2279
  8
0
 10
41.581527942580522
 20
15.977023083907531
 30
0.0
 40
0.0178089043483083
 50
126.6868204250915
 51
131.13430122705319
  0
ARC
  5
227A
  8
0
 10
41.562725593430002
 20
16.008030853359369
 30
0.0
 40
0.0189683845586316
 50
274.31669542959997
 51
291.9397504675315
  0
ARC
  5
227B
  8
0
 10
41.558087673236727
 20
16.046818305530739
 30
0.0
 40
0.0580199641103896
 50
263.52968214370242
 51
276.00091293887903
  0
ARC
  5
227C
  8
0
 10
41.552539038667312
 20
16.00429307554808
 30
0.0
 40
0.0151575036950003
 50
241.4338105451935
 51
266.25682361495501
  0
ARC
  5
227D
  8
0
 10
41.570206638700022
 20
15.99161024985877
 30
0.0
 40
0.0007470711470356
 50
335.82264052229812
 51
51.903227660778761
  0
ARC
  5
227E
  8
0
 10
41.552984161073162
 20
15.9978373015015
 30
0.0
 40
0.0007381200219856
 50
155.67844446951469
 51
236.06095815482161
  0
ARC
  5
227F
  8
0
 10
41.556134951257597
 20
15.99450485634706
 30
0.0
 40
0.0052765640306318
 50
95.293697394048266
 51
136.4356232497305
  0
ARC
  5
2280
  8
0
 10
41.564665426238399
 20
15.95665774640328
 30
0.0
 40
0.0440343317509342
 50
87.833902223244607
 51
101.8165488396761
  0
ARC
  5
2281
  8
0
 10
41.566472048752047
 20
15.96395900675375
 30
0.0
 40
0.0367018824119671
 50
74.180274212726744
 51
90.222100998977965
  0
ARC
  5
2282
  8
0
 10
41.567242634197868
 20
15.98115150360614
 30
0.0
 40
0.0203368860616276
 50
58.235653401316149
 51
62.993648572024057
  0
ARC
  5
2283
  8
0
 10
41.588808883988712
 20
15.9832672513889
 30
0.0
 40
0.0178089043483083
 50
126.6868204250915
 51
131.13430122705319
  0
ARC
  5
2284
  8
0
 10
41.570006534838193
 20
16.014275020840739
 30
0.0
 40
0.0189683845586316
 50
274.31669542959997
 51
291.9397504675315
  0
ARC
  5
2285
  8
0
 10
41.565368614644917
 20
16.053062473012108
 30
0.0
 40
0.0580199641103896
 50
263.52968214370242
 51
276.00091293887903
  0
ARC
  5
2286
  8
0
 10
41.559819980075503
 20
16.01053724302945
 30
0.0
 40
0.0151575036950003
 50
241.4338105451935
 51
266.25682361495501
  0
ARC
  5
2287
  8
0
 10
41.577487580108219
 20
15.99785441734014
 30
0.0
 40
0.0007470711470356
 50
335.82264052229812
 51
51.903227660778761
  0
ARC
  5
2288
  8
0
 10
41.55585836399429
 20
16.004253108854321
 30
0.0
 40
0.0007381200219856
 50
155.67844446951469
 51
236.06095815482161
  0
ARC
  5
2289
  8
0
 10
41.559009154178717
 20
16.00092066369988
 30
0.0
 40
0.0052765640306318
 50
95.293697394048266
 51
136.4356232497305
  0
ARC
  5
228A
  8
0
 10
41.567539629159519
 20
15.9630735537561
 30
0.0
 40
0.0440343317509342
 50
87.833902223244607
 51
101.8165488396761
  0
ARC
  5
228B
  8
0
 10
41.569346251673167
 20
15.97037481410657
 30
0.0
 40
0.0367018824119671
 50
74.180274212726744
 51
90.222100998977965
  0
ARC
  5
228C
  8
0
 10
41.570116837119002
 20
15.98756731095896
 30
0.0
 40
0.0203368860616276
 50
58.235653401316149
 51
62.993648572024057
  0
ARC
  5
228D
  8
0
 10
41.591683086909839
 20
15.98968305874172
 30
0.0
 40
0.0178089043483083
 50
126.6868204250915
 51
131.13430122705319
  0
ARC
  5
228E
  8
0
 10
41.57288073775932
 20
16.020690828193558
 30
0.0
 40
0.0189683845586316
 50
274.31669542959997
 51
291.9397504675315
  0
ARC
  5
228F
  8
0
 10
41.568242817566052
 20
16.059478280364932
 30
0.0
 40
0.0580199641103896
 50
263.52968214370242
 51
276.00091293887903
  0
ARC
  5
2290
  8
0
 10
41.562694182996637
 20
16.01695305038227
 30
0.0
 40
0.0151575036950003
 50
241.4338105451935
 51
266.25682361495501
  0
ARC
  5
2291
  8
0
 10
41.580361783029353
 20
16.004270224692959
 30
0.0
 40
0.0007470711470356
 50
335.82264052229812
 51
51.903227660778761
  0
ARC
  5
2292
  8
0
 10
41.554818464645741
 20
16.01037241937054
 30
0.0
 40
0.0007381200219856
 50
155.67844446951469
 51
236.06095815482161
  0
ARC
  5
2293
  8
0
 10
41.557969254830191
 20
16.007039974216099
 30
0.0
 40
0.0052765640306318
 50
95.293697394048266
 51
136.4356232497305
  0
ARC
  5
2294
  8
0
 10
41.566499729810992
 20
15.96919286427231
 30
0.0
 40
0.0440343317509342
 50
87.833902223244607
 51
101.8165488396761
  0
ARC
  5
2295
  8
0
 10
41.56830635232464
 20
15.976494124622789
 30
0.0
 40
0.0367018824119671
 50
74.180274212726744
 51
90.222100998977965
  0
ARC
  5
2296
  8
0
 10
41.569076937770447
 20
15.993686621475179
 30
0.0
 40
0.0203368860616276
 50
58.235653401316149
 51
62.993648572024057
  0
ARC
  5
2297
  8
0
 10
41.590643187561312
 20
15.99580236925793
 30
0.0
 40
0.0178089043483083
 50
126.6868204250915
 51
131.13430122705319
  0
ARC
  5
2298
  8
0
 10
41.571840838410779
 20
16.02681013870977
 30
0.0
 40
0.0189683845586316
 50
274.31669542959997
 51
291.9397504675315
  0
ARC
  5
2299
  8
0
 10
41.567202918217511
 20
16.06559759088114
 30
0.0
 40
0.0580199641103896
 50
263.52968214370242
 51
276.00091293887903
  0
ARC
  5
229A
  8
0
 10
41.561654283648089
 20
16.023072360898482
 30
0.0
 40
0.0151575036950003
 50
241.4338105451935
 51
266.25682361495501
  0
ARC
  5
229B
  8
0
 10
41.579321883680812
 20
16.010389535209171
 30
0.0
 40
0.0007470711470356
 50
335.82264052229812
 51
51.903227660778761
  0
ARC
  5
229C
  8
0
 10
41.549803615635689
 20
16.016856784642659
 30
0.0
 40
0.0007381200219856
 50
155.67844446951469
 51
236.06095815482161
  0
ARC
  5
229D
  8
0
 10
41.552954405820131
 20
16.013524339488232
 30
0.0
 40
0.0052765640306318
 50
95.293697394048266
 51
136.4356232497305
  0
ARC
  5
229E
  8
0
 10
41.561484880800933
 20
15.97567722954444
 30
0.0
 40
0.0440343317509342
 50
87.833902223244607
 51
101.8165488396761
  0
ARC
  5
229F
  8
0
 10
41.563291503314566
 20
15.98297848989491
 30
0.0
 40
0.0367018824119671
 50
89.108195537245791
 51
90.222100998977965
  0
ARC
  5
22A0
  8
0
 10
41.564062088760402
 20
16.0001709867473
 30
0.0
 40
0.0203368860616276
 50
58.235653401316149
 51
60.82427837596439
  0
ARC
  5
22A1
  8
0
 10
41.585628338551238
 20
16.00228673453006
 30
0.0
 40
0.0178089043483083
 50
126.6868204250915
 51
131.13430122705319
  0
ARC
  5
22A2
  8
0
 10
41.566825989400719
 20
16.033294503981899
 30
0.0
 40
0.0189683845586316
 50
274.31669542959997
 51
291.9397504675315
  0
ARC
  5
22A3
  8
0
 10
41.562188069207458
 20
16.072081956153269
 30
0.0
 40
0.0580199641103896
 50
263.52968214370242
 51
276.00091293887903
  0
ARC
  5
22A4
  8
0
 10
41.556639434638043
 20
16.029556726170611
 30
0.0
 40
0.0151575036950003
 50
241.4338105451935
 51
266.25682361495501
  0
ARC
  5
22A5
  8
0
 10
41.574307034670753
 20
16.016873900481301
 30
0.0
 40
0.0007470711470356
 50
335.82264052229812
 51
51.903227660778761
  0
ARC
  5
22A6
  8
0
 10
41.540630654878321
 20
16.02290597294266
 30
0.0
 40
0.0007381200219856
 50
155.67844446951469
 51
236.06095815482161
  0
ARC
  5
22A7
  8
0
 10
41.54378144506277
 20
16.019573527788221
 30
0.0
 40
0.0052765640306318
 50
134.1419587294784
 51
136.4356232497305
  0
ARC
  5
22AC
  8
0
 10
41.557653028643358
 20
16.039343692281889
 30
0.0
 40
0.0189683845586316
 50
274.31669542959997
 51
274.76646681585129
  0
ARC
  5
22AD
  8
0
 10
41.55301510845009
 20
16.078131144453259
 30
0.0
 40
0.0580199641103896
 50
263.52968214370242
 51
276.00091293887903
  0
ARC
  5
22AE
  8
0
 10
41.547466473880668
 20
16.035605914470601
 30
0.0
 40
0.0151575036950003
 50
241.4338105451935
 51
266.25682361495501
  0
ARC
  5
22F2
  8
0
 10
41.606434840915732
 20
15.973139911808889
 30
0.0
 40
0.0297859100132095
 50
25.167795528006891
 51
59.347956720637796
  0
ARC
  5
22F3
  8
0
 10
41.498772358588731
 20
16.022606108933111
 30
0.0
 40
0.0006638580782373
 50
133.05548783862099
 51
220.2499181462683
  0
ARC
  5
22F4
  8
0
 10
41.502708986367892
 20
16.017381705346772
 30
0.0
 40
0.0072020084572484
 50
96.730782179992374
 51
127.55560360247389
  0
ARC
  5
22F5
  8
0
 10
41.509750615632768
 20
15.98386492827631
 30
0.0
 40
0.0414266149654034
 50
88.807991166337374
 51
100.9734633497665
  0
ARC
  5
22F6
  8
0
 10
41.5110642097425
 20
15.9789630326494
 30
0.0
 40
0.0463217488139027
 50
79.587482346552946
 51
90.558833410978508
  0
ARC
  5
22F7
  8
0
 10
36.370975828417222
 20
-1.1782374634931541
 30
0.0
 40
17.956658237422701
 50
73.330813892773435
 51
73.338553590646526
  0
LINE
  5
22F8
  8
0
 10
41.521759882896859
 20
16.023826327799998
 30
0.0
 11
41.522978561396862
 21
16.023000677500001
 31
0.0
  0
ARC
  5
22F9
  8
0
 10
41.522431128275677
 20
16.022586409452561
 30
0.0
 40
0.0006865136832491
 50
318.71679747654628
 51
37.116483614793538
  0
LINE
  5
22FA
  8
0
 10
41.522947014196859
 20
16.02213346049999
 30
0.0
 11
41.521696079396847
 21
16.021323569500002
 31
0.0
  0
LINE
  5
22FB
  8
0
 10
41.521696079396847
 20
16.021323569500002
 30
0.0
 11
41.519379722596867
 21
16.020642705299998
 31
0.0
  0
ARC
  5
22FC
  8
0
 10
41.511579686074001
 20
16.06031031186491
 30
0.0
 40
0.0404272133636075
 50
268.65703091970198
 51
281.12442359634969
  0
ARC
  5
22FD
  8
0
 10
41.509661006774138
 20
16.06018854344164
 30
0.0
 40
0.0403060420530967
 50
258.76563643442358
 51
271.38068162415209
  0
LINE
  5
22FF
  8
0
 10
41.499484719796861
 20
16.0213504538
 30
0.0
 11
41.50180847679686
 21
16.020654826200001
 31
0.0
  0
LINE
  5
2300
  8
0
 10
41.499484719796861
 20
16.0213504538
 30
0.0
 11
41.498265679935308
 21
16.02217717503353
 31
0.0
  0
ARC
  5
2301
  8
0
 10
41.508906293646483
 20
16.017188017682258
 30
0.0
 40
0.0006638580782373
 50
133.05548783862099
 51
220.2499181462683
  0
ARC
  5
2302
  8
0
 10
41.512842921425651
 20
16.011963614095919
 30
0.0
 40
0.0072020084572484
 50
96.730782179992374
 51
127.55560360247389
  0
ARC
  5
2303
  8
0
 10
41.51988455069052
 20
15.978446837025469
 30
0.0
 40
0.0414266149654034
 50
88.807991166337374
 51
100.9734633497665
  0
ARC
  5
2304
  8
0
 10
41.521198144800259
 20
15.97354494139856
 30
0.0
 40
0.0463217488139027
 50
79.587482346552946
 51
90.558833410978508
  0
ARC
  5
2305
  8
0
 10
36.381109763474981
 20
-1.1836555547439991
 30
0.0
 40
17.956658237422701
 50
73.330813892773435
 51
73.338553590646526
  0
LINE
  5
2306
  8
0
 10
41.531893817954618
 20
16.018408236549149
 30
0.0
 11
41.533112496454621
 21
16.017582586249151
 31
0.0
  0
ARC
  5
2307
  8
0
 10
41.532565063333443
 20
16.017168318201708
 30
0.0
 40
0.0006865136832491
 50
318.71679747654628
 51
37.116483614793538
  0
LINE
  5
2308
  8
0
 10
41.533080949254618
 20
16.016715369249141
 30
0.0
 11
41.531830014454613
 21
16.015905478249149
 31
0.0
  0
LINE
  5
2309
  8
0
 10
41.531830014454613
 20
16.015905478249149
 30
0.0
 11
41.529513657654618
 21
16.015224614049149
 31
0.0
  0
ARC
  5
230A
  8
0
 10
41.521713621131752
 20
16.054892220614061
 30
0.0
 40
0.0404272133636075
 50
268.65703091970198
 51
281.12442359634969
  0
ARC
  5
230B
  8
0
 10
41.519794941831897
 20
16.054770452190791
 30
0.0
 40
0.0403060420530967
 50
258.76563643442358
 51
271.38068162415209
  0
LINE
  5
230C
  8
0
 10
41.50961865485462
 20
16.015932362549151
 30
0.0
 11
41.511942411854619
 21
16.015236734949148
 31
0.0
  0
LINE
  5
230D
  8
0
 10
41.50961865485462
 20
16.015932362549151
 30
0.0
 11
41.508399614993067
 21
16.016759083782681
 31
0.0
  0
ARC
  5
230E
  8
0
 10
41.515131432083919
 20
16.011663569540762
 30
0.0
 40
0.0006638580782373
 50
133.05548783862099
 51
220.2499181462683
  0
ARC
  5
230F
  8
0
 10
41.519068059863081
 20
16.006439165954419
 30
0.0
 40
0.0072020084572484
 50
96.730782179992374
 51
127.55560360247389
  0
ARC
  5
2310
  8
0
 10
41.526109689127949
 20
15.972922388883971
 30
0.0
 40
0.0414266149654034
 50
88.807991166337374
 51
100.9734633497665
  0
ARC
  5
2311
  8
0
 10
41.527423283237681
 20
15.968020493257059
 30
0.0
 40
0.0463217488139027
 50
79.587482346552946
 51
90.558833410978508
  0
ARC
  5
2312
  8
0
 10
36.387334901912411
 20
-1.1891800028854991
 30
0.0
 40
17.956658237422701
 50
73.330813892773435
 51
73.338553590646526
  0
LINE
  5
2313
  8
0
 10
41.538118956392033
 20
16.012883788407649
 30
0.0
 11
41.539337634892043
 21
16.012058138107651
 31
0.0
  0
ARC
  5
2314
  8
0
 10
41.538790201770873
 20
16.011643870060212
 30
0.0
 40
0.0006865136832491
 50
318.71679747654628
 51
37.116483614793538
  0
LINE
  5
2315
  8
0
 10
41.539306087692033
 20
16.011190921107652
 30
0.0
 11
41.538055152892042
 21
16.010381030107649
 31
0.0
  0
LINE
  5
2316
  8
0
 10
41.538055152892042
 20
16.010381030107649
 30
0.0
 11
41.535738796092041
 21
16.009700165907649
 31
0.0
  0
ARC
  5
2317
  8
0
 10
41.527938759569182
 20
16.049367772472561
 30
0.0
 40
0.0404272133636075
 50
268.65703091970198
 51
281.12442359634969
  0
ARC
  5
2318
  8
0
 10
41.526020080269319
 20
16.049246004049291
 30
0.0
 40
0.0403060420530967
 50
258.76563643442358
 51
271.38068162415209
  0
LINE
  5
2319
  8
0
 10
41.515843793292049
 20
16.010407914407651
 30
0.0
 11
41.518167550292041
 21
16.009712286807648
 31
0.0
  0
LINE
  5
231A
  8
0
 10
41.515843793292049
 20
16.010407914407651
 30
0.0
 11
41.514624753430482
 21
16.011234635641191
 31
0.0
  0
ARC
  5
231B
  8
0
 10
41.517264906766208
 20
16.005623736504049
 30
0.0
 40
0.0006638580782373
 50
133.05548783862099
 51
220.2499181462683
  0
ARC
  5
231C
  8
0
 10
41.521201534545369
 20
16.000399332917709
 30
0.0
 40
0.0072020084572484
 50
96.730782179992374
 51
127.55560360247389
  0
ARC
  5
231D
  8
0
 10
41.528243163810238
 20
15.966882555847249
 30
0.0
 40
0.0414266149654034
 50
88.807991166337374
 51
100.9734633497665
  0
ARC
  5
231E
  8
0
 10
41.52955675791997
 20
15.96198066022035
 30
0.0
 40
0.0463217488139027
 50
79.587482346552946
 51
90.558833410978508
  0
ARC
  5
231F
  8
0
 10
36.389468376594699
 20
-1.1952198359222119
 30
0.0
 40
17.956658237422701
 50
73.330813892773435
 51
73.338553590646526
  0
LINE
  5
2320
  8
0
 10
41.540252431074329
 20
16.00684395537094
 30
0.0
 11
41.541471109574339
 21
16.006018305070938
 31
0.0
  0
ARC
  5
2321
  8
0
 10
41.540923676453161
 20
16.005604037023499
 30
0.0
 40
0.0006865136832491
 50
318.71679747654628
 51
37.116483614793538
  0
LINE
  5
2322
  8
0
 10
41.541439562374329
 20
16.005151088070932
 30
0.0
 11
41.540188627574338
 21
16.004341197070939
 31
0.0
  0
LINE
  5
2323
  8
0
 10
41.540188627574338
 20
16.004341197070939
 30
0.0
 11
41.537872270774329
 21
16.00366033287094
 31
0.0
  0
ARC
  5
2324
  8
0
 10
41.530072234251477
 20
16.043327939435851
 30
0.0
 40
0.0404272133636075
 50
268.65703091970198
 51
281.12442359634969
  0
ARC
  5
2325
  8
0
 10
41.528153554951608
 20
16.043206171012582
 30
0.0
 40
0.0403060420530967
 50
258.76563643442358
 51
271.38068162415209
  0
LINE
  5
2326
  8
0
 10
41.517977267974331
 20
16.004368081370941
 30
0.0
 11
41.52030102497433
 21
16.003672453770939
 31
0.0
  0
LINE
  5
2327
  8
0
 10
41.517977267974331
 20
16.004368081370941
 30
0.0
 11
41.516758228112778
 21
16.005194802604471
 31
0.0
  0
ARC
  5
2328
  8
0
 10
41.515220329185119
 20
15.999850357757319
 30
0.0
 40
0.0006638580782373
 50
133.05548783862099
 51
220.2499181462683
  0
ARC
  5
2329
  8
0
 10
41.519156956964281
 20
15.99462595417098
 30
0.0
 40
0.0072020084572484
 50
96.730782179992374
 51
127.55560360247389
  0
ARC
  5
232A
  8
0
 10
41.52619858622915
 20
15.96110917710053
 30
0.0
 40
0.0414266149654034
 50
88.807991166337374
 51
100.9734633497665
  0
ARC
  5
232B
  8
0
 10
41.527512180338881
 20
15.95620728147362
 30
0.0
 40
0.0463217488139027
 50
79.587482346552946
 51
90.558833410978508
  0
ARC
  5
232C
  8
0
 10
36.387423799013611
 20
-1.200993214668937
 30
0.0
 40
17.956658237422701
 50
73.330813892773435
 51
73.338553590646526
  0
LINE
  5
232D
  8
0
 10
41.53820785349324
 20
16.001070576624208
 30
0.0
 11
41.539426531993243
 21
16.000244926324221
 31
0.0
  0
ARC
  5
232E
  8
0
 10
41.538879098872073
 20
15.999830658276769
 30
0.0
 40
0.0006865136832491
 50
318.71679747654628
 51
37.116483614793538
  0
LINE
  5
232F
  8
0
 10
41.539394984793233
 20
15.999377709324211
 30
0.0
 11
41.538144049993242
 21
15.99856781832422
 31
0.0
  0
LINE
  5
2330
  8
0
 10
41.538144049993242
 20
15.99856781832422
 30
0.0
 11
41.535827693193241
 21
15.99788695412421
 31
0.0
  0
ARC
  5
2331
  8
0
 10
41.528027656670382
 20
16.037554560689131
 30
0.0
 40
0.0404272133636075
 50
268.65703091970198
 51
281.12442359634969
  0
ARC
  5
2332
  8
0
 10
41.526108977370519
 20
16.03743279226585
 30
0.0
 40
0.0403060420530967
 50
258.76563643442358
 51
271.38068162415209
  0
LINE
  5
2333
  8
0
 10
41.515932690393242
 20
15.998594702624221
 30
0.0
 11
41.518256447393242
 21
15.997899075024209
 31
0.0
  0
LINE
  5
2334
  8
0
 10
41.515932690393242
 20
15.998594702624221
 30
0.0
 11
41.514713650531682
 21
15.999421423857751
 31
0.0
  0
ARC
  5
2335
  8
0
 10
41.509272659709872
 20
15.994336906113301
 30
0.0
 40
0.0006638580782373
 50
133.05548783862099
 51
220.2499181462683
  0
ARC
  5
2336
  8
0
 10
41.51320928748904
 20
15.989112502526959
 30
0.0
 40
0.0072020084572484
 50
96.730782179992374
 51
127.55560360247389
  0
ARC
  5
2337
  8
0
 10
41.520250916753909
 20
15.955595725456501
 30
0.0
 40
0.0414266149654034
 50
88.807991166337374
 51
100.9734633497665
  0
ARC
  5
2338
  8
0
 10
41.521564510863648
 20
15.950693829829589
 30
0.0
 40
0.0463217488139027
 50
79.587482346552946
 51
90.558833410978508
  0
ARC
  5
2339
  8
0
 10
36.38147612953837
 20
-1.206506666312964
 30
0.0
 40
17.956658237422701
 50
73.330813892773435
 51
73.338553590646526
  0
LINE
  5
233A
  8
0
 10
41.532260184018007
 20
15.99555712498019
 30
0.0
 11
41.533478862518002
 21
15.99473147468019
 31
0.0
  0
ARC
  5
233B
  8
0
 10
41.532931429396832
 20
15.994317206632751
 30
0.0
 40
0.0006865136832491
 50
318.71679747654628
 51
37.116483614793538
  0
LINE
  5
233C
  8
0
 10
41.533447315318007
 20
15.99386425768018
 30
0.0
 11
41.532196380518002
 21
15.993054366680189
 31
0.0
  0
LINE
  5
233D
  8
0
 10
41.532196380518002
 20
15.993054366680189
 30
0.0
 11
41.529880023718007
 21
15.99237350248019
 31
0.0
  0
ARC
  5
233E
  8
0
 10
41.522079987195127
 20
16.0320411090451
 30
0.0
 40
0.0404272133636075
 50
268.65703091970198
 51
281.12442359634969
  0
ARC
  5
233F
  8
0
 10
41.520161307895293
 20
16.031919340621819
 30
0.0
 40
0.0403060420530967
 50
258.76563643442358
 51
271.38068162415209
  0
LINE
  5
2340
  8
0
 10
41.509985020918009
 20
15.99308125098019
 30
0.0
 11
41.512308777918001
 21
15.99238562338018
 31
0.0
  0
LINE
  5
2341
  8
0
 10
41.509985020918009
 20
15.99308125098019
 30
0.0
 11
41.508765981056463
 21
15.993907972213719
 31
0.0
  0
ARC
  5
2342
  8
0
 10
41.498725085548301
 20
15.98897836638092
 30
0.0
 40
0.0006638580782373
 50
133.05548783862099
 51
220.2499181462683
  0
ARC
  5
2343
  8
0
 10
41.502661713327463
 20
15.98375396279458
 30
0.0
 40
0.0072020084572484
 50
96.730782179992374
 51
127.55560360247389
  0
ARC
  5
2344
  8
0
 10
41.509703342592331
 20
15.950237185724131
 30
0.0
 40
0.0414266149654034
 50
88.807991166337374
 51
100.9734633497665
  0
ARC
  5
2345
  8
0
 10
41.511016936702063
 20
15.945335290097219
 30
0.0
 40
0.0463217488139027
 50
79.587482346552946
 51
90.558833410978508
  0
ARC
  5
2346
  8
0
 10
36.370928555376793
 20
-1.2118652060453381
 30
0.0
 40
17.956658237422701
 50
73.330813892773435
 51
73.338553590646526
  0
LINE
  5
2347
  8
0
 10
41.521712609856422
 20
15.990198585247811
 30
0.0
 11
41.522931288356418
 21
15.989372934947809
 31
0.0
  0
ARC
  5
2348
  8
0
 10
41.522383855235248
 20
15.98895866690037
 30
0.0
 40
0.0006865136832491
 50
318.71679747654628
 51
37.116483614793538
  0
LINE
  5
2349
  8
0
 10
41.522899741156422
 20
15.98850571794781
 30
0.0
 11
41.521648806356417
 21
15.987695826947821
 31
0.0
  0
LINE
  5
234A
  8
0
 10
41.521648806356417
 20
15.987695826947821
 30
0.0
 11
41.519332449556423
 21
15.987014962747811
 31
0.0
  0
ARC
  5
234B
  8
0
 10
41.511532413033557
 20
16.026682569312719
 30
0.0
 40
0.0404272133636075
 50
268.65703091970198
 51
281.12442359634969
  0
ARC
  5
234C
  8
0
 10
41.509613733733708
 20
16.026560800889449
 30
0.0
 40
0.0403060420530967
 50
258.76563643442358
 51
271.38068162415209
  0
LINE
  5
234D
  8
0
 10
41.499437446756431
 20
15.987722711247811
 30
0.0
 11
41.501761203756423
 21
15.98702708364781
 31
0.0
  0
LINE
  5
234E
  8
0
 10
41.499437446756431
 20
15.987722711247811
 30
0.0
 11
41.498218406894871
 21
15.988549432481349
 31
0.0
  0
ARC
  5
234F
  8
0
 10
41.484882836902159
 20
15.98402274448056
 30
0.0
 40
0.0006638580782373
 50
133.05548783862099
 51
220.2499181462683
  0
ARC
  5
2350
  8
0
 10
41.48881946468132
 20
15.978798340894221
 30
0.0
 40
0.0072020084572484
 50
96.730782179992374
 51
127.55560360247389
  0
ARC
  5
2351
  8
0
 10
41.495861093946203
 20
15.945281563823761
 30
0.0
 40
0.0414266149654034
 50
88.807991166337374
 51
100.9734633497665
  0
ARC
  5
2352
  8
0
 10
41.497174688055928
 20
15.94037966819686
 30
0.0
 40
0.0463217488139027
 50
79.587482346552946
 51
90.558833410978508
  0
ARC
  5
2353
  8
0
 10
36.357086306730658
 20
-1.2168208279457009
 30
0.0
 40
17.956658237422701
 50
73.330813892773435
 51
73.338553590646526
  0
LINE
  5
2354
  8
0
 10
41.507870361210287
 20
15.985242963347449
 30
0.0
 11
41.50908903971029
 21
15.98441731304745
 31
0.0
  0
ARC
  5
2355
  8
0
 10
41.508541606589112
 20
15.98400304500001
 30
0.0
 40
0.0006865136832491
 50
318.71679747654628
 51
37.116483614793538
  0
LINE
  5
2356
  8
0
 10
41.509057492510287
 20
15.98355009604745
 30
0.0
 11
41.507806557710289
 21
15.982740205047451
 31
0.0
  0
LINE
  5
2357
  8
0
 10
41.507806557710289
 20
15.982740205047451
 30
0.0
 11
41.505490200910288
 21
15.982059340847449
 31
0.0
  0
ARC
  5
2358
  8
0
 10
41.497690164387429
 20
16.021726947412361
 30
0.0
 40
0.0404272133636075
 50
268.65703091970198
 51
281.12442359634969
  0
ARC
  5
2359
  8
0
 10
41.495771485087573
 20
16.021605178989091
 30
0.0
 40
0.0403060420530967
 50
258.76563643442358
 51
271.38068162415209
  0
LINE
  5
235A
  8
0
 10
41.485595198110289
 20
15.982767089347449
 30
0.0
 11
41.487918955110288
 21
15.98207146174745
 31
0.0
  0
LINE
  5
235B
  8
0
 10
41.485595198110289
 20
15.982767089347449
 30
0.0
 11
41.484376158248743
 21
15.983593810580979
 31
0.0
  0
ARC
  5
235C
  8
0
 10
41.46750930700108
 20
15.97953211215021
 30
0.0
 40
0.0006638580782373
 50
133.05548783862099
 51
220.2499181462683
  0
ARC
  5
235D
  8
0
 10
41.471445934780242
 20
15.97430770856387
 30
0.0
 40
0.0072020084572484
 50
96.730782179992374
 51
127.55560360247389
  0
ARC
  5
235E
  8
0
 10
41.478487564045132
 20
15.940790931493421
 30
0.0
 40
0.0414266149654034
 50
88.807991166337374
 51
100.9734633497665
  0
ARC
  5
235F
  8
0
 10
41.479801158154842
 20
15.935889035866509
 30
0.0
 40
0.0463217488139027
 50
79.587482346552946
 51
90.558833410978508
  0
ARC
  5
2360
  8
0
 10
36.339712776829572
 20
-1.221311460276046
 30
0.0
 40
17.956658237422701
 50
73.330813892773435
 51
73.338553590646526
  0
LINE
  5
2361
  8
0
 10
41.490496831309208
 20
15.980752331017101
 30
0.0
 11
41.491715509809211
 21
15.97992668071711
 31
0.0
  0
ARC
  5
2362
  8
0
 10
41.491168076688041
 20
15.97951241266966
 30
0.0
 40
0.0006865136832491
 50
318.71679747654628
 51
37.116483614793538
  0
LINE
  5
2363
  8
0
 10
41.491683962609208
 20
15.9790594637171
 30
0.0
 11
41.49043302780921
 21
15.978249572717109
 31
0.0
  0
LINE
  5
2364
  8
0
 10
41.49043302780921
 20
15.978249572717109
 30
0.0
 11
41.488116671009209
 21
15.977568708517101
 31
0.0
  0
ARC
  5
2365
  8
0
 10
41.48031663448635
 20
16.017236315082009
 30
0.0
 40
0.0404272133636075
 50
268.65703091970198
 51
281.12442359634969
  0
ARC
  5
2366
  8
0
 10
41.478397955186487
 20
16.017114546658739
 30
0.0
 40
0.0403060420530967
 50
258.76563643442358
 51
271.38068162415209
  0
LINE
  5
2367
  8
0
 10
41.468221668209203
 20
15.97827645701711
 30
0.0
 11
41.47054542520921
 21
15.9775808294171
 31
0.0
  0
LINE
  5
2368
  8
0
 10
41.468221668209203
 20
15.97827645701711
 30
0.0
 11
41.46700262834765
 21
15.979103178250639
 31
0.0
  0
ARC
  5
2369
  8
0
 10
41.447372311108772
 20
15.97584908326378
 30
0.0
 40
0.0006638580782373
 50
133.05548783862099
 51
220.2499181462683
  0
ARC
  5
236A
  8
0
 10
41.451308938887927
 20
15.97062467967744
 30
0.0
 40
0.0072020084572484
 50
96.730782179992374
 51
127.55560360247389
  0
ARC
  5
236B
  8
0
 10
41.45835056815281
 20
15.937107902606989
 30
0.0
 40
0.0414266149654034
 50
88.807991166337374
 51
100.9734633497665
  0
ARC
  5
236C
  8
0
 10
41.459664162262527
 20
15.932206006980079
 30
0.0
 40
0.0463217488139027
 50
79.587482346552946
 51
90.558833410978508
  0
ARC
  5
236D
  8
0
 10
36.319575780937257
 20
-1.2249944891624771
 30
0.0
 40
17.956658237422701
 50
73.330813892773435
 51
73.338553590646526
  0
LINE
  5
236E
  8
0
 10
41.4703598354169
 20
15.977069302130669
 30
0.0
 11
41.471578513916889
 21
15.97624365183067
 31
0.0
  0
ARC
  5
236F
  8
0
 10
41.471031080795719
 20
15.97582938378323
 30
0.0
 40
0.0006865136832491
 50
318.71679747654628
 51
37.116483614793538
  0
LINE
  5
2370
  8
0
 10
41.471546966716893
 20
15.97537643483067
 30
0.0
 11
41.470296031916888
 21
15.974566543830679
 31
0.0
  0
LINE
  5
2371
  8
0
 10
41.470296031916888
 20
15.974566543830679
 30
0.0
 11
41.467979675116901
 21
15.973885679630669
 31
0.0
  0
ARC
  5
2372
  8
0
 10
41.460179638594028
 20
16.013553286195592
 30
0.0
 40
0.0404272133636075
 50
268.65703091970198
 51
281.12442359634969
  0
ARC
  5
2373
  8
0
 10
41.458260959294172
 20
16.013431517772311
 30
0.0
 40
0.0403060420530967
 50
258.76563643442358
 51
271.38068162415209
  0
LINE
  5
2374
  8
0
 10
41.448084672316902
 20
15.974593428130669
 30
0.0
 11
41.450408429316887
 21
15.97389780053067
 31
0.0
  0
LINE
  5
2375
  8
0
 10
41.448084672316902
 20
15.974593428130669
 30
0.0
 11
41.446865632455342
 21
15.97542014936421
 31
0.0
  0
ARC
  5
2376
  8
0
 10
41.424504442351363
 20
15.97284269706074
 30
0.0
 40
0.0006638580782373
 50
133.05548783862099
 51
220.2499181462683
  0
ARC
  5
2377
  8
0
 10
41.428441070130532
 20
15.9676182934744
 30
0.0
 40
0.0072020084572484
 50
96.730782179992374
 51
127.55560360247389
  0
ARC
  5
2378
  8
0
 10
41.435482699395401
 20
15.934101516403951
 30
0.0
 40
0.0414266149654034
 50
88.807991166337374
 51
100.9734633497665
  0
ARC
  5
2379
  8
0
 10
41.436796293505132
 20
15.929199620777039
 30
0.0
 40
0.0463217488139027
 50
79.587482346552946
 51
90.558833410978508
  0
ARC
  5
237A
  8
0
 10
36.296707912179862
 20
-1.2280008753655161
 30
0.0
 40
17.956658237422701
 50
73.330813892773435
 51
73.338553590646526
  0
LINE
  5
237B
  8
0
 10
41.447491966659499
 20
15.974062915927631
 30
0.0
 11
41.448710645159487
 21
15.97323726562764
 31
0.0
  0
ARC
  5
237C
  8
0
 10
41.448163212038317
 20
15.97282299758019
 30
0.0
 40
0.0006865136832491
 50
318.71679747654628
 51
37.116483614793538
  0
LINE
  5
237D
  8
0
 10
41.448679097959491
 20
15.97237004862763
 30
0.0
 11
41.447428163159493
 21
15.971560157627639
 31
0.0
  0
LINE
  5
237E
  8
0
 10
41.447428163159493
 20
15.971560157627639
 30
0.0
 11
41.445111806359499
 21
15.970879293427631
 31
0.0
  0
ARC
  5
237F
  8
0
 10
41.437311769836633
 20
16.010546899992551
 30
0.0
 40
0.0404272133636075
 50
268.65703091970198
 51
281.12442359634969
  0
ARC
  5
2380
  8
0
 10
41.435393090536778
 20
16.010425131569271
 30
0.0
 40
0.0403060420530967
 50
258.76563643442358
 51
271.38068162415209
  0
LINE
  5
2381
  8
0
 10
41.425216803559493
 20
15.97158704192764
 30
0.0
 11
41.427540560559493
 21
15.97089141432763
 31
0.0
  0
LINE
  5
2382
  8
0
 10
41.425216803559493
 20
15.97158704192764
 30
0.0
 11
41.42399776369794
 21
15.972413763161169
 31
0.0
  0
ARC
  5
2383
  8
0
 10
41.399881078831299
 20
15.97046209587347
 30
0.0
 40
0.0006638580782373
 50
133.05548783862099
 51
220.2499181462683
  0
ARC
  5
2384
  8
0
 10
41.403817706610461
 20
15.965237692287131
 30
0.0
 40
0.0072020084572484
 50
96.730782179992374
 51
127.55560360247389
  0
ARC
  5
2385
  8
0
 10
41.410859335875337
 20
15.93172091521668
 30
0.0
 40
0.0414266149654034
 50
88.807991166337374
 51
100.9734633497665
  0
ARC
  5
2386
  8
0
 10
41.412172929985068
 20
15.92681901958977
 30
0.0
 40
0.0463217488139027
 50
79.587482346552946
 51
90.558833410978508
  0
ARC
  5
2387
  8
0
 10
36.272084548659791
 20
-1.230381476552785
 30
0.0
 40
17.956658237422701
 50
73.330813892773435
 51
73.338553590646526
  0
LINE
  5
2388
  8
0
 10
41.422868603139428
 20
15.97168231474037
 30
0.0
 11
41.42408728163943
 21
15.970856664440371
 31
0.0
  0
ARC
  5
2389
  8
0
 10
41.423539848518253
 20
15.970442396392921
 30
0.0
 40
0.0006865136832491
 50
318.71679747654628
 51
37.116483614793538
  0
LINE
  5
238A
  8
0
 10
41.424055734439428
 20
15.96998944744036
 30
0.0
 11
41.422804799639422
 21
15.96917955644037
 31
0.0
  0
LINE
  5
238B
  8
0
 10
41.422804799639422
 20
15.96917955644037
 30
0.0
 11
41.420488442839442
 21
15.96849869224036
 31
0.0
  0
ARC
  5
238C
  8
0
 10
41.412688406316562
 20
16.008166298805278
 30
0.0
 40
0.0404272133636075
 50
268.65703091970198
 51
281.12442359634969
  0
ARC
  5
238D
  8
0
 10
41.410769727016707
 20
16.008044530382001
 30
0.0
 40
0.0403060420530967
 50
258.76563643442358
 51
271.38068162415209
  0
LINE
  5
238E
  8
0
 10
41.40059344003943
 20
15.96920644074037
 30
0.0
 11
41.402917197039429
 21
15.968510813140361
 31
0.0
  0
LINE
  5
238F
  8
0
 10
41.40059344003943
 20
15.96920644074037
 30
0.0
 11
41.399374400177877
 21
15.9700331619739
 31
0.0
  0
ARC
  5
2390
  8
0
 10
41.373946297246839
 20
15.96915529858504
 30
0.0
 40
0.0006638580782373
 50
133.05548783862099
 51
220.2499181462683
  0
ARC
  5
2391
  8
0
 10
41.377882925026
 20
15.9639308949987
 30
0.0
 40
0.0072020084572484
 50
96.730782179992374
 51
127.55560360247389
  0
ARC
  5
2392
  8
0
 10
41.384924554290869
 20
15.930414117928249
 30
0.0
 40
0.0414266149654034
 50
88.807991166337374
 51
100.9734633497665
  0
ARC
  5
2393
  8
0
 10
41.386238148400601
 20
15.925512222301339
 30
0.0
 40
0.0463217488139027
 50
79.587482346552946
 51
90.558833410978508
  0
ARC
  5
2394
  8
0
 10
36.246149767075323
 20
-1.231688273841216
 30
0.0
 40
17.956658237422701
 50
73.330813892773435
 51
73.338553590646526
  0
LINE
  5
2395
  8
0
 10
41.39693382155496
 20
15.970375517451931
 30
0.0
 11
41.398152500054962
 21
15.96954986715194
 31
0.0
  0
ARC
  5
2396
  8
0
 10
41.397605066933792
 20
15.96913559910449
 30
0.0
 40
0.0006865136832491
 50
318.71679747654628
 51
37.116483614793538
  0
LINE
  5
2397
  8
0
 10
41.398120952854953
 20
15.96868265015193
 30
0.0
 11
41.396870018054962
 21
15.967872759151939
 31
0.0
  0
LINE
  5
2398
  8
0
 10
41.396870018054962
 20
15.967872759151939
 30
0.0
 11
41.39455366125496
 21
15.967191894951929
 31
0.0
  0
ARC
  5
2399
  8
0
 10
41.386753624732101
 20
16.00685950151685
 30
0.0
 40
0.0404272133636075
 50
268.65703091970198
 51
281.12442359634969
  0
ARC
  5
239A
  8
0
 10
41.384834945432239
 20
16.006737733093569
 30
0.0
 40
0.0403060420530967
 50
258.76563643442358
 51
271.38068162415209
  0
LINE
  5
239B
  8
0
 10
41.374658658454962
 20
15.96789964345194
 30
0.0
 11
41.376982415454947
 21
15.96720401585193
 31
0.0
  0
LINE
  5
239C
  8
0
 10
41.374658658454962
 20
15.96789964345194
 30
0.0
 11
41.373439618593409
 21
15.96872636468547
 31
0.0
  0
ARC
  5
239D
  8
0
 10
41.34721393176234
 20
15.968757412126569
 30
0.0
 40
0.0006638580782373
 50
133.05548783862099
 51
220.2499181462683
  0
ARC
  5
239E
  8
0
 10
41.351150559541509
 20
15.96353300854023
 30
0.0
 40
0.0072020084572484
 50
96.730782179992374
 51
127.55560360247389
  0
ARC
  5
239F
  8
0
 10
41.358192188806377
 20
15.93001623146977
 30
0.0
 40
0.0414266149654034
 50
88.807991166337374
 51
100.9734633497665
  0
ARC
  5
23A0
  8
0
 10
41.359505782916109
 20
15.925114335842871
 30
0.0
 40
0.0463217488139027
 50
79.587482346552946
 51
90.558833410978508
  0
ARC
  5
23A1
  8
0
 10
36.219417401590832
 20
-1.232086160299692
 30
0.0
 40
17.956658237422701
 50
73.330813892773435
 51
73.338553590646526
  0
LINE
  5
23A2
  8
0
 10
41.370201456070468
 20
15.96997763099346
 30
0.0
 11
41.371420134570457
 21
15.969151980693461
 31
0.0
  0
ARC
  5
23A3
  8
0
 10
41.370872701449301
 20
15.968737712646019
 30
0.0
 40
0.0006865136832491
 50
318.71679747654628
 51
37.116483614793538
  0
LINE
  5
23A4
  8
0
 10
41.371388587370468
 20
15.96828476369345
 30
0.0
 11
41.37013765257047
 21
15.96747487269346
 31
0.0
  0
LINE
  5
23A5
  8
0
 10
41.37013765257047
 20
15.96747487269346
 30
0.0
 11
41.367821295770469
 21
15.96679400849346
 31
0.0
  0
ARC
  5
23A6
  8
0
 10
41.360021259247603
 20
16.00646161505837
 30
0.0
 40
0.0404272133636075
 50
268.65703091970198
 51
281.12442359634969
  0
ARC
  5
23A7
  8
0
 10
41.358102579947747
 20
16.0063398466351
 30
0.0
 40
0.0403060420530967
 50
258.76563643442358
 51
271.38068162415209
  0
LINE
  5
23A8
  8
0
 10
41.34792629297047
 20
15.96750175699346
 30
0.0
 11
41.350250049970462
 21
15.96680612939346
 31
0.0
  0
LINE
  5
23A9
  8
0
 10
41.34792629297047
 20
15.96750175699346
 30
0.0
 11
41.346707253108917
 21
15.96832847822699
 31
0.0
  0
ARC
  5
23AA
  8
0
 10
41.32065360000756
 20
15.969098448596871
 30
0.0
 40
0.0006638580782373
 50
133.05548783862099
 51
220.2499181462683
  0
ARC
  5
23AB
  8
0
 10
41.324590227786729
 20
15.963874045010529
 30
0.0
 40
0.0072020084572484
 50
96.730782179992374
 51
127.55560360247389
  0
ARC
  5
23AC
  8
0
 10
41.331631857051597
 20
15.930357267940069
 30
0.0
 40
0.0414266149654034
 50
88.807991166337374
 51
100.9734633497665
  0
ARC
  5
23AD
  8
0
 10
41.332945451161322
 20
15.925455372313159
 30
0.0
 40
0.0463217488139027
 50
79.587482346552946
 51
90.558833410978508
  0
ARC
  5
23AE
  8
0
 10
36.192857069836052
 20
-1.2317451238293939
 30
0.0
 40
17.956658237422701
 50
73.330813892773435
 51
73.338553590646526
  0
LINE
  5
23AF
  8
0
 10
41.343641124315681
 20
15.97031866746376
 30
0.0
 11
41.344859802815691
 21
15.96949301716376
 31
0.0
  0
ARC
  5
23B0
  8
0
 10
41.344312369694521
 20
15.969078749116321
 30
0.0
 40
0.0006865136832491
 50
318.71679747654628
 51
37.116483614793538
  0
LINE
  5
23B1
  8
0
 10
41.344828255615681
 20
15.96862580016375
 30
0.0
 11
41.34357732081569
 21
15.967815909163759
 31
0.0
  0
LINE
  5
23B2
  8
0
 10
41.34357732081569
 20
15.967815909163759
 30
0.0
 11
41.341260964015682
 21
15.96713504496376
 31
0.0
  0
ARC
  5
23B3
  8
0
 10
41.333460927492823
 20
16.00680265152867
 30
0.0
 40
0.0404272133636075
 50
268.65703091970198
 51
281.12442359634969
  0
ARC
  5
23B4
  8
0
 10
41.331542248192967
 20
16.006680883105389
 30
0.0
 40
0.0403060420530967
 50
258.76563643442358
 51
271.38068162415209
  0
LINE
  5
23B5
  8
0
 10
41.32136596121569
 20
15.96784279346376
 30
0.0
 11
41.323689718215689
 21
15.96714716586375
 31
0.0
  0
LINE
  5
23B6
  8
0
 10
41.32136596121569
 20
15.96784279346376
 30
0.0
 11
41.32014692135413
 21
15.968669514697289
 31
0.0
  0
ARC
  5
23B7
  8
0
 10
41.294877212840028
 20
15.97051910904133
 30
0.0
 40
0.0006638580782373
 50
133.05548783862099
 51
220.2499181462683
  0
ARC
  5
23B8
  8
0
 10
41.298813840619196
 20
15.965294705454991
 30
0.0
 40
0.0072020084572484
 50
96.730782179992374
 51
127.55560360247389
  0
ARC
  5
23B9
  8
0
 10
41.305855469884072
 20
15.931777928384539
 30
0.0
 40
0.0414266149654034
 50
88.807991166337374
 51
100.9734633497665
  0
ARC
  5
23BA
  8
0
 10
41.307169063993797
 20
15.92687603275763
 30
0.0
 40
0.0463217488139027
 50
79.587482346552946
 51
90.558833410978508
  0
ARC
  5
23BB
  8
0
 10
36.167080682668519
 20
-1.230324463384926
 30
0.0
 40
17.956658237422701
 50
73.330813892773435
 51
73.338553590646526
  0
LINE
  5
23BC
  8
0
 10
41.317864737148149
 20
15.971739327908219
 30
0.0
 11
41.319083415648151
 21
15.97091367760823
 31
0.0
  0
ARC
  5
23BD
  8
0
 10
41.318535982526988
 20
15.97049940956078
 30
0.0
 40
0.0006865136832491
 50
318.71679747654628
 51
37.116483614793538
  0
LINE
  5
23BE
  8
0
 10
41.319051868448149
 20
15.97004646060822
 30
0.0
 11
41.317800933648158
 21
15.969236569608229
 31
0.0
  0
LINE
  5
23BF
  8
0
 10
41.317800933648158
 20
15.969236569608229
 30
0.0
 11
41.315484576848156
 21
15.968555705408219
 31
0.0
  0
ARC
  5
23C0
  8
0
 10
41.30768454032529
 20
16.00822331197314
 30
0.0
 40
0.0404272133636075
 50
268.65703091970198
 51
281.12442359634969
  0
ARC
  5
23C1
  8
0
 10
41.305765861025442
 20
16.008101543549859
 30
0.0
 40
0.0403060420530967
 50
258.76563643442358
 51
271.38068162415209
  0
LINE
  5
23C2
  8
0
 10
41.295589574048172
 20
15.96926345390823
 30
0.0
 11
41.29791333104815
 21
15.96856782630822
 31
0.0
  0
LINE
  5
23C3
  8
0
 10
41.295589574048172
 20
15.96926345390823
 30
0.0
 11
41.294370534186598
 21
15.97009017514176
 31
0.0
  0
ARC
  5
23C4
  8
0
 10
41.270234821177908
 20
15.972729359705911
 30
0.0
 40
0.0006638580782373
 50
133.05548783862099
 51
220.2499181462683
  0
ARC
  5
23C5
  8
0
 10
41.27417144895707
 20
15.967504956119569
 30
0.0
 40
0.0072020084572484
 50
96.730782179992374
 51
127.55560360247389
  0
ARC
  5
23C6
  8
0
 10
41.281213078221938
 20
15.933988179049109
 30
0.0
 40
0.0414266149654034
 50
88.807991166337374
 51
100.9734633497665
  0
ARC
  5
23C7
  8
0
 10
41.28252667233167
 20
15.929086283422199
 30
0.0
 40
0.0463217488139027
 50
79.587482346552946
 51
90.558833410978508
  0
ARC
  5
23C8
  8
0
 10
36.142438291006393
 20
-1.2281142127203539
 30
0.0
 40
17.956658237422701
 50
73.330813892773435
 51
73.338553590646526
  0
LINE
  5
23C9
  8
0
 10
41.293222345486022
 20
15.9739495785728
 30
0.0
 11
41.294441023986032
 21
15.9731239282728
 31
0.0
  0
ARC
  5
23CA
  8
0
 10
41.293893590864862
 20
15.97270966022535
 30
0.0
 40
0.0006865136832491
 50
318.71679747654628
 51
37.116483614793538
  0
LINE
  5
23CB
  8
0
 10
41.294409476786022
 20
15.97225671127279
 30
0.0
 11
41.293158541986031
 21
15.971446820272799
 31
0.0
  0
LINE
  5
23CC
  8
0
 10
41.293158541986031
 20
15.971446820272799
 30
0.0
 11
41.29084218518603
 21
15.9707659560728
 31
0.0
  0
ARC
  5
23CD
  8
0
 10
41.283042148663171
 20
16.010433562637711
 30
0.0
 40
0.0404272133636075
 50
268.65703091970198
 51
281.12442359634969
  0
ARC
  5
23CE
  8
0
 10
41.281123469363308
 20
16.010311794214431
 30
0.0
 40
0.0403060420530967
 50
258.76563643442358
 51
271.38068162415209
  0
LINE
  5
23CF
  8
0
 10
41.270947182386038
 20
15.9714737045728
 30
0.0
 11
41.273270939386023
 21
15.970778076972801
 31
0.0
  0
LINE
  5
23D0
  8
0
 10
41.270947182386038
 20
15.9714737045728
 30
0.0
 11
41.269728142524471
 21
15.972300425806329
 31
0.0
  0
ARC
  5
23D1
  8
0
 10
41.247426694097001
 20
15.97579449059454
 30
0.0
 40
0.0006638580782373
 50
133.05548783862099
 51
220.2499181462683
  0
ARC
  5
23D2
  8
0
 10
41.251363321876163
 20
15.9705700870082
 30
0.0
 40
0.0072020084572484
 50
96.730782179992374
 51
127.55560360247389
  0
ARC
  5
23D3
  8
0
 10
41.258404951141031
 20
15.937053309937751
 30
0.0
 40
0.0414266149654034
 50
88.807991166337374
 51
100.9734633497665
  0
ARC
  5
23D4
  8
0
 10
41.259718545250763
 20
15.932151414310839
 30
0.0
 40
0.0463217488139027
 50
79.587482346552946
 51
90.558833410978508
  0
ARC
  5
23D5
  8
0
 10
36.119630163925493
 20
-1.2250490818317179
 30
0.0
 40
17.956658237422701
 50
73.330813892773435
 51
73.338553590646526
  0
LINE
  5
23D6
  8
0
 10
41.270414218405122
 20
15.977014709461431
 30
0.0
 11
41.271632896905118
 21
15.976189059161429
 31
0.0
  0
ARC
  5
23D7
  8
0
 10
41.271085463783947
 20
15.97577479111399
 30
0.0
 40
0.0006865136832491
 50
318.71679747654628
 51
37.116483614793538
  0
LINE
  5
23D8
  8
0
 10
41.271601349705122
 20
15.97532184216143
 30
0.0
 11
41.270350414905117
 21
15.974511951161441
 31
0.0
  0
LINE
  5
23D9
  8
0
 10
41.270350414905117
 20
15.974511951161441
 30
0.0
 11
41.268034058105123
 21
15.973831086961431
 31
0.0
  0
ARC
  5
23DA
  8
0
 10
41.260234021582257
 20
16.013498693526341
 30
0.0
 40
0.0404272133636075
 50
268.65703091970198
 51
281.12442359634969
  0
ARC
  5
23DB
  8
0
 10
41.258315342282408
 20
16.013376925103071
 30
0.0
 40
0.0403060420530967
 50
258.76563643442358
 51
271.38068162415209
  0
LINE
  5
23DC
  8
0
 10
41.248139055305131
 20
15.974538835461431
 30
0.0
 11
41.250462812305123
 21
15.97384320786143
 31
0.0
  0
LINE
  5
23DD
  8
0
 10
41.248139055305131
 20
15.974538835461431
 30
0.0
 11
41.246920015443571
 21
15.975365556694969
 31
0.0
  0
ARC
  5
23DE
  8
0
 10
41.226999779188603
 20
15.97959829057689
 30
0.0
 40
0.0006638580782373
 50
133.05548783862099
 51
220.2499181462683
  0
ARC
  5
23DF
  8
0
 10
41.230936406967771
 20
15.97437388699055
 30
0.0
 40
0.0072020084572484
 50
96.730782179992374
 51
127.55560360247389
  0
ARC
  5
23E0
  8
0
 10
41.23797803623264
 20
15.940857109920101
 30
0.0
 40
0.0414266149654034
 50
88.807991166337374
 51
100.9734633497665
  0
ARC
  5
23E1
  8
0
 10
41.239291630342372
 20
15.935955214293189
 30
0.0
 40
0.0463217488139027
 50
79.587482346552946
 51
90.558833410978508
  0
ARC
  5
23E2
  8
0
 10
36.099203249017101
 20
-1.221245281849368
 30
0.0
 40
17.956658237422701
 50
73.330813892773435
 51
73.338553590646526
  0
LINE
  5
23E3
  8
0
 10
41.249987303496717
 20
15.980818509443781
 30
0.0
 11
41.251205981996733
 21
15.97999285914379
 31
0.0
  0
ARC
  5
23E4
  8
0
 10
41.250658548875563
 20
15.97957859109634
 30
0.0
 40
0.0006865136832491
 50
318.71679747654628
 51
37.116483614793538
  0
LINE
  5
23E5
  8
0
 10
41.251174434796717
 20
15.97912564214378
 30
0.0
 11
41.249923499996733
 21
15.978315751143789
 31
0.0
  0
LINE
  5
23E6
  8
0
 10
41.249923499996733
 20
15.978315751143789
 30
0.0
 11
41.247607143196717
 21
15.977634886943781
 31
0.0
  0
ARC
  5
23E7
  8
0
 10
41.239807106673858
 20
16.017302493508691
 30
0.0
 40
0.0404272133636075
 50
268.65703091970198
 51
281.12442359634969
  0
ARC
  5
23E8
  8
0
 10
41.23788842737401
 20
16.017180725085421
 30
0.0
 40
0.0403060420530967
 50
258.76563643442358
 51
271.38068162415209
  0
LINE
  5
23E9
  8
0
 10
41.227712140396733
 20
15.978342635443781
 30
0.0
 11
41.230035897396732
 21
15.97764700784378
 31
0.0
  0
LINE
  5
23EA
  8
0
 10
41.227712140396733
 20
15.978342635443781
 30
0.0
 11
41.226493100535173
 21
15.979169356677319
 31
0.0
  0
ARC
  5
23EB
  8
0
 10
41.209753890213129
 20
15.983963673435589
 30
0.0
 40
0.0006638580782373
 50
133.05548783862099
 51
220.2499181462683
  0
ARC
  5
23EC
  8
0
 10
41.213690517992298
 20
15.97873926984926
 30
0.0
 40
0.0072020084572484
 50
96.730782179992374
 51
127.55560360247389
  0
ARC
  5
23ED
  8
0
 10
41.220732147257173
 20
15.9452224927788
 30
0.0
 40
0.0414266149654034
 50
88.807991166337374
 51
100.9734633497665
  0
ARC
  5
23EE
  8
0
 10
41.222045741366912
 20
15.94032059715189
 30
0.0
 40
0.0463217488139027
 50
79.587482346552946
 51
90.558833410978508
  0
ARC
  5
23EF
  8
0
 10
36.081957360041628
 20
-1.2168798989906651
 30
0.0
 40
17.956658237422701
 50
73.330813892773435
 51
73.338553590646526
  0
LINE
  5
23F0
  8
0
 10
41.232741414521257
 20
15.985183892302491
 30
0.0
 11
41.23396009302126
 21
15.984358242002489
 31
0.0
  0
ARC
  5
23F1
  8
0
 10
41.23341265990009
 20
15.983943973955039
 30
0.0
 40
0.0006865136832491
 50
318.71679747654628
 51
37.116483614793538
  0
LINE
  5
23F2
  8
0
 10
41.233928545821257
 20
15.983491025002481
 30
0.0
 11
41.232677611021259
 21
15.98268113400249
 31
0.0
  0
LINE
  5
23F3
  8
0
 10
41.232677611021259
 20
15.98268113400249
 30
0.0
 11
41.230361254221258
 21
15.98200026980248
 31
0.0
  0
ARC
  5
23F4
  8
0
 10
41.222561217698392
 20
16.021667876367399
 30
0.0
 40
0.0404272133636075
 50
268.65703091970198
 51
281.12442359634969
  0
ARC
  5
23F5
  8
0
 10
41.220642538398543
 20
16.021546107944118
 30
0.0
 40
0.0403060420530967
 50
258.76563643442358
 51
271.38068162415209
  0
LINE
  5
23F6
  8
0
 10
41.210466251421273
 20
15.982708018302491
 30
0.0
 11
41.212790008421258
 21
15.982012390702479
 31
0.0
  0
LINE
  5
23F7
  8
0
 10
41.210466251421273
 20
15.982708018302491
 30
0.0
 11
41.209247211559713
 21
15.983534739536021
 31
0.0
  0
ARC
  5
23F8
  8
0
 10
41.195847180019342
 20
15.98896758745636
 30
0.0
 40
0.0006638580782373
 50
133.05548783862099
 51
220.2499181462683
  0
ARC
  5
23F9
  8
0
 10
41.199783807798497
 20
15.98374318387002
 30
0.0
 40
0.0072020084572484
 50
96.730782179992374
 51
127.55560360247389
  0
ARC
  5
23FA
  8
0
 10
41.206825437063372
 20
15.950226406799571
 30
0.0
 40
0.0414266149654034
 50
88.807991166337374
 51
100.9734633497665
  0
ARC
  5
23FB
  8
0
 10
41.20813903117309
 20
15.945324511172659
 30
0.0
 40
0.0463217488139027
 50
79.587482346552946
 51
90.558833410978508
  0
ARC
  5
23FC
  8
0
 10
36.068050649847819
 20
-1.211875984969901
 30
0.0
 40
17.956658237422701
 50
73.330813892773435
 51
73.338553590646526
  0
LINE
  5
23FD
  8
0
 10
41.218834704327463
 20
15.990187806323251
 30
0.0
 11
41.220053382827459
 21
15.989362156023249
 31
0.0
  0
ARC
  5
23FE
  8
0
 10
41.219505949706289
 20
15.98894788797581
 30
0.0
 40
0.0006865136832491
 50
318.71679747654628
 51
37.116483614793538
  0
LINE
  5
23FF
  8
0
 10
41.220021835627449
 20
15.988494939023241
 30
0.0
 11
41.218770900827458
 21
15.98768504802325
 31
0.0
  0
LINE
  5
2400
  8
0
 10
41.218770900827458
 20
15.98768504802325
 30
0.0
 11
41.216454544027457
 21
15.987004183823251
 31
0.0
  0
ARC
  5
2401
  8
0
 10
41.208654507504598
 20
16.026671790388161
 30
0.0
 40
0.0404272133636075
 50
268.65703091970198
 51
281.12442359634969
  0
ARC
  5
2402
  8
0
 10
41.206735828204742
 20
16.02655002196488
 30
0.0
 40
0.0403060420530967
 50
258.76563643442358
 51
271.38068162415209
  0
LINE
  5
2403
  8
0
 10
41.196559541227451
 20
15.987711932323251
 30
0.0
 11
41.19888329822745
 21
15.98701630472325
 31
0.0
  0
LINE
  5
2404
  8
0
 10
41.196559541227451
 20
15.987711932323251
 30
0.0
 11
41.195340501365898
 21
15.98853865355678
 31
0.0
  0
ARC
  5
2405
  8
0
 10
41.185692302856012
 20
15.99441249456831
 30
0.0
 40
0.0006638580782373
 50
133.05548783862099
 51
220.2499181462683
  0
ARC
  5
2406
  8
0
 10
41.189628930635173
 20
15.989188090981971
 30
0.0
 40
0.0072020084572484
 50
96.730782179992374
 51
127.55560360247389
  0
ARC
  5
2407
  8
0
 10
41.196670559900049
 20
15.95567131391152
 30
0.0
 40
0.0414266149654034
 50
88.807991166337374
 51
100.9734633497665
  0
ARC
  5
2408
  8
0
 10
41.197984154009767
 20
15.95076941828461
 30
0.0
 40
0.0463217488139027
 50
79.587482346552946
 51
90.558833410978508
  0
ARC
  5
2409
  8
0
 10
36.057895772684503
 20
-1.206431077857945
 30
0.0
 40
17.956658237422701
 50
73.330813892773435
 51
73.338553590646526
  0
LINE
  5
240A
  8
0
 10
41.208679827164133
 20
15.99563271343521
 30
0.0
 11
41.209898505664128
 21
15.994807063135211
 31
0.0
  0
ARC
  5
240B
  8
0
 10
41.209351072542958
 20
15.99439279508776
 30
0.0
 40
0.0006865136832491
 50
318.71679747654628
 51
37.116483614793538
  0
LINE
  5
240C
  8
0
 10
41.209866958464133
 20
15.9939398461352
 30
0.0
 11
41.208616023664128
 21
15.99312995513521
 31
0.0
  0
LINE
  5
240D
  8
0
 10
41.208616023664128
 20
15.99312995513521
 30
0.0
 11
41.20629966686414
 21
15.99244909093521
 31
0.0
  0
ARC
  5
240E
  8
0
 10
41.198499630341267
 20
16.032116697500118
 30
0.0
 40
0.0404272133636075
 50
268.65703091970198
 51
281.12442359634969
  0
ARC
  5
240F
  8
0
 10
41.196580951041412
 20
16.031994929076841
 30
0.0
 40
0.0403060420530967
 50
258.76563643442358
 51
271.38068162415209
  0
LINE
  5
2410
  8
0
 10
41.186404664064142
 20
15.99315683943521
 30
0.0
 11
41.188728421064127
 21
15.992461211835201
 31
0.0
  0
LINE
  5
2411
  8
0
 10
41.186404664064142
 20
15.99315683943521
 30
0.0
 11
41.185185624202582
 21
15.99398356066874
 31
0.0
  0
ARC
  5
2412
  8
0
 10
41.179388004374452
 20
15.999972180455639
 30
0.0
 40
0.0006638580782373
 50
133.05548783862099
 51
220.2499181462683
  0
ARC
  5
2413
  8
0
 10
41.183324632153607
 20
15.9947477768693
 30
0.0
 40
0.0072020084572484
 50
96.730782179992374
 51
127.55560360247389
  0
ARC
  5
2414
  8
0
 10
41.190366261418482
 20
15.96123099979885
 30
0.0
 40
0.0414266149654034
 50
88.807991166337374
 51
100.9734633497665
  0
ARC
  5
2415
  8
0
 10
41.191679855528221
 20
15.956329104171941
 30
0.0
 40
0.0463217488139027
 50
79.587482346552946
 51
90.558833410978508
  0
ARC
  5
2416
  8
0
 10
36.051591474202951
 20
-1.200871391970622
 30
0.0
 40
17.956658237422701
 50
73.330813892773435
 51
73.338553590646526
  0
LINE
  5
2417
  8
0
 10
41.20237552868258
 20
16.00119239932253
 30
0.0
 11
41.203594207182583
 21
16.000366749022529
 31
0.0
  0
ARC
  5
2418
  8
0
 10
41.203046774061399
 20
15.999952480975089
 30
0.0
 40
0.0006865136832491
 50
318.71679747654628
 51
37.116483614793538
  0
LINE
  5
2419
  8
0
 10
41.20356265998258
 20
15.99949953202252
 30
0.0
 11
41.202311725182582
 21
15.99868964102253
 31
0.0
  0
LINE
  5
241A
  8
0
 10
41.202311725182582
 20
15.99868964102253
 30
0.0
 11
41.199995368382581
 21
15.99800877682253
 31
0.0
  0
ARC
  5
241B
  8
0
 10
41.192195331859722
 20
16.037676383387439
 30
0.0
 40
0.0404272133636075
 50
268.65703091970198
 51
281.12442359634969
  0
ARC
  5
241C
  8
0
 10
41.190276652559859
 20
16.037554614964169
 30
0.0
 40
0.0403060420530967
 50
258.76563643442358
 51
271.38068162415209
  0
LINE
  5
241D
  8
0
 10
41.180100365582582
 20
15.99871652532253
 30
0.0
 11
41.182424122582582
 21
15.99802089772253
 31
0.0
  0
LINE
  5
241E
  8
0
 10
41.180100365582582
 20
15.99871652532253
 30
0.0
 11
41.178881325721029
 21
15.99954324655606
 31
0.0
  0
ARC
  5
241F
  8
0
 10
41.177460011327831
 20
16.005864734763609
 30
0.0
 40
0.0006638580782373
 50
133.05548783862099
 51
220.2499181462683
  0
ARC
  5
2420
  8
0
 10
41.181396639106993
 20
16.000640331177269
 30
0.0
 40
0.0072020084572484
 50
96.730782179992374
 51
127.55560360247389
  0
ARC
  5
2421
  8
0
 10
41.188438268371883
 20
15.967123554106809
 30
0.0
 40
0.0414266149654034
 50
88.807991166337374
 51
100.9734633497665
  0
ARC
  5
2422
  8
0
 10
41.189751862481593
 20
15.96222165847991
 30
0.0
 40
0.0463217488139027
 50
79.587482346552946
 51
90.558833410978508
  0
ARC
  5
2423
  8
0
 10
36.049663481156323
 20
-1.194978837662652
 30
0.0
 40
17.956658237422701
 50
73.330813892773435
 51
73.338553590646526
  0
LINE
  5
2424
  8
0
 10
41.200447535635959
 20
16.0070849536305
 30
0.0
 11
41.201666214135962
 21
16.006259303330499
 31
0.0
  0
ARC
  5
2425
  8
0
 10
41.201118781014792
 20
16.005845035283059
 30
0.0
 40
0.0006865136832491
 50
318.71679747654628
 51
37.116483614793538
  0
LINE
  5
2426
  8
0
 10
41.201634666935959
 20
16.005392086330492
 30
0.0
 11
41.200383732135961
 21
16.004582195330499
 31
0.0
  0
LINE
  5
2427
  8
0
 10
41.200383732135961
 20
16.004582195330499
 30
0.0
 11
41.19806737533596
 21
16.0039013311305
 31
0.0
  0
ARC
  5
2428
  8
0
 10
41.190267338813101
 20
16.043568937695412
 30
0.0
 40
0.0404272133636075
 50
268.65703091970198
 51
281.12442359634969
  0
ARC
  5
2429
  8
0
 10
41.188348659513238
 20
16.043447169272131
 30
0.0
 40
0.0403060420530967
 50
258.76563643442358
 51
271.38068162415209
  0
LINE
  5
242A
  8
0
 10
41.178172372535961
 20
16.004609079630502
 30
0.0
 11
41.18049612953596
 21
16.003913452030499
 31
0.0
  0
LINE
  5
242B
  8
0
 10
41.178172372535961
 20
16.004609079630502
 30
0.0
 11
41.176953332674401
 21
16.005435800864031
 31
0.0
  0
ARC
  5
242C
  8
0
 10
41.179444717157239
 20
16.011587310235932
 30
0.0
 40
0.0006638580782373
 50
133.05548783862099
 51
220.2499181462683
  0
ARC
  5
242D
  8
0
 10
41.1833813449364
 20
16.006362906649588
 30
0.0
 40
0.0072020084572484
 50
96.730782179992374
 51
127.55560360247389
  0
ARC
  5
242E
  8
0
 10
41.190422974201283
 20
15.972846129579141
 30
0.0
 40
0.0414266149654034
 50
88.807991166337374
 51
100.9734633497665
  0
ARC
  5
242F
  8
0
 10
41.191736568311001
 20
15.967944233952229
 30
0.0
 40
0.0463217488139027
 50
79.587482346552946
 51
90.558833410978508
  0
ARC
  5
2430
  8
0
 10
36.05164818698573
 20
-1.189256262190326
 30
0.0
 40
17.956658237422701
 50
73.330813892773435
 51
73.338553590646526
  0
LINE
  5
2431
  8
0
 10
41.202432241465367
 20
16.012807529102819
 30
0.0
 11
41.203650919965369
 21
16.011981878802828
 31
0.0
  0
ARC
  5
2432
  8
0
 10
41.203103486844192
 20
16.011567610755382
 30
0.0
 40
0.0006865136832491
 50
318.71679747654628
 51
37.116483614793538
  0
LINE
  5
2433
  8
0
 10
41.203619372765367
 20
16.011114661802822
 30
0.0
 11
41.202368437965362
 21
16.010304770802829
 31
0.0
  0
LINE
  5
2434
  8
0
 10
41.202368437965362
 20
16.010304770802829
 30
0.0
 11
41.200052081165367
 21
16.009623906602819
 31
0.0
  0
ARC
  5
2435
  8
0
 10
41.192252044642508
 20
16.049291513167741
 30
0.0
 40
0.0404272133636075
 50
268.65703091970198
 51
281.12442359634969
  0
ARC
  5
2436
  8
0
 10
41.190333365342653
 20
16.049169744744461
 30
0.0
 40
0.0403060420530967
 50
258.76563643442358
 51
271.38068162415209
  0
LINE
  5
2437
  8
0
 10
41.180157078365362
 20
16.010331655102831
 30
0.0
 11
41.182480835365368
 21
16.009636027502822
 31
0.0
  0
LINE
  5
2438
  8
0
 10
41.180157078365362
 20
16.010331655102831
 30
0.0
 11
41.178938038503809
 21
16.011158376336361
 31
0.0
  0
ARC
  5
2439
  8
0
 10
41.185682342812903
 20
16.017253226096379
 30
0.0
 40
0.0006638580782373
 50
133.05548783862099
 51
220.2499181462683
  0
ARC
  5
243A
  8
0
 10
41.189618970592072
 20
16.01202882251004
 30
0.0
 40
0.0072020084572484
 50
96.730782179992374
 51
127.55560360247389
  0
ARC
  5
243B
  8
0
 10
41.196660599856934
 20
15.97851204543959
 30
0.0
 40
0.0414266149654034
 50
88.807991166337374
 51
100.9734633497665
  0
ARC
  5
243C
  8
0
 10
41.197974193966658
 20
15.97361014981268
 30
0.0
 40
0.0463217488139027
 50
79.587482346552946
 51
90.558833410978508
  0
ARC
  5
243D
  8
0
 10
36.057885812641388
 20
-1.183590346329878
 30
0.0
 40
17.956658237422701
 50
73.330813892773435
 51
73.338553590646526
  0
LINE
  5
243E
  8
0
 10
41.208669867121017
 20
16.01847344496327
 30
0.0
 11
41.20988854562102
 21
16.017647794663269
 31
0.0
  0
ARC
  5
243F
  8
0
 10
41.209341112499857
 20
16.017233526615829
 30
0.0
 40
0.0006865136832491
 50
318.71679747654628
 51
37.116483614793538
  0
LINE
  5
2440
  8
0
 10
41.209856998421017
 20
16.016780577663269
 30
0.0
 11
41.208606063621033
 21
16.01597068666327
 31
0.0
  0
LINE
  5
2441
  8
0
 10
41.208606063621033
 20
16.01597068666327
 30
0.0
 11
41.206289706821018
 21
16.01528982246327
 31
0.0
  0
ARC
  5
2442
  8
0
 10
41.198489670298159
 20
16.054957429028178
 30
0.0
 40
0.0404272133636075
 50
268.65703091970198
 51
281.12442359634969
  0
ARC
  5
2443
  8
0
 10
41.19657099099831
 20
16.054835660604908
 30
0.0
 40
0.0403060420530967
 50
258.76563643442358
 51
271.38068162415209
  0
LINE
  5
2444
  8
0
 10
41.186394704021019
 20
16.015997570963268
 30
0.0
 11
41.188718461021018
 21
16.015301943363269
 31
0.0
  0
LINE
  5
2445
  8
0
 10
41.186394704021019
 20
16.015997570963268
 30
0.0
 11
41.185175664159473
 21
16.016824292196809
 31
0.0
  0
ARC
  5
2446
  8
0
 10
41.195781008912022
 20
16.022595910202959
 30
0.0
 40
0.0006638580782373
 50
133.05548783862099
 51
220.2499181462683
  0
ARC
  5
2447
  8
0
 10
41.19971763669119
 20
16.01737150661662
 30
0.0
 40
0.0072020084572484
 50
96.730782179992374
 51
127.55560360247389
  0
ARC
  5
2448
  8
0
 10
41.206759265956052
 20
15.98385472954617
 30
0.0
 40
0.0414266149654034
 50
88.807991166337374
 51
100.9734633497665
  0
ARC
  5
2449
  8
0
 10
41.208072860065791
 20
15.97895283391926
 30
0.0
 40
0.0463217488139027
 50
79.587482346552946
 51
90.558833410978508
  0
ARC
  5
244A
  8
0
 10
36.06798447874052
 20
-1.1782476622232949
 30
0.0
 40
17.956658237422701
 50
73.330813892773435
 51
73.338553590646526
  0
LINE
  5
244B
  8
0
 10
41.21876853322015
 20
16.023816129069861
 30
0.0
 11
41.219987211720152
 21
16.022990478769859
 31
0.0
  0
ARC
  5
244C
  8
0
 10
41.219439778598982
 20
16.022576210722409
 30
0.0
 40
0.0006865136832491
 50
318.71679747654628
 51
37.116483614793538
  0
LINE
  5
244D
  8
0
 10
41.21995566452015
 20
16.022123261769849
 30
0.0
 11
41.218704729720152
 21
16.02131337076986
 31
0.0
  0
LINE
  5
244E
  8
0
 10
41.218704729720152
 20
16.02131337076986
 30
0.0
 11
41.21638837292015
 21
16.020632506569861
 31
0.0
  0
ARC
  5
244F
  8
0
 10
41.208588336397277
 20
16.060300113134769
 30
0.0
 40
0.0404272133636075
 50
268.65703091970198
 51
281.12442359634969
  0
ARC
  5
2450
  8
0
 10
41.206669657097443
 20
16.060178344711488
 30
0.0
 40
0.0403060420530967
 50
258.76563643442358
 51
271.38068162415209
  0
LINE
  5
2451
  8
0
 10
41.196493370120152
 20
16.021340255069859
 30
0.0
 11
41.198817127120151
 21
16.020644627469849
 31
0.0
  0
LINE
  5
2452
  8
0
 10
41.196493370120152
 20
16.021340255069859
 30
0.0
 11
41.195274330258599
 21
16.022166976303389
 31
0.0
  0
ARC
  5
2457
  8
0
 10
36.081959577517807
 20
-1.1732719734049011
 30
0.0
 40
17.956658237422701
 50
73.330813892773435
 51
73.333229536454198
  0
LINE
  5
2458
  8
0
 10
41.232743631997437
 20
16.028791817888251
 30
0.0
 11
41.233962310497454
 21
16.02796616758825
 31
0.0
  0
ARC
  5
2459
  8
0
 10
41.233414877376269
 20
16.027551899540811
 30
0.0
 40
0.0006865136832491
 50
318.71679747654628
 51
37.116483614793538
  0
LINE
  5
245A
  8
0
 10
41.23393076329743
 20
16.02709895058825
 30
0.0
 11
41.232679828497439
 21
16.026289059588251
 31
0.0
  0
LINE
  5
245B
  8
0
 10
41.232679828497439
 20
16.026289059588251
 30
0.0
 11
41.230363471697437
 21
16.025608195388251
 31
0.0
  0
ARC
  5
245C
  8
0
 10
41.222563435174578
 20
16.06527580195316
 30
0.0
 40
0.0404272133636075
 50
268.65703091970198
 51
281.12442359634969
  0
ARC
  5
245D
  8
0
 10
41.220644755874723
 20
16.06515403352989
 30
0.0
 40
0.0403060420530967
 50
258.76563643442358
 51
271.38068162415209
  0
LINE
  5
245E
  8
0
 10
41.210468468897439
 20
16.02631594388825
 30
0.0
 11
41.212792225897438
 21
16.025620316288251
 31
0.0
  0
LINE
  5
245F
  8
0
 10
41.210468468897439
 20
16.02631594388825
 30
0.0
 11
41.209874039201807
 21
16.026719070698721
 31
0.0
  0
ARC
  5
2460
  8
0
 10
41.2342377202188
 20
16.01749857581413
 30
0.0
 40
0.0006638580782373
 50
133.05548783862099
 51
220.2499181462683
  0
ARC
  5
2461
  8
0
 10
41.238174347997962
 20
16.012274172227791
 30
0.0
 40
0.0072020084572484
 50
96.730782179992374
 51
127.55560360247389
  0
ARC
  5
2462
  8
0
 10
41.245215977262838
 20
15.97875739515734
 30
0.0
 40
0.0414266149654034
 50
88.807991166337374
 51
100.9734633497665
  0
ARC
  5
2463
  8
0
 10
41.246529571372562
 20
15.97385549953043
 30
0.0
 40
0.0463217488139027
 50
79.587482346552946
 51
90.558833410978508
  0
ARC
  5
2464
  8
0
 10
36.106441190047278
 20
-1.183344996612127
 30
0.0
 40
17.956658237422701
 50
73.330813892773435
 51
73.338553590646526
  0
LINE
  5
2465
  8
0
 10
41.257225244526921
 20
16.018718794681021
 30
0.0
 11
41.258443923026917
 21
16.017893144381031
 31
0.0
  0
ARC
  5
2466
  8
0
 10
41.257896489905747
 20
16.01747887633358
 30
0.0
 40
0.0006865136832491
 50
318.71679747654628
 51
37.116483614793538
  0
LINE
  5
2467
  8
0
 10
41.258412375826921
 20
16.01702592738102
 30
0.0
 11
41.257161441026923
 21
16.016216036381021
 31
0.0
  0
LINE
  5
2468
  8
0
 10
41.257161441026923
 20
16.016216036381021
 30
0.0
 11
41.254845084226929
 21
16.015535172181021
 31
0.0
  0
ARC
  5
2469
  8
0
 10
41.247045047704063
 20
16.05520277874594
 30
0.0
 40
0.0404272133636075
 50
268.65703091970198
 51
281.12442359634969
  0
ARC
  5
246A
  8
0
 10
41.2451263684042
 20
16.05508101032266
 30
0.0
 40
0.0403060420530967
 50
258.76563643442358
 51
271.38068162415209
  0
LINE
  5
246B
  8
0
 10
41.234950081426923
 20
16.01624292068103
 30
0.0
 11
41.237273838426923
 21
16.015547293081021
 31
0.0
  0
LINE
  5
246C
  8
0
 10
41.234950081426923
 20
16.01624292068103
 30
0.0
 11
41.23373104156537
 21
16.01706964191456
 31
0.0
  0
ARC
  5
246D
  8
0
 10
41.250988189960339
 20
16.023153640225711
 30
0.0
 40
0.0006638580782373
 50
133.05548783862099
 51
220.2499181462683
  0
ARC
  5
246E
  8
0
 10
41.2549248177395
 20
16.017929236639372
 30
0.0
 40
0.0072020084572484
 50
96.730782179992374
 51
127.55560360247389
  0
ARC
  5
246F
  8
0
 10
41.261966447004383
 20
15.984412459568921
 30
0.0
 40
0.0414266149654034
 50
88.807991166337374
 51
100.9734633497665
  0
ARC
  5
2470
  8
0
 10
41.263280041114101
 20
15.979510563942011
 30
0.0
 40
0.0463217488139027
 50
79.587482346552946
 51
90.558833410978508
  0
ARC
  5
2471
  8
0
 10
36.12319165978883
 20
-1.1776899322005501
 30
0.0
 40
17.956658237422701
 50
73.330813892773435
 51
73.338553590646526
  0
LINE
  5
2472
  8
0
 10
41.27397571426846
 20
16.024373859092599
 30
0.0
 11
41.275194392768469
 21
16.023548208792601
 31
0.0
  0
ARC
  5
2473
  8
0
 10
41.274646959647299
 20
16.023133940745161
 30
0.0
 40
0.0006865136832491
 50
318.71679747654628
 51
37.116483614793538
  0
LINE
  5
2474
  8
0
 10
41.27516284556846
 20
16.022680991792601
 30
0.0
 11
41.273911910768469
 21
16.021871100792598
 31
0.0
  0
LINE
  5
2475
  8
0
 10
41.273911910768469
 20
16.021871100792598
 30
0.0
 11
41.27159555396846
 21
16.021190236592599
 31
0.0
  0
ARC
  5
2476
  8
0
 10
41.263795517445601
 20
16.06085784315751
 30
0.0
 40
0.0404272133636075
 50
268.65703091970198
 51
281.12442359634969
  0
ARC
  5
2477
  8
0
 10
41.261876838145753
 20
16.06073607473424
 30
0.0
 40
0.0403060420530967
 50
258.76563643442358
 51
271.38068162415209
  0
LINE
  5
2478
  8
0
 10
41.251700551168462
 20
16.0218979850926
 30
0.0
 11
41.254024308168468
 21
16.021202357492601
 31
0.0
  0
LINE
  5
2479
  8
0
 10
41.251700551168462
 20
16.0218979850926
 30
0.0
 11
41.250481511306909
 21
16.022724706326141
 31
0.0
  0
ARC
  5
247A
  8
0
 10
41.273885009738571
 20
16.027791415301731
 30
0.0
 40
0.0006638580782373
 50
133.05548783862099
 51
220.2499181462683
  0
ARC
  5
247B
  8
0
 10
41.277821637517732
 20
16.022567011715392
 30
0.0
 40
0.0072020084572484
 50
96.730782179992374
 51
127.55560360247389
  0
ARC
  5
247C
  8
0
 10
41.284863266782608
 20
15.98905023464493
 30
0.0
 40
0.0414266149654034
 50
88.807991166337374
 51
100.9734633497665
  0
ARC
  5
247D
  8
0
 10
41.28617686089234
 20
15.98414833901802
 30
0.0
 40
0.0463217488139027
 50
79.587482346552946
 51
90.558833410978508
  0
ARC
  5
247E
  8
0
 10
36.146088479567062
 20
-1.1730521571245329
 30
0.0
 40
17.956658237422701
 50
73.330813892773435
 51
73.338553590646526
  0
LINE
  5
247F
  8
0
 10
41.296872534046699
 20
16.029011634168619
 30
0.0
 11
41.298091212546701
 21
16.028185983868621
 31
0.0
  0
ARC
  5
2480
  8
0
 10
41.297543779425517
 20
16.027771715821181
 30
0.0
 40
0.0006865136832491
 50
318.71679747654628
 51
37.116483614793538
  0
LINE
  5
2481
  8
0
 10
41.298059665346699
 20
16.027318766868611
 30
0.0
 11
41.296808730546687
 21
16.026508875868618
 31
0.0
  0
LINE
  5
2482
  8
0
 10
41.296808730546687
 20
16.026508875868618
 30
0.0
 11
41.294492373746706
 21
16.025828011668619
 31
0.0
  0
ARC
  5
2483
  8
0
 10
41.28669233722384
 20
16.06549561823353
 30
0.0
 40
0.0404272133636075
 50
268.65703091970198
 51
281.12442359634969
  0
ARC
  5
2484
  8
0
 10
41.284773657923978
 20
16.065373849810261
 30
0.0
 40
0.0403060420530967
 50
258.76563643442358
 51
271.38068162415209
  0
LINE
  5
2485
  8
0
 10
41.274597370946701
 20
16.02653576016862
 30
0.0
 11
41.2769211279467
 21
16.025840132568621
 31
0.0
  0
LINE
  5
2486
  8
0
 10
41.274597370946701
 20
16.02653576016862
 30
0.0
 11
41.273378331085148
 21
16.02736248140215
 31
0.0
  0
ARC
  5
2487
  8
0
 10
41.224586958744943
 20
16.01100787731545
 30
0.0
 40
0.0006638580782373
 50
133.05548783862099
 51
220.2499181462683
  0
ARC
  5
2488
  8
0
 10
41.228523586524112
 20
16.00578347372911
 30
0.0
 40
0.0072020084572484
 50
96.730782179992374
 51
127.55560360247389
  0
ARC
  5
2489
  8
0
 10
41.235565215788981
 20
15.972266696658661
 30
0.0
 40
0.0414266149654034
 50
88.807991166337374
 51
100.9734633497665
  0
ARC
  5
248A
  8
0
 10
41.23687880989872
 20
15.967364801031749
 30
0.0
 40
0.0463217488139027
 50
79.587482346552946
 51
90.558833410978508
  0
ARC
  5
248B
  8
0
 10
36.096790428573442
 20
-1.189835695110808
 30
0.0
 40
17.956658237422701
 50
73.330813892773435
 51
73.338553590646526
  0
LINE
  5
248C
  8
0
 10
41.247574483053079
 20
16.012228096182341
 30
0.0
 11
41.248793161553081
 21
16.01140244588235
 31
0.0
  0
ARC
  5
248D
  8
0
 10
41.248245728431897
 20
16.0109881778349
 30
0.0
 40
0.0006865136832491
 50
318.71679747654628
 51
37.116483614793538
  0
LINE
  5
248E
  8
0
 10
41.248761614353079
 20
16.01053522888234
 30
0.0
 11
41.247510679553073
 21
16.009725337882351
 31
0.0
  0
LINE
  5
248F
  8
0
 10
41.247510679553073
 20
16.009725337882351
 30
0.0
 11
41.245194322753079
 21
16.009044473682341
 31
0.0
  0
ARC
  5
2490
  8
0
 10
41.237394286230213
 20
16.048712080247249
 30
0.0
 40
0.0404272133636075
 50
268.65703091970198
 51
281.12442359634969
  0
ARC
  5
2491
  8
0
 10
41.235475606930358
 20
16.048590311823979
 30
0.0
 40
0.0403060420530967
 50
258.76563643442358
 51
271.38068162415209
  0
LINE
  5
2492
  8
0
 10
41.225299319953081
 20
16.009752222182339
 30
0.0
 11
41.22762307695308
 21
16.00905659458234
 31
0.0
  0
LINE
  5
2493
  8
0
 10
41.225299319953081
 20
16.009752222182339
 30
0.0
 11
41.224080280091528
 21
16.010578943415879
 31
0.0
  0
ARC
  5
2494
  8
0
 10
41.222478421334777
 20
16.004050947268059
 30
0.0
 40
0.0006638580782373
 50
133.05548783862099
 51
220.2499181462683
  0
ARC
  5
2495
  8
0
 10
41.226415049113939
 20
15.998826543681719
 30
0.0
 40
0.0072020084572484
 50
96.730782179992374
 51
127.55560360247389
  0
ARC
  5
2496
  8
0
 10
41.233456678378808
 20
15.96530976661127
 30
0.0
 40
0.0414266149654034
 50
88.807991166337374
 51
100.9734633497665
  0
ARC
  5
2497
  8
0
 10
41.234770272488539
 20
15.96040787098436
 30
0.0
 40
0.0463217488139027
 50
79.587482346552946
 51
90.558833410978508
  0
ARC
  5
2498
  8
0
 10
36.094681891163262
 20
-1.1967926251581991
 30
0.0
 40
17.956658237422701
 50
73.330813892773435
 51
73.338553590646526
  0
LINE
  5
2499
  8
0
 10
41.245465945642898
 20
16.00527116613495
 30
0.0
 11
41.246684624142901
 21
16.004445515834949
 31
0.0
  0
ARC
  5
249A
  8
0
 10
41.246137191021731
 20
16.004031247787509
 30
0.0
 40
0.0006865136832491
 50
318.71679747654628
 51
37.116483614793538
  0
LINE
  5
249B
  8
0
 10
41.246653076942891
 20
16.003578298834949
 30
0.0
 11
41.2454021421429
 21
16.00276840783496
 31
0.0
  0
LINE
  5
249C
  8
0
 10
41.2454021421429
 20
16.00276840783496
 30
0.0
 11
41.243085785342899
 21
16.00208754363495
 31
0.0
  0
ARC
  5
249D
  8
0
 10
41.23528574882004
 20
16.041755150199862
 30
0.0
 40
0.0404272133636075
 50
268.65703091970198
 51
281.12442359634969
  0
ARC
  5
249E
  8
0
 10
41.233367069520177
 20
16.041633381776592
 30
0.0
 40
0.0403060420530967
 50
258.76563643442358
 51
271.38068162415209
  0
LINE
  5
249F
  8
0
 10
41.2231907825429
 20
16.002795292134952
 30
0.0
 11
41.225514539542893
 21
16.002099664534949
 31
0.0
  0
LINE
  5
24A0
  8
0
 10
41.2231907825429
 20
16.002795292134952
 30
0.0
 11
41.22197174268134
 21
16.003622013368489
 31
0.0
  0
ARC
  5
24A1
  8
0
 10
41.228513705741477
 20
15.997177927839481
 30
0.0
 40
0.0006638580782373
 50
133.05548783862099
 51
220.2499181462683
  0
ARC
  5
24A2
  8
0
 10
41.232450333520639
 20
15.991953524253139
 30
0.0
 40
0.0072020084572484
 50
96.730782179992374
 51
127.55560360247389
  0
ARC
  5
24A3
  8
0
 10
41.239491962785522
 20
15.95843674718269
 30
0.0
 40
0.0414266149654034
 50
88.807991166337374
 51
100.9734633497665
  0
ARC
  5
24A4
  8
0
 10
41.240805556895239
 20
15.95353485155578
 30
0.0
 40
0.0463217488139027
 50
79.587482346552946
 51
90.558833410978508
  0
ARC
  5
24A5
  8
0
 10
36.100717175569969
 20
-1.203665644586779
 30
0.0
 40
17.956658237422701
 50
73.330813892773435
 51
73.338553590646526
  0
LINE
  5
24A6
  8
0
 10
41.251501230049612
 20
15.99839814670637
 30
0.0
 11
41.252719908549608
 21
15.99757249640637
 31
0.0
  0
ARC
  5
24A7
  8
0
 10
41.252172475428438
 20
15.997158228358931
 30
0.0
 40
0.0006865136832491
 50
318.71679747654628
 51
37.116483614793538
  0
LINE
  5
24A8
  8
0
 10
41.252688361349598
 20
15.99670527940637
 30
0.0
 11
41.251437426549607
 21
15.995895388406369
 31
0.0
  0
LINE
  5
24A9
  8
0
 10
41.251437426549607
 20
15.995895388406369
 30
0.0
 11
41.249121069749613
 21
15.99521452420637
 31
0.0
  0
ARC
  5
24AA
  8
0
 10
41.241321033226747
 20
16.03488213077129
 30
0.0
 40
0.0404272133636075
 50
268.65703091970198
 51
281.12442359634969
  0
ARC
  5
24AB
  8
0
 10
41.239402353926891
 20
16.03476036234801
 30
0.0
 40
0.0403060420530967
 50
258.76563643442358
 51
271.38068162415209
  0
LINE
  5
24AC
  8
0
 10
41.2292260669496
 20
15.99592227270637
 30
0.0
 11
41.231549823949599
 21
15.995226645106371
 31
0.0
  0
LINE
  5
24AD
  8
0
 10
41.2292260669496
 20
15.99592227270637
 30
0.0
 11
41.228007027088047
 21
15.99674899393991
 31
0.0
  0
ARC
  5
24AE
  8
0
 10
41.241775577472517
 20
15.991237833850761
 30
0.0
 40
0.0006638580782373
 50
133.05548783862099
 51
220.2499181462683
  0
ARC
  5
24AF
  8
0
 10
41.245712205251692
 20
15.986013430264419
 30
0.0
 40
0.0072020084572484
 50
96.730782179992374
 51
127.55560360247389
  0
ARC
  5
24B0
  8
0
 10
41.252753834516561
 20
15.95249665319397
 30
0.0
 40
0.0414266149654034
 50
88.807991166337374
 51
100.9734633497665
  0
ARC
  5
24B1
  8
0
 10
41.254067428626293
 20
15.94759475756706
 30
0.0
 40
0.0463217488139027
 50
79.587482346552946
 51
90.558833410978508
  0
ARC
  5
24B2
  8
0
 10
36.113979047301022
 20
-1.2096057385755019
 30
0.0
 40
17.956658237422701
 50
73.330813892773435
 51
73.338553590646526
  0
LINE
  5
24B3
  8
0
 10
41.264763101780652
 20
15.99245805271765
 30
0.0
 11
41.265981780280647
 21
15.99163240241765
 31
0.0
  0
ARC
  5
24B4
  8
0
 10
41.265434347159477
 20
15.991218134370209
 30
0.0
 40
0.0006865136832491
 50
318.71679747654628
 51
37.116483614793538
  0
LINE
  5
24B5
  8
0
 10
41.265950233080652
 20
15.99076518541764
 30
0.0
 11
41.264699298280647
 21
15.98995529441765
 31
0.0
  0
LINE
  5
24B6
  8
0
 10
41.264699298280647
 20
15.98995529441765
 30
0.0
 11
41.262382941480652
 21
15.98927443021765
 31
0.0
  0
ARC
  5
24B7
  8
0
 10
41.254582904957779
 20
16.02894203678256
 30
0.0
 40
0.0404272133636075
 50
268.65703091970198
 51
281.12442359634969
  0
ARC
  5
24B8
  8
0
 10
41.252664225657931
 20
16.02882026835929
 30
0.0
 40
0.0403060420530967
 50
258.76563643442358
 51
271.38068162415209
  0
LINE
  5
24B9
  8
0
 10
41.242487938680647
 20
15.98998217871765
 30
0.0
 11
41.244811695680653
 21
15.989286551117649
 31
0.0
  0
LINE
  5
24BA
  8
0
 10
41.242487938680647
 20
15.98998217871765
 30
0.0
 11
41.241268898819087
 21
15.99080889995118
 31
0.0
  0
ARC
  5
24BB
  8
0
 10
41.26173765939879
 20
15.9858290438418
 30
0.0
 40
0.0006638580782373
 50
133.05548783862099
 51
220.2499181462683
  0
ARC
  5
24BC
  8
0
 10
41.265674287177958
 20
15.980604640255461
 30
0.0
 40
0.0072020084572484
 50
96.730782179992374
 51
127.55560360247389
  0
ARC
  5
24BD
  8
0
 10
41.272715916442827
 20
15.947087863185001
 30
0.0
 40
0.0414266149654034
 50
88.807991166337374
 51
100.9734633497665
  0
ARC
  5
24BE
  8
0
 10
41.274029510552552
 20
15.9421859675581
 30
0.0
 40
0.0463217488139027
 50
79.587482346552946
 51
90.558833410978508
  0
ARC
  5
24BF
  8
0
 10
36.133941129227281
 20
-1.2150145285844609
 30
0.0
 40
17.956658237422701
 50
73.330813892773435
 51
73.338553590646526
  0
LINE
  5
24C0
  8
0
 10
41.284725183706911
 20
15.987049262708689
 30
0.0
 11
41.285943862206921
 21
15.98622361240869
 31
0.0
  0
ARC
  5
24C1
  8
0
 10
41.28539642908575
 20
15.98580934436125
 30
0.0
 40
0.0006865136832491
 50
318.71679747654628
 51
37.116483614793538
  0
LINE
  5
24C2
  8
0
 10
41.285912315006911
 20
15.98535639540869
 30
0.0
 11
41.28466138020692
 21
15.984546504408691
 31
0.0
  0
LINE
  5
24C3
  8
0
 10
41.28466138020692
 20
15.984546504408691
 30
0.0
 11
41.282345023406911
 21
15.983865640208689
 31
0.0
  0
ARC
  5
24C4
  8
0
 10
41.274544986884052
 20
16.023533246773599
 30
0.0
 40
0.0404272133636075
 50
268.65703091970198
 51
281.12442359634969
  0
ARC
  5
24C5
  8
0
 10
41.272626307584197
 20
16.023411478350329
 30
0.0
 40
0.0403060420530967
 50
258.76563643442358
 51
271.38068162415209
  0
LINE
  5
24C6
  8
0
 10
41.26245002060692
 20
15.984573388708689
 30
0.0
 11
41.264773777606919
 21
15.98387776110869
 31
0.0
  0
LINE
  5
24C7
  8
0
 10
41.26245002060692
 20
15.984573388708689
 30
0.0
 11
41.26123098074536
 21
15.985400109942219
 31
0.0
  0
ARC
  5
24C8
  8
0
 10
41.287163846990808
 20
15.98171667108037
 30
0.0
 40
0.0006638580782373
 50
133.05548783862099
 51
220.2499181462683
  0
ARC
  5
24C9
  8
0
 10
41.291100474769983
 20
15.976492267494031
 30
0.0
 40
0.0072020084572484
 50
96.730782179992374
 51
127.55560360247389
  0
ARC
  5
24CA
  8
0
 10
41.298142104034852
 20
15.94297549042358
 30
0.0
 40
0.0414266149654034
 50
88.807991166337374
 51
100.9734633497665
  0
ARC
  5
24CB
  8
0
 10
41.299455698144577
 20
15.93807359479667
 30
0.0
 40
0.0463217488139027
 50
79.587482346552946
 51
90.558833410978508
  0
ARC
  5
24CC
  8
0
 10
36.159367316819299
 20
-1.219126901345885
 30
0.0
 40
17.956658237422701
 50
73.330813892773435
 51
73.338553590646526
  0
LINE
  5
24CD
  8
0
 10
41.310151371298943
 20
15.98293688994727
 30
0.0
 11
41.311370049798931
 21
15.982111239647271
 31
0.0
  0
ARC
  5
24CE
  8
0
 10
41.310822616677768
 20
15.981696971599821
 30
0.0
 40
0.0006865136832491
 50
318.71679747654628
 51
37.116483614793538
  0
LINE
  5
24CF
  8
0
 10
41.311338502598929
 20
15.98124402264726
 30
0.0
 11
41.310087567798938
 21
15.98043413164727
 31
0.0
  0
LINE
  5
24D0
  8
0
 10
41.310087567798938
 20
15.98043413164727
 30
0.0
 11
41.307771210998943
 21
15.97975326744727
 31
0.0
  0
ARC
  5
24D1
  8
0
 10
41.29997117447607
 20
16.01942087401218
 30
0.0
 40
0.0404272133636075
 50
268.65703091970198
 51
281.12442359634969
  0
ARC
  5
24D2
  8
0
 10
41.298052495176222
 20
16.0192991055889
 30
0.0
 40
0.0403060420530967
 50
258.76563643442358
 51
271.38068162415209
  0
LINE
  5
24D3
  8
0
 10
41.287876208198938
 20
15.98046101594727
 30
0.0
 11
41.29019996519893
 21
15.979765388347261
 31
0.0
  0
LINE
  5
24D4
  8
0
 10
41.287876208198938
 20
15.98046101594727
 30
0.0
 11
41.286657168337378
 21
15.9812877371808
 31
0.0
  0
ARC
  5
24D5
  8
0
 10
41.316377025078921
 20
15.979428792214749
 30
0.0
 40
0.0006638580782373
 50
133.05548783862099
 51
220.2499181462683
  0
ARC
  5
24D6
  8
0
 10
41.32031365285809
 20
15.97420438862842
 30
0.0
 40
0.0072020084572484
 50
96.730782179992374
 51
127.55560360247389
  0
ARC
  5
24D7
  8
0
 10
41.327355282122959
 20
15.94068761155796
 30
0.0
 40
0.0414266149654034
 50
88.807991166337374
 51
100.9734633497665
  0
ARC
  5
24D8
  8
0
 10
41.32866887623269
 20
15.935785715931059
 30
0.0
 40
0.0463217488139027
 50
79.587482346552946
 51
90.558833410978508
  0
ARC
  5
24D9
  8
0
 10
36.18858049490742
 20
-1.221414780211503
 30
0.0
 40
17.956658237422701
 50
73.330813892773435
 51
73.338553590646526
  0
LINE
  5
24DA
  8
0
 10
41.339364549387042
 20
15.980649011081651
 30
0.0
 11
41.340583227887052
 21
15.97982336078165
 31
0.0
  0
ARC
  5
24DB
  8
0
 10
41.340035794765882
 20
15.97940909273421
 30
0.0
 40
0.0006865136832491
 50
318.71679747654628
 51
37.116483614793538
  0
LINE
  5
24DC
  8
0
 10
41.340551680687042
 20
15.978956143781639
 30
0.0
 11
41.339300745887051
 21
15.97814625278165
 31
0.0
  0
LINE
  5
24DD
  8
0
 10
41.339300745887051
 20
15.97814625278165
 30
0.0
 11
41.336984389087043
 21
15.977465388581651
 31
0.0
  0
ARC
  5
24DE
  8
0
 10
41.329184352564177
 20
16.017132995146561
 30
0.0
 40
0.0404272133636075
 50
268.65703091970198
 51
281.12442359634969
  0
ARC
  5
24DF
  8
0
 10
41.327265673264328
 20
16.017011226723291
 30
0.0
 40
0.0403060420530967
 50
258.76563643442358
 51
271.38068162415209
  0
LINE
  5
24E0
  8
0
 10
41.317089386287051
 20
15.978173137081651
 30
0.0
 11
41.319413143287051
 21
15.97747750948165
 31
0.0
  0
LINE
  5
24E1
  8
0
 10
41.317089386287051
 20
15.978173137081651
 30
0.0
 11
41.315870346425491
 21
15.978999858315181
 31
0.0
  0
ARC
  5
24E2
  8
0
 10
41.347317657435191
 20
15.97859751865138
 30
0.0
 40
0.0006638580782373
 50
133.05548783862099
 51
220.2499181462683
  0
ARC
  5
24E3
  8
0
 10
41.351254285214353
 20
15.97337311506505
 30
0.0
 40
0.0072020084572484
 50
96.730782179992374
 51
127.55560360247389
  0
ARC
  5
24E4
  8
0
 10
41.358295914479221
 20
15.939856337994589
 30
0.0
 40
0.0414266149654034
 50
88.807991166337374
 51
100.9734633497665
  0
ARC
  5
24E5
  8
0
 10
41.35960950858896
 20
15.93495444236769
 30
0.0
 40
0.0463217488139027
 50
79.587482346552946
 51
90.558833410978508
  0
ARC
  5
24E6
  8
0
 10
36.219521127263683
 20
-1.2222460537748741
 30
0.0
 40
17.956658237422701
 50
73.330813892773435
 51
73.338553590646526
  0
LINE
  5
24E7
  8
0
 10
41.370305181743319
 20
15.979817737518269
 30
0.0
 11
41.371523860243308
 21
15.97899208721828
 31
0.0
  0
ARC
  5
24E8
  8
0
 10
41.370976427122137
 20
15.978577819170839
 30
0.0
 40
0.0006865136832491
 50
318.71679747654628
 51
37.116483614793538
  0
LINE
  5
24E9
  8
0
 10
41.371492313043319
 20
15.97812487021827
 30
0.0
 11
41.370241378243321
 21
15.97731497921828
 31
0.0
  0
LINE
  5
24EA
  8
0
 10
41.370241378243321
 20
15.97731497921828
 30
0.0
 11
41.36792502144332
 21
15.97663411501828
 31
0.0
  0
ARC
  5
24EB
  8
0
 10
41.360124984920454
 20
16.01630172158319
 30
0.0
 40
0.0404272133636075
 50
268.65703091970198
 51
281.12442359634969
  0
ARC
  5
24EC
  8
0
 10
41.358206305620598
 20
16.016179953159909
 30
0.0
 40
0.0403060420530967
 50
258.76563643442358
 51
271.38068162415209
  0
LINE
  5
24ED
  8
0
 10
41.348030018643321
 20
15.97734186351828
 30
0.0
 11
41.35035377564332
 21
15.976646235918279
 31
0.0
  0
LINE
  5
24EE
  8
0
 10
41.348030018643321
 20
15.97734186351828
 30
0.0
 11
41.346810978781768
 21
15.97816858475181
 31
0.0
  0
ARC
  5
24EF
  8
0
 10
41.378445728140079
 20
15.97951224955667
 30
0.0
 40
0.0006638580782373
 50
133.05548783862099
 51
220.2499181462683
  0
ARC
  5
24F0
  8
0
 10
41.382382355919241
 20
15.974287845970331
 30
0.0
 40
0.0072020084572484
 50
96.730782179992374
 51
127.55560360247389
  0
ARC
  5
24F1
  8
0
 10
41.389423985184123
 20
15.940771068899879
 30
0.0
 40
0.0414266149654034
 50
88.807991166337374
 51
100.9734633497665
  0
ARC
  5
24F2
  8
0
 10
41.390737579293841
 20
15.93586917327297
 30
0.0
 40
0.0463217488139027
 50
79.587482346552946
 51
90.558833410978508
  0
ARC
  5
24F3
  8
0
 10
36.250649197968571
 20
-1.2213313228695859
 30
0.0
 40
17.956658237422701
 50
73.330813892773435
 51
73.338553590646526
  0
LINE
  5
24F4
  8
0
 10
41.401433252448207
 20
15.980732468423559
 30
0.0
 11
41.40265193094821
 21
15.97990681812357
 31
0.0
  0
ARC
  5
24F5
  8
0
 10
41.40210449782704
 20
15.97949255007612
 30
0.0
 40
0.0006865136832491
 50
318.71679747654628
 51
37.116483614793538
  0
LINE
  5
24F6
  8
0
 10
41.4026203837482
 20
15.97903960112356
 30
0.0
 11
41.401369448948209
 21
15.97822971012357
 31
0.0
  0
LINE
  5
24F7
  8
0
 10
41.401369448948209
 20
15.97822971012357
 30
0.0
 11
41.399053092148208
 21
15.977548845923559
 31
0.0
  0
ARC
  5
24F8
  8
0
 10
41.391253055625349
 20
16.017216452488469
 30
0.0
 40
0.0404272133636075
 50
268.65703091970198
 51
281.12442359634969
  0
ARC
  5
24F9
  8
0
 10
41.389334376325493
 20
16.017094684065199
 30
0.0
 40
0.0403060420530967
 50
258.76563643442358
 51
271.38068162415209
  0
LINE
  5
24FA
  8
0
 10
41.379158089348202
 20
15.97825659442357
 30
0.0
 11
41.381481846348208
 21
15.97756096682356
 31
0.0
  0
LINE
  5
24FB
  8
0
 10
41.379158089348202
 20
15.97825659442357
 30
0.0
 11
41.377939049486649
 21
15.9790833156571
 31
0.0
  0
ARC
  5
24FC
  8
0
 10
41.407530354776249
 20
15.982071061088
 30
0.0
 40
0.0006638580782373
 50
133.05548783862099
 51
220.2499181462683
  0
ARC
  5
24FD
  8
0
 10
41.41146698255541
 20
15.97684665750166
 30
0.0
 40
0.0072020084572484
 50
96.730782179992374
 51
127.55560360247389
  0
ARC
  5
24FE
  8
0
 10
41.418508611820279
 20
15.943329880431209
 30
0.0
 40
0.0414266149654034
 50
88.807991166337374
 51
100.9734633497665
  0
ARC
  5
24FF
  8
0
 10
41.419822205930018
 20
15.938427984804299
 30
0.0
 40
0.0463217488139027
 50
79.587482346552946
 51
90.558833410978508
  0
ARC
  5
2500
  8
0
 10
36.27973382460474
 20
-1.218772511338259
 30
0.0
 40
17.956658237422701
 50
73.330813892773435
 51
73.338553590646526
  0
LINE
  5
2501
  8
0
 10
41.43051787908437
 20
15.983291279954891
 30
0.0
 11
41.431736557584372
 21
15.982465629654889
 31
0.0
  0
ARC
  5
2502
  8
0
 10
41.431189124463202
 20
15.98205136160745
 30
0.0
 40
0.0006865136832491
 50
318.71679747654628
 51
37.116483614793538
  0
LINE
  5
2503
  8
0
 10
41.43170501038437
 20
15.98159841265489
 30
0.0
 11
41.430454075584379
 21
15.98078852165489
 31
0.0
  0
LINE
  5
2504
  8
0
 10
41.430454075584379
 20
15.98078852165489
 30
0.0
 11
41.42813771878437
 21
15.980107657454891
 31
0.0
  0
ARC
  5
2505
  8
0
 10
41.420337682261511
 20
16.019775264019799
 30
0.0
 40
0.0404272133636075
 50
268.65703091970198
 51
281.12442359634969
  0
ARC
  5
2506
  8
0
 10
41.418419002961649
 20
16.019653495596529
 30
0.0
 40
0.0403060420530967
 50
258.76563643442358
 51
271.38068162415209
  0
LINE
  5
2507
  8
0
 10
41.408242715984379
 20
15.980815405954891
 30
0.0
 11
41.410566472984371
 21
15.98011977835489
 31
0.0
  0
LINE
  5
2508
  8
0
 10
41.408242715984379
 20
15.980815405954891
 30
0.0
 11
41.407023676122819
 21
15.981642127188429
 31
0.0
  0
ARC
  5
2509
  8
0
 10
41.432914843978828
 20
15.985743519557239
 30
0.0
 40
0.0006638580782373
 50
133.05548783862099
 51
220.2499181462683
  0
ARC
  5
250A
  8
0
 10
41.43685147175799
 20
15.9805191159709
 30
0.0
 40
0.0072020084572484
 50
96.730782179992374
 51
127.55560360247389
  0
ARC
  5
250B
  8
0
 10
41.443893101022859
 20
15.94700233890045
 30
0.0
 40
0.0414266149654034
 50
88.807991166337374
 51
100.9734633497665
  0
ARC
  5
250C
  8
0
 10
41.44520669513259
 20
15.94210044327354
 30
0.0
 40
0.0463217488139027
 50
79.587482346552946
 51
90.558833410978508
  0
ARC
  5
250D
  8
0
 10
36.30511831380732
 20
-1.2151000528690199
 30
0.0
 40
17.956658237422701
 50
73.330813892773435
 51
73.338553590646526
  0
LINE
  5
250E
  8
0
 10
41.455902368286949
 20
15.98696373842413
 30
0.0
 11
41.457121046786959
 21
15.986138088124131
 31
0.0
  0
ARC
  5
250F
  8
0
 10
41.456573613665782
 20
15.985723820076689
 30
0.0
 40
0.0006865136832491
 50
318.71679747654628
 51
37.116483614793538
  0
LINE
  5
2510
  8
0
 10
41.457089499586949
 20
15.985270871124129
 30
0.0
 11
41.455838564786959
 21
15.98446098012413
 31
0.0
  0
LINE
  5
2511
  8
0
 10
41.455838564786959
 20
15.98446098012413
 30
0.0
 11
41.45352220798695
 21
15.98378011592413
 31
0.0
  0
ARC
  5
2512
  8
0
 10
41.445722171464098
 20
16.023447722489038
 30
0.0
 40
0.0404272133636075
 50
268.65703091970198
 51
281.12442359634969
  0
ARC
  5
2513
  8
0
 10
41.443803492164228
 20
16.023325954065768
 30
0.0
 40
0.0403060420530967
 50
258.76563643442358
 51
271.38068162415209
  0
LINE
  5
2514
  8
0
 10
41.433627205186959
 20
15.98448786442413
 30
0.0
 11
41.435950962186951
 21
15.983792236824129
 31
0.0
  0
LINE
  5
2515
  8
0
 10
41.433627205186959
 20
15.98448786442413
 30
0.0
 11
41.432408165325398
 21
15.985314585657671
 31
0.0
  0
ARC
  5
2516
  8
0
 10
41.452853382295721
 20
15.99140945354876
 30
0.0
 40
0.0006638580782373
 50
133.05548783862099
 51
220.2499181462683
  0
ARC
  5
2517
  8
0
 10
41.45679001007489
 20
15.986185049962421
 30
0.0
 40
0.0072020084572484
 50
96.730782179992374
 51
127.55560360247389
  0
ARC
  5
2518
  8
0
 10
41.463831639339759
 20
15.95266827289197
 30
0.0
 40
0.0414266149654034
 50
88.807991166337374
 51
100.9734633497665
  0
ARC
  5
2519
  8
0
 10
41.465145233449491
 20
15.94776637726506
 30
0.0
 40
0.0463217488139027
 50
79.587482346552946
 51
90.558833410978508
  0
ARC
  5
251A
  8
0
 10
36.32505685212422
 20
-1.2094341188774971
 30
0.0
 40
17.956658237422701
 50
73.330813892773435
 51
73.338553590646526
  0
LINE
  5
251B
  8
0
 10
41.47584090660385
 20
15.992629672415649
 30
0.0
 11
41.477059585103852
 21
15.991804022115661
 31
0.0
  0
ARC
  5
251C
  8
0
 10
41.476512151982682
 20
15.99138975406821
 30
0.0
 40
0.0006865136832491
 50
318.71679747654628
 51
37.116483614793538
  0
LINE
  5
251D
  8
0
 10
41.47702803790385
 20
15.99093680511565
 30
0.0
 11
41.475777103103852
 21
15.99012691411566
 31
0.0
  0
LINE
  5
251E
  8
0
 10
41.475777103103852
 20
15.99012691411566
 30
0.0
 11
41.473460746303857
 21
15.989446049915649
 31
0.0
  0
ARC
  5
251F
  8
0
 10
41.465660709780977
 20
16.029113656480568
 30
0.0
 40
0.0404272133636075
 50
268.65703091970198
 51
281.12442359634969
  0
ARC
  5
2520
  8
0
 10
41.463742030481143
 20
16.028991888057291
 30
0.0
 40
0.0403060420530967
 50
258.76563643442358
 51
271.38068162415209
  0
LINE
  5
2521
  8
0
 10
41.453565743503859
 20
15.99015379841566
 30
0.0
 11
41.455889500503851
 21
15.98945817081565
 31
0.0
  0
LINE
  5
2522
  8
0
 10
41.453565743503859
 20
15.99015379841566
 30
0.0
 11
41.452346703642299
 21
15.99098051964919
 31
0.0
  0
ARC
  5
2523
  8
0
 10
41.466320122450838
 20
15.997277657821931
 30
0.0
 40
0.0006638580782373
 50
133.05548783862099
 51
220.2499181462683
  0
ARC
  5
2524
  8
0
 10
41.47025675023
 20
15.992053254235589
 30
0.0
 40
0.0072020084572484
 50
96.730782179992374
 51
127.55560360247389
  0
ARC
  5
2525
  8
0
 10
41.477298379494869
 20
15.95853647716514
 30
0.0
 40
0.0414266149654034
 50
88.807991166337374
 51
100.9734633497665
  0
ARC
  5
2526
  8
0
 10
41.4786119736046
 20
15.95363458153823
 30
0.0
 40
0.0463217488139027
 50
79.587482346552946
 51
90.558833410978508
  0
ARC
  5
2527
  8
0
 10
36.338523592279323
 20
-1.2035659146043289
 30
0.0
 40
17.956658237422701
 50
73.330813892773435
 51
73.338553590646526
  0
LINE
  5
2528
  8
0
 10
41.489307646758952
 20
15.99849787668882
 30
0.0
 11
41.490526325258962
 21
15.99767222638882
 31
0.0
  0
ARC
  5
2529
  8
0
 10
41.489978892137792
 20
15.997257958341381
 30
0.0
 40
0.0006865136832491
 50
318.71679747654628
 51
37.116483614793538
  0
LINE
  5
252A
  8
0
 10
41.490494778058952
 20
15.996805009388821
 30
0.0
 11
41.489243843258961
 21
15.99599511838883
 31
0.0
  0
LINE
  5
252B
  8
0
 10
41.489243843258961
 20
15.99599511838883
 30
0.0
 11
41.48692748645896
 21
15.99531425418882
 31
0.0
  0
ARC
  5
252C
  8
0
 10
41.479127449936101
 20
16.034981860753732
 30
0.0
 40
0.0404272133636075
 50
268.65703091970198
 51
281.12442359634969
  0
ARC
  5
252D
  8
0
 10
41.477208770636238
 20
16.034860092330462
 30
0.0
 40
0.0403060420530967
 50
258.76563643442358
 51
271.38068162415209
  0
LINE
  5
252E
  8
0
 10
41.467032483658969
 20
15.99602200268882
 30
0.0
 11
41.469356240658954
 21
15.995326375088821
 31
0.0
  0
LINE
  5
252F
  8
0
 10
41.467032483658969
 20
15.99602200268882
 30
0.0
 11
41.465813443797408
 21
15.99684872392236
 31
0.0
  0
ARC
  5
2530
  8
0
 10
41.472173636070757
 20
16.004040231802261
 30
0.0
 40
0.0006638580782373
 50
133.05548783862099
 51
220.2499181462683
  0
ARC
  5
2531
  8
0
 10
41.476110263849932
 20
15.998815828215919
 30
0.0
 40
0.0072020084572484
 50
96.730782179992374
 51
127.55560360247389
  0
ARC
  5
2532
  8
0
 10
41.483151893114801
 20
15.96529905114547
 30
0.0
 40
0.0414266149654034
 50
88.807991166337374
 51
100.9734633497665
  0
ARC
  5
2533
  8
0
 10
41.484465487224533
 20
15.96039715551856
 30
0.0
 40
0.0463217488139027
 50
79.587482346552946
 51
90.558833410978508
  0
ARC
  5
2534
  8
0
 10
36.344377105899262
 20
-1.1968033406239971
 30
0.0
 40
17.956658237422701
 50
73.330813892773435
 51
73.338553590646526
  0
LINE
  5
2535
  8
0
 10
41.495161160378892
 20
16.005260450669152
 30
0.0
 11
41.496379838878887
 21
16.004434800369161
 31
0.0
  0
ARC
  5
2536
  8
0
 10
41.495832405757717
 20
16.004020532321711
 30
0.0
 40
0.0006865136832491
 50
318.71679747654628
 51
37.116483614793538
  0
LINE
  5
2537
  8
0
 10
41.496348291678892
 20
16.003567583369151
 30
0.0
 11
41.495097356878887
 21
16.002757692369158
 31
0.0
  0
LINE
  5
2538
  8
0
 10
41.495097356878887
 20
16.002757692369158
 30
0.0
 11
41.492781000078892
 21
16.002076828169152
 31
0.0
  0
ARC
  5
2539
  8
0
 10
41.484980963556019
 20
16.041744434734071
 30
0.0
 40
0.0404272133636075
 50
268.65703091970198
 51
281.12442359634969
  0
ARC
  5
253A
  8
0
 10
41.483062284256171
 20
16.04162266631079
 30
0.0
 40
0.0403060420530967
 50
258.76563643442358
 51
271.38068162415209
  0
LINE
  5
253B
  8
0
 10
41.472885997278887
 20
16.002784576669161
 30
0.0
 11
41.475209754278893
 21
16.002088949069151
 31
0.0
  0
LINE
  5
253C
  8
0
 10
41.472885997278887
 20
16.002784576669161
 30
0.0
 11
41.471666957417327
 21
16.00361129790269
 31
0.0
  0
ARC
  5
253D
  8
0
 10
41.470161502958462
 20
16.010894186404641
 30
0.0
 40
0.0006638580782373
 50
133.05548783862099
 51
220.2499181462683
  0
ARC
  5
253E
  8
0
 10
41.47409813073763
 20
16.005669782818298
 30
0.0
 40
0.0072020084572484
 50
96.730782179992374
 51
127.55560360247389
  0
ARC
  5
253F
  8
0
 10
41.481139760002492
 20
15.97215300574784
 30
0.0
 40
0.0414266149654034
 50
88.807991166337374
 51
100.9734633497665
  0
ARC
  5
2540
  8
0
 10
41.482453354112231
 20
15.967251110120939
 30
0.0
 40
0.0463217488139027
 50
79.587482346552946
 51
90.558833410978508
  0
ARC
  5
2541
  8
0
 10
36.34236497278696
 20
-1.189949386021623
 30
0.0
 40
17.956658237422701
 50
73.330813892773435
 51
73.338553590646526
  0
LINE
  5
2542
  8
0
 10
41.49314902726659
 20
16.012114405271529
 30
0.0
 11
41.494367705766592
 21
16.011288754971531
 31
0.0
  0
ARC
  5
2543
  8
0
 10
41.493820272645422
 20
16.010874486924092
 30
0.0
 40
0.0006865136832491
 50
318.71679747654628
 51
37.116483614793538
  0
LINE
  5
2544
  8
0
 10
41.49433615856659
 20
16.010421537971521
 30
0.0
 11
41.493085223766592
 21
16.009611646971528
 31
0.0
  0
LINE
  5
2545
  8
0
 10
41.493085223766592
 20
16.009611646971528
 30
0.0
 11
41.49076886696659
 21
16.008930782771529
 31
0.0
  0
ARC
  5
2546
  8
0
 10
41.482968830443717
 20
16.048598389336441
 30
0.0
 40
0.0404272133636075
 50
268.65703091970198
 51
281.12442359634969
  0
ARC
  5
2547
  8
0
 10
41.481050151143883
 20
16.048476620913171
 30
0.0
 40
0.0403060420530967
 50
258.76563643442358
 51
271.38068162415209
  0
LINE
  5
2548
  8
0
 10
41.470873864166592
 20
16.009638531271531
 30
0.0
 11
41.473197621166591
 21
16.008942903671521
 31
0.0
  0
LINE
  5
2549
  8
0
 10
41.470873864166592
 20
16.009638531271531
 30
0.0
 11
41.469654824305039
 21
16.01046525250506
 31
0.0
  0
ARC
  5
254A
  8
0
 10
41.460451148465481
 20
16.017493916127648
 30
0.0
 40
0.0006638580782373
 50
133.05548783862099
 51
220.2499181462683
  0
ARC
  5
254B
  8
0
 10
41.464387776244642
 20
16.012269512541309
 30
0.0
 40
0.0072020084572484
 50
96.730782179992374
 51
127.55560360247389
  0
ARC
  5
254C
  8
0
 10
41.471429405509518
 20
15.978752735470859
 30
0.0
 40
0.0414266149654034
 50
88.807991166337374
 51
100.9734633497665
  0
ARC
  5
254D
  8
0
 10
41.472742999619243
 20
15.97385083984395
 30
0.0
 40
0.0463217488139027
 50
79.587482346552946
 51
90.558833410978508
  0
ARC
  5
254E
  8
0
 10
36.332654618293972
 20
-1.183349656298609
 30
0.0
 40
17.956658237422701
 50
73.330813892773435
 51
73.338553590646526
  0
LINE
  5
254F
  8
0
 10
41.483438672773602
 20
16.018714134994539
 30
0.0
 11
41.484657351273597
 21
16.017888484694542
 31
0.0
  0
ARC
  5
2550
  8
0
 10
41.484109918152427
 20
16.017474216647098
 30
0.0
 40
0.0006865136832491
 50
318.71679747654628
 51
37.116483614793538
  0
LINE
  5
2551
  8
0
 10
41.484625804073602
 20
16.017021267694538
 30
0.0
 11
41.483374869273597
 21
16.016211376694539
 31
0.0
  0
LINE
  5
2552
  8
0
 10
41.483374869273597
 20
16.016211376694539
 30
0.0
 11
41.481058512473602
 21
16.015530512494539
 31
0.0
  0
ARC
  5
2553
  8
0
 10
41.473258475950743
 20
16.055198119059451
 30
0.0
 40
0.0404272133636075
 50
268.65703091970198
 51
281.12442359634969
  0
ARC
  5
2554
  8
0
 10
41.471339796650881
 20
16.055076350636181
 30
0.0
 40
0.0403060420530967
 50
258.76563643442358
 51
271.38068162415209
  0
LINE
  5
2555
  8
0
 10
41.461163509673611
 20
16.016238260994541
 30
0.0
 11
41.463487266673603
 21
16.015542633394539
 31
0.0
  0
LINE
  5
2556
  8
0
 10
41.461163509673611
 20
16.016238260994541
 30
0.0
 11
41.459944469812037
 21
16.017064982228082
 31
0.0
  0
ARC
  5
2557
  8
0
 10
41.443644895049637
 20
16.023242863249731
 30
0.0
 40
0.0006638580782373
 50
133.05548783862099
 51
220.2499181462683
  0
ARC
  5
2558
  8
0
 10
41.447581522828813
 20
16.018018459663391
 30
0.0
 40
0.0072020084572484
 50
96.730782179992374
 51
127.55560360247389
  0
ARC
  5
2559
  8
0
 10
41.454623152093689
 20
15.98450168259294
 30
0.0
 40
0.0414266149654034
 50
88.807991166337374
 51
100.9734633497665
  0
ARC
  5
255A
  8
0
 10
41.455936746203413
 20
15.97959978696603
 30
0.0
 40
0.0463217488139027
 50
79.587482346552946
 51
90.558833410978508
  0
ARC
  5
255B
  8
0
 10
36.315848364878143
 20
-1.177600709176527
 30
0.0
 40
17.956658237422701
 50
73.330813892773435
 51
73.338553590646526
  0
LINE
  5
255C
  8
0
 10
41.466632419357779
 20
16.024463082116618
 30
0.0
 11
41.467851097857768
 21
16.023637431816631
 31
0.0
  0
ARC
  5
255D
  8
0
 10
41.467303664736612
 20
16.023223163769181
 30
0.0
 40
0.0006865136832491
 50
318.71679747654628
 51
37.116483614793538
  0
LINE
  5
255E
  8
0
 10
41.467819550657772
 20
16.022770214816621
 30
0.0
 11
41.466568615857767
 21
16.021960323816629
 31
0.0
  0
LINE
  5
255F
  8
0
 10
41.466568615857767
 20
16.021960323816629
 30
0.0
 11
41.46425225905778
 21
16.021279459616618
 31
0.0
  0
ARC
  5
2560
  8
0
 10
41.456452222534907
 20
16.060947066181541
 30
0.0
 40
0.0404272133636075
 50
268.65703091970198
 51
281.12442359634969
  0
ARC
  5
2561
  8
0
 10
41.454533543235058
 20
16.06082529775826
 30
0.0
 40
0.0403060420530967
 50
258.76563643442358
 51
271.38068162415209
  0
LINE
  5
2562
  8
0
 10
41.444357256257767
 20
16.021987208116631
 30
0.0
 11
41.446681013257773
 21
16.021291580516621
 31
0.0
  0
LINE
  5
2563
  8
0
 10
41.444357256257767
 20
16.021987208116631
 30
0.0
 11
41.443138216396221
 21
16.022813929350161
 31
0.0
  0
ARC
  5
2564
  8
0
 10
41.420779795035571
 20
16.02778272145088
 30
0.0
 40
0.0006638580782373
 50
133.05548783862099
 51
220.2499181462683
  0
ARC
  5
2565
  8
0
 10
41.424716422814733
 20
16.02255831786454
 30
0.0
 40
0.0072020084572484
 50
96.730782179992374
 51
127.55560360247389
  0
ARC
  5
2566
  8
0
 10
41.431758052079608
 20
15.989041540794091
 30
0.0
 40
0.0414266149654034
 50
88.807991166337374
 51
100.9734633497665
  0
ARC
  5
2567
  8
0
 10
41.43307164618934
 20
15.984139645167181
 30
0.0
 40
0.0463217488139027
 50
79.587482346552946
 51
90.558833410978508
  0
ARC
  5
2568
  8
0
 10
36.292983264864063
 20
-1.173060850975381
 30
0.0
 40
17.956658237422701
 50
73.330813892773435
 51
73.338553590646526
  0
LINE
  5
2569
  8
0
 10
41.443767319343713
 20
16.029002940317771
 30
0.0
 11
41.444985997843702
 21
16.028177290017769
 31
0.0
  0
ARC
  5
256A
  8
0
 10
41.444438564722518
 20
16.02776302197033
 30
0.0
 40
0.0006865136832491
 50
318.71679747654628
 51
37.116483614793538
  0
LINE
  5
256B
  8
0
 10
41.444954450643699
 20
16.027310073017759
 30
0.0
 11
41.443703515843687
 21
16.02650018201777
 31
0.0
  0
LINE
  5
256C
  8
0
 10
41.443703515843687
 20
16.02650018201777
 30
0.0
 11
41.441387159043707
 21
16.025819317817771
 31
0.0
  0
ARC
  5
256D
  8
0
 10
41.433587122520841
 20
16.065486924382679
 30
0.0
 40
0.0404272133636075
 50
268.65703091970198
 51
281.12442359634969
  0
ARC
  5
256E
  8
0
 10
41.431668443220978
 20
16.065365155959409
 30
0.0
 40
0.0403060420530967
 50
258.76563643442358
 51
271.38068162415209
  0
LINE
  5
256F
  8
0
 10
41.421492156243701
 20
16.026527066317769
 30
0.0
 11
41.4238159132437
 21
16.02583143871777
 31
0.0
  0
LINE
  5
2570
  8
0
 10
41.421492156243701
 20
16.026527066317769
 30
0.0
 11
41.420273116382148
 21
16.027353787551299
 31
0.0
  0
ARC
  5
2571
  8
0
 10
41.393379419122347
 20
16.03139716047756
 30
0.0
 40
0.0006638580782373
 50
133.05548783862099
 51
220.2499181462683
  0
ARC
  5
2572
  8
0
 10
41.397316046901523
 20
16.02617275689121
 30
0.0
 40
0.0072020084572484
 50
96.730782179992374
 51
127.55560360247389
  0
ARC
  5
2573
  8
0
 10
41.404357676166391
 20
15.992655979820761
 30
0.0
 40
0.0414266149654034
 50
97.136257806350656
 51
100.9734633497665
  0
ARC
  5
2575
  8
0
 10
36.265582888950853
 20
-1.169446411948704
 30
0.0
 40
17.956658237422701
 50
73.330813892773435
 51
73.338124650018941
  0
LINE
  5
2576
  8
0
 10
41.416366943430482
 20
16.032617379344451
 30
0.0
 11
41.417585621930478
 21
16.03179172904445
 31
0.0
  0
ARC
  5
2577
  8
0
 10
41.417038188809308
 20
16.031377460997
 30
0.0
 40
0.0006865136832491
 50
318.71679747654628
 51
37.116483614793538
  0
LINE
  5
2578
  8
0
 10
41.417554074730482
 20
16.030924512044439
 30
0.0
 11
41.416303139930477
 21
16.030114621044451
 31
0.0
  0
LINE
  5
2579
  8
0
 10
41.416303139930477
 20
16.030114621044451
 30
0.0
 11
41.413986783130483
 21
16.029433756844451
 31
0.0
  0
ARC
  5
257A
  8
0
 10
41.406186746607609
 20
16.069101363409359
 30
0.0
 40
0.0404272133636075
 50
268.65703091970198
 51
281.12442359634969
  0
ARC
  5
257B
  8
0
 10
41.404268067307768
 20
16.068979594986079
 30
0.0
 40
0.0403060420530967
 50
258.76563643442358
 51
271.38068162415209
  0
LINE
  5
257C
  8
0
 10
41.394091780330477
 20
16.030141505344449
 30
0.0
 11
41.396415537330483
 21
16.02944587774445
 31
0.0
  0
LINE
  5
257D
  8
0
 10
41.394091780330477
 20
16.030141505344449
 30
0.0
 11
41.392872740468931
 21
16.030968226577979
 31
0.0
  0
ARC
  5
257E
  8
0
 10
41.36293467055426
 20
16.032946560625749
 30
0.0
 40
0.0006638580782373
 50
133.05548783862099
 51
220.2499181462683
  0
ARC
  5
257F
  8
0
 10
41.366871298333422
 20
16.02772215703941
 30
0.0
 40
0.0072020084572484
 50
113.9154161327769
 51
127.55560360247389
  0
LINE
  5
2583
  8
0
 10
41.386074591156671
 20
16.03406353155145
 30
0.0
 11
41.387140873362377
 21
16.03334112919265
 31
0.0
  0
ARC
  5
2584
  8
0
 10
41.386593440241207
 20
16.032926861145199
 30
0.0
 40
0.0006865136832491
 50
318.71679747654628
 51
37.116483614793538
  0
LINE
  5
2585
  8
0
 10
41.387109326162388
 20
16.032473912192639
 30
0.0
 11
41.38585839136239
 21
16.03166402119265
 31
0.0
  0
LINE
  5
2586
  8
0
 10
41.38585839136239
 20
16.03166402119265
 30
0.0
 11
41.383542034562389
 21
16.030983156992651
 31
0.0
  0
ARC
  5
2587
  8
0
 10
41.375741998039523
 20
16.070650763557559
 30
0.0
 40
0.0404272133636075
 50
268.65703091970198
 51
281.12442359634969
  0
ARC
  5
2588
  8
0
 10
41.373823318739667
 20
16.070528995134278
 30
0.0
 40
0.0403060420530967
 50
258.76563643442358
 51
271.38068162415209
  0
LINE
  5
2589
  8
0
 10
41.36364703176239
 20
16.031690905492649
 30
0.0
 11
41.365970788762382
 21
16.03099527789265
 31
0.0
  0
LINE
  5
258A
  8
0
 10
41.36364703176239
 20
16.031690905492649
 30
0.0
 11
41.362427991900837
 21
16.032517626726179
 31
0.0
  0
ARC
  5
258B
  8
0
 10
41.379979463286162
 20
16.02289716709295
 30
0.0
 40
0.0006638580782373
 50
133.05548783862099
 51
220.2499181462683
  0
ARC
  5
258C
  8
0
 10
41.383916091065331
 20
16.01767276350661
 30
0.0
 40
0.0072020084572484
 50
96.730782179992374
 51
127.55560360247389
  0
ARC
  5
258D
  8
0
 10
41.390957720330199
 20
15.984155986436161
 30
0.0
 40
0.0414266149654034
 50
88.807991166337374
 51
100.9734633497665
  0
ARC
  5
258E
  8
0
 10
41.392271314439931
 20
15.979254090809251
 30
0.0
 40
0.0463217488139027
 50
79.587482346552946
 51
90.558833410978508
  0
ARC
  5
258F
  8
0
 10
36.252182933114661
 20
-1.177946405333308
 30
0.0
 40
17.956658237422701
 50
73.330813892773435
 51
73.338553590646526
  0
LINE
  5
2590
  8
0
 10
41.402966987594297
 20
16.02411738595984
 30
0.0
 11
41.404185666094293
 21
16.023291735659839
 31
0.0
  0
ARC
  5
2591
  8
0
 10
41.403638232973123
 20
16.0228774676124
 30
0.0
 40
0.0006865136832491
 50
318.71679747654628
 51
37.116483614793538
  0
LINE
  5
2592
  8
0
 10
41.40415411889429
 20
16.02242451865984
 30
0.0
 11
41.402903184094292
 21
16.021614627659851
 31
0.0
  0
LINE
  5
2593
  8
0
 10
41.402903184094292
 20
16.021614627659851
 30
0.0
 11
41.400586827294298
 21
16.020933763459841
 31
0.0
  0
ARC
  5
2594
  8
0
 10
41.392786790771417
 20
16.060601370024749
 30
0.0
 40
0.0404272133636075
 50
268.65703091970198
 51
281.12442359634969
  0
ARC
  5
2595
  8
0
 10
41.390868111471583
 20
16.060479601601479
 30
0.0
 40
0.0403060420530967
 50
258.76563643442358
 51
271.38068162415209
  0
LINE
  5
2596
  8
0
 10
41.380691824494292
 20
16.021641511959839
 30
0.0
 11
41.383015581494291
 21
16.02094588435984
 31
0.0
  0
LINE
  5
2597
  8
0
 10
41.380691824494292
 20
16.021641511959839
 30
0.0
 11
41.379472784632739
 21
16.022468233193379
 31
0.0
  0
ARC
  5
2598
  8
0
 10
41.37906103953474
 20
16.012515974872979
 30
0.0
 40
0.0006638580782373
 50
133.05548783862099
 51
220.2499181462683
  0
ARC
  5
2599
  8
0
 10
41.382997667313902
 20
16.00729157128664
 30
0.0
 40
0.0072020084572484
 50
96.730782179992374
 51
127.55560360247389
  0
ARC
  5
259A
  8
0
 10
41.39003929657877
 20
15.97377479421618
 30
0.0
 40
0.0414266149654034
 50
88.807991166337374
 51
100.9734633497665
  0
ARC
  5
259B
  8
0
 10
41.391352890688509
 20
15.96887289858928
 30
0.0
 40
0.0463217488139027
 50
79.587482346552946
 51
90.558833410978508
  0
ARC
  5
259C
  8
0
 10
36.251264509363232
 20
-1.1883275975532821
 30
0.0
 40
17.956658237422701
 50
73.330813892773435
 51
73.338553590646526
  0
LINE
  5
259D
  8
0
 10
41.402048563842861
 20
16.01373619373987
 30
0.0
 11
41.403267242342871
 21
16.012910543439869
 31
0.0
  0
ARC
  5
259E
  8
0
 10
41.402719809221693
 20
16.012496275392429
 30
0.0
 40
0.0006865136832491
 50
318.71679747654628
 51
37.116483614793538
  0
LINE
  5
259F
  8
0
 10
41.403235695142861
 20
16.012043326439859
 30
0.0
 11
41.40198476034287
 21
16.01123343543987
 31
0.0
  0
LINE
  5
25A0
  8
0
 10
41.40198476034287
 20
16.01123343543987
 30
0.0
 11
41.399668403542861
 21
16.01055257123987
 31
0.0
  0
ARC
  5
25A1
  8
0
 10
41.39186836702001
 20
16.050220177804778
 30
0.0
 40
0.0404272133636075
 50
268.65703091970198
 51
281.12442359634969
  0
ARC
  5
25A2
  8
0
 10
41.38994968772014
 20
16.050098409381508
 30
0.0
 40
0.0403060420530967
 50
258.76563643442358
 51
271.38068162415209
  0
LINE
  5
25A3
  8
0
 10
41.37977340074287
 20
16.011260319739868
 30
0.0
 11
41.382097157742862
 21
16.010564692139869
 31
0.0
  0
LINE
  5
25A4
  8
0
 10
41.37977340074287
 20
16.011260319739868
 30
0.0
 11
41.37855436088131
 21
16.012087040973402
 31
0.0
  0
ARC
  5
25A5
  8
0
 10
41.392378248967987
 20
16.005748124749591
 30
0.0
 40
0.0006638580782373
 50
133.05548783862099
 51
220.2499181462683
  0
ARC
  5
25A6
  8
0
 10
41.396314876747148
 20
16.000523721163251
 30
0.0
 40
0.0072020084572484
 50
96.730782179992374
 51
127.55560360247389
  0
ARC
  5
25A7
  8
0
 10
41.403356506012031
 20
15.967006944092789
 30
0.0
 40
0.0414266149654034
 50
88.807991166337374
 51
100.9734633497665
  0
ARC
  5
25A8
  8
0
 10
41.404670100121763
 20
15.96210504846588
 30
0.0
 40
0.0463217488139027
 50
79.587482346552946
 51
90.558833410978508
  0
ARC
  5
25A9
  8
0
 10
36.264581718796492
 20
-1.195095447676674
 30
0.0
 40
17.956658237422701
 50
73.330813892773435
 51
73.338553590646526
  0
LINE
  5
25AA
  8
0
 10
41.415365773276122
 20
16.006968343616482
 30
0.0
 11
41.416584451776117
 21
16.00614269331648
 31
0.0
  0
ARC
  5
25AB
  8
0
 10
41.41603701865494
 20
16.005728425269041
 30
0.0
 40
0.0006865136832491
 50
318.71679747654628
 51
37.116483614793538
  0
LINE
  5
25AC
  8
0
 10
41.416552904576122
 20
16.00527547631647
 30
0.0
 11
41.415301969776117
 21
16.004465585316481
 31
0.0
  0
LINE
  5
25AD
  8
0
 10
41.415301969776117
 20
16.004465585316481
 30
0.0
 11
41.412985612976122
 21
16.003784721116482
 31
0.0
  0
ARC
  5
25AE
  8
0
 10
41.405185576453263
 20
16.04345232768139
 30
0.0
 40
0.0404272133636075
 50
268.65703091970198
 51
281.12442359634969
  0
ARC
  5
25AF
  8
0
 10
41.403266897153387
 20
16.043330559258109
 30
0.0
 40
0.0403060420530967
 50
258.76563643442358
 51
271.38068162415209
  0
LINE
  5
25B0
  8
0
 10
41.393090610176117
 20
16.00449246961648
 30
0.0
 11
41.395414367176123
 21
16.003796842016481
 31
0.0
  0
LINE
  5
25B1
  8
0
 10
41.393090610176117
 20
16.00449246961648
 30
0.0
 11
41.391871570314557
 21
16.00531919085001
 31
0.0
  0
ARC
  5
25B2
  8
0
 10
41.37991082075024
 20
15.98872455851631
 30
0.0
 40
0.0006638580782373
 50
133.05548783862099
 51
220.2499181462683
  0
ARC
  5
25B3
  8
0
 10
41.383847448529409
 20
15.98350015492997
 30
0.0
 40
0.0072020084572484
 50
96.730782179992374
 51
127.55560360247389
  0
ARC
  5
25B4
  8
0
 10
41.390889077794277
 20
15.94998337785951
 30
0.0
 40
0.0414266149654034
 50
88.807991166337374
 51
100.9734633497665
  0
ARC
  5
25B5
  8
0
 10
41.392202671904023
 20
15.945081482232609
 30
0.0
 40
0.0463217488139027
 50
79.587482346552946
 51
90.558833410978508
  0
ARC
  5
25B6
  8
0
 10
36.252114290578739
 20
-1.2121190139099529
 30
0.0
 40
17.956658237422701
 50
73.330813892773435
 51
73.338553590646526
  0
LINE
  5
25B7
  8
0
 10
41.402898345058368
 20
15.989944777383201
 30
0.0
 11
41.404117023558371
 21
15.9891191270832
 31
0.0
  0
ARC
  5
25B8
  8
0
 10
41.403569590437201
 20
15.98870485903576
 30
0.0
 40
0.0006865136832491
 50
318.71679747654628
 51
37.116483614793538
  0
LINE
  5
25B9
  8
0
 10
41.404085476358368
 20
15.988251910083189
 30
0.0
 11
41.40283454155837
 21
15.987442019083201
 31
0.0
  0
LINE
  5
25BA
  8
0
 10
41.40283454155837
 20
15.987442019083201
 30
0.0
 11
41.400518184758369
 21
15.986761154883199
 31
0.0
  0
ARC
  5
25BB
  8
0
 10
41.39271814823551
 20
16.026428761448109
 30
0.0
 40
0.0404272133636075
 50
268.65703091970198
 51
281.12442359634969
  0
ARC
  5
25BC
  8
0
 10
41.390799468935647
 20
16.026306993024839
 30
0.0
 40
0.0403060420530967
 50
258.76563643442358
 51
271.38068162415209
  0
LINE
  5
25BD
  8
0
 10
41.380623181958377
 20
15.987468903383199
 30
0.0
 11
41.382946938958369
 21
15.9867732757832
 31
0.0
  0
LINE
  5
25BE
  8
0
 10
41.380623181958377
 20
15.987468903383199
 30
0.0
 11
41.379404142096817
 21
15.988295624616731
 31
0.0
  0
ARC
  5
25BF
  8
0
 10
41.379054182714007
 20
15.99883213467135
 30
0.0
 40
0.0006638580782373
 50
133.05548783862099
 51
220.2499181462683
  0
ARC
  5
25C0
  8
0
 10
41.382990810493183
 20
15.99360773108501
 30
0.0
 40
0.0072020084572484
 50
96.730782179992374
 51
127.55560360247389
  0
ARC
  5
25C1
  8
0
 10
41.390032439758052
 20
15.960090954014561
 30
0.0
 40
0.0414266149654034
 50
88.807991166337374
 51
100.9734633497665
  0
ARC
  5
25C2
  8
0
 10
41.391346033867777
 20
15.955189058387649
 30
0.0
 40
0.0463217488139027
 50
79.587482346552946
 51
90.558833410978508
  0
ARC
  5
25C3
  8
0
 10
36.251257652542513
 20
-1.202011437754904
 30
0.0
 40
17.956658237422701
 50
73.330813892773435
 51
73.338553590646526
  0
LINE
  5
25C4
  8
0
 10
41.402041707022143
 20
16.000052353538241
 30
0.0
 11
41.403260385522138
 21
15.99922670323825
 31
0.0
  0
ARC
  5
25C5
  8
0
 10
41.402712952400968
 20
15.998812435190811
 30
0.0
 40
0.0006865136832491
 50
318.71679747654628
 51
37.116483614793538
  0
LINE
  5
25C6
  8
0
 10
41.403228838322143
 20
15.99835948623824
 30
0.0
 11
41.401977903522138
 21
15.997549595238249
 31
0.0
  0
LINE
  5
25C7
  8
0
 10
41.401977903522138
 20
15.997549595238249
 30
0.0
 11
41.399661546722143
 21
15.99686873103825
 31
0.0
  0
ARC
  5
25C8
  8
0
 10
41.39186151019927
 20
16.03653633760316
 30
0.0
 40
0.0404272133636075
 50
268.65703091970198
 51
281.12442359634969
  0
ARC
  5
25C9
  8
0
 10
41.389942830899422
 20
16.036414569179879
 30
0.0
 40
0.0403060420530967
 50
258.76563643442358
 51
271.38068162415209
  0
LINE
  5
25CA
  8
0
 10
41.379766543922138
 20
15.99757647953825
 30
0.0
 11
41.382090300922137
 21
15.996880851938251
 31
0.0
  0
LINE
  5
25CB
  8
0
 10
41.379766543922138
 20
15.99757647953825
 30
0.0
 11
41.378547504060577
 21
15.998403200771779
 31
0.0
  0
ARC
  5
25CC
  8
0
 10
41.407377256277748
 20
15.992695273182489
 30
0.0
 40
0.0006638580782373
 50
133.05548783862099
 51
220.2499181462683
  0
ARC
  5
25CD
  8
0
 10
41.411313884056923
 20
15.98747086959615
 30
0.0
 40
0.0072020084572484
 50
96.730782179992374
 51
127.55560360247389
  0
ARC
  5
25CE
  8
0
 10
41.418355513321792
 20
15.9539540925257
 30
0.0
 40
0.0414266149654034
 50
88.807991166337374
 51
100.9734633497665
  0
ARC
  5
25CF
  8
0
 10
41.419669107431517
 20
15.949052196898791
 30
0.0
 40
0.0463217488139027
 50
79.587482346552946
 51
90.558833410978508
  0
ARC
  5
25D0
  8
0
 10
36.279580726106254
 20
-1.20814829924377
 30
0.0
 40
17.956658237422701
 50
73.330813892773435
 51
73.338553590646526
  0
LINE
  5
25D1
  8
0
 10
41.430364780585883
 20
15.99391549204938
 30
0.0
 11
41.431583459085878
 21
15.993089841749381
 31
0.0
  0
ARC
  5
25D2
  8
0
 10
41.431036025964708
 20
15.992675573701939
 30
0.0
 40
0.0006865136832491
 50
318.71679747654628
 51
37.116483614793538
  0
LINE
  5
25D3
  8
0
 10
41.431551911885883
 20
15.992222624749379
 30
0.0
 11
41.430300977085878
 21
15.99141273374938
 31
0.0
  0
LINE
  5
25D4
  8
0
 10
41.430300977085878
 20
15.99141273374938
 30
0.0
 11
41.427984620285883
 21
15.99073186954938
 31
0.0
  0
ARC
  5
25D5
  8
0
 10
41.42018458376301
 20
16.03039947611429
 30
0.0
 40
0.0404272133636075
 50
268.65703091970198
 51
281.12442359634969
  0
ARC
  5
25D6
  8
0
 10
41.418265904463162
 20
16.03027770769102
 30
0.0
 40
0.0403060420530967
 50
258.76563643442358
 51
271.38068162415209
  0
LINE
  5
25D7
  8
0
 10
41.408089617485892
 20
15.99143961804938
 30
0.0
 11
41.410413374485877
 21
15.99074399044938
 31
0.0
  0
LINE
  5
25D8
  8
0
 10
41.408089617485892
 20
15.99143961804938
 30
0.0
 11
41.406870577624332
 21
15.992266339282921
 31
0.0
  0
ARC
  5
25D9
  8
0
 10
41.4257712632078
 20
15.998671021931781
 30
0.0
 40
0.0006638580782373
 50
133.05548783862099
 51
220.2499181462683
  0
ARC
  5
25DA
  8
0
 10
41.429707890986968
 20
15.993446618345439
 30
0.0
 40
0.0072020084572484
 50
96.730782179992374
 51
127.55560360247389
  0
ARC
  5
25DB
  8
0
 10
41.436749520251837
 20
15.95992984127499
 30
0.0
 40
0.0414266149654034
 50
88.807991166337374
 51
100.9734633497665
  0
ARC
  5
25DC
  8
0
 10
41.438063114361569
 20
15.95502794564808
 30
0.0
 40
0.0463217488139027
 50
79.587482346552946
 51
90.558833410978508
  0
ARC
  5
25DD
  8
0
 10
36.297974733036298
 20
-1.20217255049448
 30
0.0
 40
17.956658237422701
 50
73.330813892773435
 51
73.338553590646526
  0
LINE
  5
25DE
  8
0
 10
41.448758787515942
 20
15.99989124079867
 30
0.0
 11
41.44997746601593
 21
15.99906559049867
 31
0.0
  0
ARC
  5
25DF
  8
0
 10
41.44943003289476
 20
15.998651322451231
 30
0.0
 40
0.0006865136832491
 50
318.71679747654628
 51
37.116483614793538
  0
LINE
  5
25E0
  8
0
 10
41.449945918815942
 20
15.998198373498671
 30
0.0
 11
41.44869498401593
 21
15.997388482498669
 31
0.0
  0
LINE
  5
25E1
  8
0
 10
41.44869498401593
 20
15.997388482498669
 30
0.0
 11
41.446378627215942
 21
15.99670761829867
 31
0.0
  0
ARC
  5
25E2
  8
0
 10
41.438578590693062
 20
16.03637522486358
 30
0.0
 40
0.0404272133636075
 50
268.65703091970198
 51
281.12442359634969
  0
ARC
  5
25E3
  8
0
 10
41.436659911393221
 20
16.03625345644031
 30
0.0
 40
0.0403060420530967
 50
258.76563643442358
 51
271.38068162415209
  0
LINE
  5
25E4
  8
0
 10
41.42648362441593
 20
15.99741536679867
 30
0.0
 11
41.428807381415929
 21
15.996719739198671
 31
0.0
  0
LINE
  5
25E5
  8
0
 10
41.42648362441593
 20
15.99741536679867
 30
0.0
 11
41.425264584554377
 21
15.99824208803221
 31
0.0
  0
ARC
  5
25E6
  8
0
 10
41.432487268247513
 20
16.005955063783251
 30
0.0
 40
0.0006638580782373
 50
133.05548783862099
 51
220.2499181462683
  0
ARC
  5
25E7
  8
0
 10
41.436423896026682
 20
16.000730660196911
 30
0.0
 40
0.0072020084572484
 50
96.730782179992374
 51
127.55560360247389
  0
ARC
  5
25E8
  8
0
 10
41.44346552529155
 20
15.96721388312646
 30
0.0
 40
0.0414266149654034
 50
88.807991166337374
 51
100.9734633497665
  0
ARC
  5
25E9
  8
0
 10
41.444779119401282
 20
15.96231198749955
 30
0.0
 40
0.0463217488139027
 50
79.587482346552946
 51
90.558833410978508
  0
ARC
  5
25EA
  8
0
 10
36.304690738076012
 20
-1.194888508643007
 30
0.0
 40
17.956658237422701
 50
73.330813892773435
 51
73.338553590646526
  0
LINE
  5
25EB
  8
0
 10
41.455474792555641
 20
16.007175282650142
 30
0.0
 11
41.456693471055637
 21
16.00634963235014
 31
0.0
  0
ARC
  5
25EC
  8
0
 10
41.456146037934467
 20
16.005935364302701
 30
0.0
 40
0.0006865136832491
 50
318.71679747654628
 51
37.116483614793538
  0
LINE
  5
25ED
  8
0
 10
41.456661923855641
 20
16.005482415350141
 30
0.0
 11
41.455410989055643
 21
16.004672524350148
 31
0.0
  0
LINE
  5
25EE
  8
0
 10
41.455410989055643
 20
16.004672524350148
 30
0.0
 11
41.453094632255642
 21
16.003991660150142
 31
0.0
  0
ARC
  5
25EF
  8
0
 10
41.445294595732769
 20
16.043659266715061
 30
0.0
 40
0.0404272133636075
 50
268.65703091970198
 51
281.12442359634969
  0
ARC
  5
25F0
  8
0
 10
41.44337591643292
 20
16.04353749829178
 30
0.0
 40
0.0403060420530967
 50
258.76563643442358
 51
271.38068162415209
  0
LINE
  5
25F1
  8
0
 10
41.433199629455643
 20
16.00469940865014
 30
0.0
 11
41.435523386455642
 21
16.004003781050141
 31
0.0
  0
LINE
  5
25F2
  8
0
 10
41.433199629455643
 20
16.00469940865014
 30
0.0
 11
41.431980589594083
 21
16.00552612988368
 31
0.0
  0
ARC
  5
25F3
  8
0
 10
41.425707173303529
 20
16.01291438713265
 30
0.0
 40
0.0006638580782373
 50
133.05548783862099
 51
220.2499181462683
  0
ARC
  5
25F4
  8
0
 10
41.429643801082698
 20
16.00768998354631
 30
0.0
 40
0.0072020084572484
 50
96.730782179992374
 51
127.55560360247389
  0
ARC
  5
25F5
  8
0
 10
41.436685430347573
 20
15.974173206475861
 30
0.0
 40
0.0414266149654034
 50
88.807991166337374
 51
100.9734633497665
  0
ARC
  5
25F6
  8
0
 10
41.437999024457312
 20
15.969271310848949
 30
0.0
 40
0.0463217488139027
 50
79.587482346552946
 51
90.558833410978508
  0
ARC
  5
25F7
  8
0
 10
36.297910643132028
 20
-1.1879291852936109
 30
0.0
 40
17.956658237422701
 50
73.330813892773435
 51
73.338553590646526
  0
LINE
  5
25F8
  8
0
 10
41.448694697611657
 20
16.014134605999541
 30
0.0
 11
41.44991337611166
 21
16.013308955699539
 31
0.0
  0
ARC
  5
25F9
  8
0
 10
41.449365942990489
 20
16.0128946876521
 30
0.0
 40
0.0006865136832491
 50
318.71679747654628
 51
37.116483614793538
  0
LINE
  5
25FA
  8
0
 10
41.449881828911657
 20
16.012441738699529
 30
0.0
 11
41.448630894111659
 21
16.01163184769954
 31
0.0
  0
LINE
  5
25FB
  8
0
 10
41.448630894111659
 20
16.01163184769954
 30
0.0
 11
41.446314537311657
 21
16.010950983499541
 31
0.0
  0
ARC
  5
25FC
  8
0
 10
41.438514500788791
 20
16.050618590064449
 30
0.0
 40
0.0404272133636075
 50
268.65703091970198
 51
281.12442359634969
  0
ARC
  5
25FD
  8
0
 10
41.436595821488943
 20
16.050496821641179
 30
0.0
 40
0.0403060420530967
 50
258.76563643442358
 51
271.38068162415209
  0
LINE
  5
25FE
  8
0
 10
41.426419534511673
 20
16.011658731999539
 30
0.0
 11
41.428743291511658
 21
16.01096310439954
 31
0.0
  0
LINE
  5
25FF
  8
0
 10
41.426419534511673
 20
16.011658731999539
 30
0.0
 11
41.425200494650113
 21
16.012485453233069
 31
0.0
  0
ARC
  5
2600
  8
0
 10
41.40751080633342
 20
16.018936633025831
 30
0.0
 40
0.0006638580782373
 50
133.05548783862099
 51
220.2499181462683
  0
ARC
  5
2601
  8
0
 10
41.411447434112588
 20
16.013712229439491
 30
0.0
 40
0.0072020084572484
 50
96.730782179992374
 51
127.55560360247389
  0
ARC
  5
2602
  8
0
 10
41.418489063377457
 20
15.98019545236904
 30
0.0
 40
0.0414266149654034
 50
88.807991166337374
 51
100.9734633497665
  0
ARC
  5
2603
  8
0
 10
41.419802657487203
 20
15.97529355674213
 30
0.0
 40
0.0463217488139027
 50
79.587482346552946
 51
90.558833410978508
  0
ARC
  5
2604
  8
0
 10
36.279714276161918
 20
-1.1819069394004269
 30
0.0
 40
17.956658237422701
 50
73.330813892773435
 51
73.338553590646526
  0
LINE
  5
2605
  8
0
 10
41.430498330641548
 20
16.020156851892722
 30
0.0
 11
41.431717009141551
 21
16.019331201592731
 31
0.0
  0
ARC
  5
2606
  8
0
 10
41.43116957602038
 20
16.018916933545281
 30
0.0
 40
0.0006865136832491
 50
318.71679747654628
 51
37.116483614793538
  0
LINE
  5
2607
  8
0
 10
41.431685461941548
 20
16.018463984592721
 30
0.0
 11
41.43043452714155
 21
16.017654093592729
 31
0.0
  0
LINE
  5
2608
  8
0
 10
41.43043452714155
 20
16.017654093592729
 30
0.0
 11
41.428118170341548
 21
16.016973229392718
 31
0.0
  0
ARC
  5
2609
  8
0
 10
41.420318133818689
 20
16.056640835957641
 30
0.0
 40
0.0404272133636075
 50
268.65703091970198
 51
281.12442359634969
  0
ARC
  5
260A
  8
0
 10
41.418399454518827
 20
16.05651906753436
 30
0.0
 40
0.0403060420530967
 50
258.76563643442358
 51
271.38068162415209
  0
LINE
  5
260B
  8
0
 10
41.408223167541557
 20
16.01768097789272
 30
0.0
 11
41.410546924541549
 21
16.016985350292721
 31
0.0
  0
LINE
  5
260C
  8
0
 10
41.408223167541557
 20
16.01768097789272
 30
0.0
 11
41.407004127679997
 21
16.01850769912626
 31
0.0
  0
ARC
  5
260D
  8
0
 10
41.347395572473928
 20
15.98706852951131
 30
0.0
 40
0.0006638580782373
 50
133.05548783862099
 51
220.2499181462683
  0
ARC
  5
260E
  8
0
 10
41.35133220025309
 20
15.981844125924971
 30
0.0
 40
0.0072020084572484
 50
96.730782179992374
 51
127.55560360247389
  0
ARC
  5
260F
  8
0
 10
41.358373829517973
 20
15.948327348854519
 30
0.0
 40
0.0414266149654034
 50
88.807991166337374
 51
100.9734633497665
  0
ARC
  5
2610
  8
0
 10
41.35968742362769
 20
15.94342545322761
 30
0.0
 40
0.0463217488139027
 50
79.587482346552946
 51
90.558833410978508
  0
ARC
  5
2611
  8
0
 10
36.21959904230242
 20
-1.2137750429149461
 30
0.0
 40
17.956658237422701
 50
73.330813892773435
 51
73.338553590646526
  0
LINE
  5
2612
  8
0
 10
41.370383096782056
 20
15.988288748378199
 30
0.0
 11
41.371601775282059
 21
15.98746309807821
 31
0.0
  0
ARC
  5
2613
  8
0
 10
41.371054342160882
 20
15.98704883003076
 30
0.0
 40
0.0006865136832491
 50
318.71679747654628
 51
37.116483614793538
  0
LINE
  5
2614
  8
0
 10
41.371570228082057
 20
15.9865958810782
 30
0.0
 11
41.370319293282051
 21
15.98578599007821
 31
0.0
  0
LINE
  5
2615
  8
0
 10
41.370319293282051
 20
15.98578599007821
 30
0.0
 11
41.368002936482057
 21
15.985105125878199
 31
0.0
  0
ARC
  5
2616
  8
0
 10
41.360202899959191
 20
16.024772732443122
 30
0.0
 40
0.0404272133636075
 50
268.65703091970198
 51
281.12442359634969
  0
ARC
  5
2617
  8
0
 10
41.358284220659343
 20
16.024650964019841
 30
0.0
 40
0.0403060420530967
 50
258.76563643442358
 51
271.38068162415209
  0
LINE
  5
2618
  8
0
 10
41.348107933682051
 20
15.98581287437821
 30
0.0
 11
41.350431690682058
 21
15.9851172467782
 31
0.0
  0
LINE
  5
2619
  8
0
 10
41.348107933682051
 20
15.98581287437821
 30
0.0
 11
41.346888893820498
 21
15.98663959561174
 31
0.0
  0
ARC
  5
261A
  8
0
 10
41.34711782477919
 20
15.996041789302041
 30
0.0
 40
0.0006638580782373
 50
133.05548783862099
 51
220.2499181462683
  0
ARC
  5
261B
  8
0
 10
41.351054452558358
 20
15.990817385715699
 30
0.0
 40
0.0072020084572484
 50
96.730782179992374
 51
127.55560360247389
  0
ARC
  5
261C
  8
0
 10
41.358096081823227
 20
15.957300608645239
 30
0.0
 40
0.0414266149654034
 50
88.807991166337374
 51
100.9734633497665
  0
ARC
  5
261D
  8
0
 10
41.359409675932952
 20
15.95239871301834
 30
0.0
 40
0.0463217488139027
 50
79.587482346552946
 51
90.558833410978508
  0
ARC
  5
261E
  8
0
 10
36.219321294607681
 20
-1.2048017831242219
 30
0.0
 40
17.956658237422701
 50
73.330813892773435
 51
73.338553590646526
  0
LINE
  5
261F
  8
0
 10
41.370105349087311
 20
15.99726200816893
 30
0.0
 11
41.37132402758732
 21
15.99643635786893
 31
0.0
  0
ARC
  5
2620
  8
0
 10
41.37077659446615
 20
15.996022089821491
 30
0.0
 40
0.0006865136832491
 50
318.71679747654628
 51
37.116483614793538
  0
LINE
  5
2621
  8
0
 10
41.371292480387311
 20
15.99556914086892
 30
0.0
 11
41.37004154558732
 21
15.994759249868929
 31
0.0
  0
LINE
  5
2622
  8
0
 10
41.37004154558732
 20
15.994759249868929
 30
0.0
 11
41.367725188787311
 21
15.99407838566893
 31
0.0
  0
ARC
  5
2623
  8
0
 10
41.359925152264452
 20
16.03374599223384
 30
0.0
 40
0.0404272133636075
 50
268.65703091970198
 51
281.12442359634969
  0
ARC
  5
2624
  8
0
 10
41.358006472964597
 20
16.03362422381057
 30
0.0
 40
0.0403060420530967
 50
258.76563643442358
 51
271.38068162415209
  0
LINE
  5
2625
  8
0
 10
41.347830185987313
 20
15.99478613416893
 30
0.0
 11
41.350153942987319
 21
15.994090506568931
 31
0.0
  0
LINE
  5
2626
  8
0
 10
41.347830185987313
 20
15.99478613416893
 30
0.0
 11
41.34661114612576
 21
15.995612855402459
 31
0.0
  0
ARC
  5
2627
  8
0
 10
41.347302996103068
 20
16.00575511427931
 30
0.0
 40
0.0006638580782373
 50
133.05548783862099
 51
220.2499181462683
  0
ARC
  5
2628
  8
0
 10
41.351239623882229
 20
16.000530710692971
 30
0.0
 40
0.0072020084572484
 50
96.730782179992374
 51
127.55560360247389
  0
ARC
  5
2629
  8
0
 10
41.358281253147112
 20
15.967013933622519
 30
0.0
 40
0.0414266149654034
 50
88.807991166337374
 51
100.9734633497665
  0
ARC
  5
262A
  8
0
 10
41.359594847256837
 20
15.96211203799561
 30
0.0
 40
0.0463217488139027
 50
79.587482346552946
 51
90.558833410978508
  0
ARC
  5
262B
  8
0
 10
36.219506465931573
 20
-1.195088458146951
 30
0.0
 40
17.956658237422701
 50
73.330813892773435
 51
73.338553590646526
  0
LINE
  5
262C
  8
0
 10
41.370290520411203
 20
16.006975333146201
 30
0.0
 11
41.371509198911198
 21
16.0061496828462
 31
0.0
  0
ARC
  5
262D
  8
0
 10
41.370961765790021
 20
16.00573541479876
 30
0.0
 40
0.0006865136832491
 50
318.71679747654628
 51
37.116483614793538
  0
LINE
  5
262E
  8
0
 10
41.371477651711203
 20
16.0052824658462
 30
0.0
 11
41.370226716911198
 21
16.004472574846201
 31
0.0
  0
LINE
  5
262F
  8
0
 10
41.370226716911198
 20
16.004472574846201
 30
0.0
 11
41.367910360111203
 21
16.003791710646201
 31
0.0
  0
ARC
  5
2630
  8
0
 10
41.360110323588337
 20
16.043459317211109
 30
0.0
 40
0.0404272133636075
 50
268.65703091970198
 51
281.12442359634969
  0
ARC
  5
2631
  8
0
 10
41.358191644288482
 20
16.043337548787839
 30
0.0
 40
0.0403060420530967
 50
258.76563643442358
 51
271.38068162415209
  0
LINE
  5
2632
  8
0
 10
41.348015357311198
 20
16.004499459146199
 30
0.0
 11
41.350339114311197
 21
16.0038038315462
 31
0.0
  0
LINE
  5
2633
  8
0
 10
41.348015357311198
 20
16.004499459146199
 30
0.0
 11
41.346796317449652
 21
16.005326180379729
 31
0.0
  0
ARC
  5
2634
  8
0
 10
41.347489449596679
 20
16.015669630739222
 30
0.0
 40
0.0006638580782373
 50
133.05548783862099
 51
220.2499181462683
  0
ARC
  5
2635
  8
0
 10
41.351426077375841
 20
16.010445227152879
 30
0.0
 40
0.0072020084572484
 50
96.730782179992374
 51
127.55560360247389
  0
ARC
  5
2636
  8
0
 10
41.358467706640717
 20
15.97692845008242
 30
0.0
 40
0.0414266149654034
 50
88.807991166337374
 51
100.9734633497665
  0
ARC
  5
2637
  8
0
 10
41.359781300750448
 20
15.972026554455519
 30
0.0
 40
0.0463217488139027
 50
79.587482346552946
 51
90.558833410978508
  0
ARC
  5
2638
  8
0
 10
36.219692919425178
 20
-1.185173941687043
 30
0.0
 40
17.956658237422701
 50
73.330813892773435
 51
73.338553590646526
  0
LINE
  5
2639
  8
0
 10
41.370476973904807
 20
16.016889849606109
 30
0.0
 11
41.371695652404817
 21
16.016064199306111
 31
0.0
  0
ARC
  5
263A
  8
0
 10
41.371148219283633
 20
16.015649931258672
 30
0.0
 40
0.0006865136832491
 50
318.71679747654628
 51
37.116483614793538
  0
LINE
  5
263B
  8
0
 10
41.371664105204808
 20
16.015196982306101
 30
0.0
 11
41.370413170404809
 21
16.014387091306109
 31
0.0
  0
LINE
  5
263C
  8
0
 10
41.370413170404809
 20
16.014387091306109
 30
0.0
 11
41.368096813604808
 21
16.013706227106109
 31
0.0
  0
ARC
  5
263D
  8
0
 10
41.360296777081949
 20
16.053373833671021
 30
0.0
 40
0.0404272133636075
 50
268.65703091970198
 51
281.12442359634969
  0
ARC
  5
263E
  8
0
 10
41.358378097782087
 20
16.05325206524774
 30
0.0
 40
0.0403060420530967
 50
258.76563643442358
 51
271.38068162415209
  0
LINE
  5
263F
  8
0
 10
41.348201810804809
 20
16.014413975606111
 30
0.0
 11
41.350525567804823
 21
16.013718348006108
 31
0.0
  0
LINE
  5
2640
  8
0
 10
41.348201810804809
 20
16.014413975606111
 30
0.0
 11
41.346982770943256
 21
16.015240696839641
 31
0.0
  0
ARC
  5
2641
  8
0
 10
41.347118753887692
 20
16.02429498238191
 30
0.0
 40
0.0006638580782373
 50
133.05548783862099
 51
220.2499181462683
  0
ARC
  5
2642
  8
0
 10
41.351055381666853
 20
16.019070578795571
 30
0.0
 40
0.0072020084572484
 50
96.730782179992374
 51
127.55560360247389
  0
ARC
  5
2643
  8
0
 10
41.358097010931722
 20
15.98555380172512
 30
0.0
 40
0.0414266149654034
 50
88.807991166337374
 51
100.9734633497665
  0
ARC
  5
2644
  8
0
 10
41.359410605041461
 20
15.98065190609821
 30
0.0
 40
0.0463217488139027
 50
79.587482346552946
 51
90.558833410978508
  0
ARC
  5
2645
  8
0
 10
36.21932222371619
 20
-1.1765485900443471
 30
0.0
 40
17.956658237422701
 50
73.330813892773435
 51
73.338553590646526
  0
LINE
  5
2646
  8
0
 10
41.37010627819582
 20
16.025515201248801
 30
0.0
 11
41.371324956695823
 21
16.0246895509488
 31
0.0
  0
ARC
  5
2647
  8
0
 10
41.370777523574638
 20
16.02427528290136
 30
0.0
 40
0.0006865136832491
 50
318.71679747654628
 51
37.116483614793538
  0
LINE
  5
2648
  8
0
 10
41.37129340949582
 20
16.0238223339488
 30
0.0
 11
41.370042474695822
 21
16.023012442948811
 31
0.0
  0
LINE
  5
2649
  8
0
 10
41.370042474695822
 20
16.023012442948811
 30
0.0
 11
41.36772611789582
 21
16.022331578748801
 31
0.0
  0
ARC
  5
264A
  8
0
 10
41.359926081372947
 20
16.06199918531372
 30
0.0
 40
0.0404272133636075
 50
268.65703091970198
 51
281.12442359634969
  0
ARC
  5
264B
  8
0
 10
41.358007402073099
 20
16.061877416890439
 30
0.0
 40
0.0403060420530967
 50
258.76563643442358
 51
271.38068162415209
  0
LINE
  5
264C
  8
0
 10
41.347831115095822
 20
16.023039327248799
 30
0.0
 11
41.350154872095821
 21
16.0223436996488
 31
0.0
  0
LINE
  5
264D
  8
0
 10
41.347831115095822
 20
16.023039327248799
 30
0.0
 11
41.346612075234269
 21
16.02386604848234
 31
0.0
  0
ARC
  5
264E
  8
0
 10
41.331682566239976
 20
16.032730056783151
 30
0.0
 40
0.0006638580782373
 50
133.05548783862099
 51
220.2499181462683
  0
ARC
  5
264F
  8
0
 10
41.335619194019131
 20
16.027505653196808
 30
0.0
 40
0.0072020084572484
 50
114.11649356680429
 51
127.55560360247389
  0
ARC
  5
2652
  8
0
 10
36.203886036068468
 20
-1.1681135156431131
 30
0.0
 40
17.956658237422701
 50
73.330813892773435
 51
73.334751273227482
  0
LINE
  5
2653
  8
0
 10
41.354670090548098
 20
16.033950275650039
 30
0.0
 11
41.355888769048107
 21
16.033124625350041
 31
0.0
  0
ARC
  5
2654
  8
0
 10
41.35534133592693
 20
16.032710357302602
 30
0.0
 40
0.0006865136832491
 50
318.71679747654628
 51
37.116483614793538
  0
LINE
  5
2655
  8
0
 10
41.35585722184809
 20
16.032257408350031
 30
0.0
 11
41.354606287048099
 21
16.031447517350038
 31
0.0
  0
LINE
  5
2656
  8
0
 10
41.354606287048099
 20
16.031447517350038
 30
0.0
 11
41.352289930248098
 21
16.030766653150039
 31
0.0
  0
ARC
  5
2657
  8
0
 10
41.344489893725239
 20
16.070434259714951
 30
0.0
 40
0.0404272133636075
 50
268.65703091970198
 51
281.12442359634969
  0
ARC
  5
2658
  8
0
 10
41.342571214425377
 20
16.070312491291681
 30
0.0
 40
0.0403060420530967
 50
258.76563643442358
 51
271.38068162415209
  0
LINE
  5
2659
  8
0
 10
41.3323949274481
 20
16.031474401650041
 30
0.0
 11
41.334718684448099
 21
16.030778774050042
 31
0.0
  0
LINE
  5
265A
  8
0
 10
41.3323949274481
 20
16.031474401650041
 30
0.0
 11
41.331175887586546
 21
16.03230112288357
 31
0.0
  0
ARC
  5
265B
  8
0
 10
41.315061407444098
 20
16.023072494595962
 30
0.0
 40
0.0006638580782373
 50
133.05548783862099
 51
220.2499181462683
  0
ARC
  5
265C
  8
0
 10
41.318998035223267
 20
16.017848091009618
 30
0.0
 40
0.0072020084572484
 50
96.730782179992374
 51
127.55560360247389
  0
ARC
  5
265D
  8
0
 10
41.326039664488142
 20
15.984331313939171
 30
0.0
 40
0.0414266149654034
 50
88.807991166337374
 51
100.9734633497665
  0
ARC
  5
265E
  8
0
 10
41.327353258597867
 20
15.979429418312259
 30
0.0
 40
0.0463217488139027
 50
79.587482346552946
 51
90.558833410978508
  0
ARC
  5
265F
  8
0
 10
36.187264877272597
 20
-1.1777710778303001
 30
0.0
 40
17.956658237422701
 50
73.330813892773435
 51
73.338553590646526
  0
LINE
  5
2660
  8
0
 10
41.338048931752233
 20
16.024292713462849
 30
0.0
 11
41.339267610252229
 21
16.023467063162851
 31
0.0
  0
ARC
  5
2661
  8
0
 10
41.338720177131059
 20
16.023052795115412
 30
0.0
 40
0.0006865136832491
 50
318.71679747654628
 51
37.116483614793538
  0
LINE
  5
2662
  8
0
 10
41.339236063052233
 20
16.022599846162851
 30
0.0
 11
41.337985128252228
 21
16.021789955162848
 31
0.0
  0
LINE
  5
2663
  8
0
 10
41.337985128252228
 20
16.021789955162848
 30
0.0
 11
41.335668771452227
 21
16.021109090962849
 31
0.0
  0
ARC
  5
2664
  8
0
 10
41.327868734929361
 20
16.060776697527761
 30
0.0
 40
0.0404272133636075
 50
268.65703091970198
 51
281.12442359634969
  0
ARC
  5
2665
  8
0
 10
41.325950055629519
 20
16.060654929104491
 30
0.0
 40
0.0403060420530967
 50
258.76563643442358
 51
271.38068162415209
  0
LINE
  5
2666
  8
0
 10
41.315773768652228
 20
16.021816839462851
 30
0.0
 11
41.318097525652227
 21
16.021121211862852
 31
0.0
  0
LINE
  5
2667
  8
0
 10
41.315773768652228
 20
16.021816839462851
 30
0.0
 11
41.314554728790682
 21
16.022643560696391
 31
0.0
  0
ARC
  5
2668
  8
0
 10
41.314968831073251
 20
16.01280412299516
 30
0.0
 40
0.0006638580782373
 50
133.05548783862099
 51
220.2499181462683
  0
ARC
  5
2669
  8
0
 10
41.318905458852413
 20
16.00757971940882
 30
0.0
 40
0.0072020084572484
 50
96.730782179992374
 51
127.55560360247389
  0
ARC
  5
266A
  8
0
 10
41.325947088117289
 20
15.97406294233836
 30
0.0
 40
0.0414266149654034
 50
88.807991166337374
 51
100.9734633497665
  0
ARC
  5
266B
  8
0
 10
41.327260682227013
 20
15.969161046711459
 30
0.0
 40
0.0463217488139027
 50
79.587482346552946
 51
90.558833410978508
  0
ARC
  5
266C
  8
0
 10
36.187172300901743
 20
-1.1880394494311011
 30
0.0
 40
17.956658237422701
 50
73.330813892773435
 51
73.338553590646526
  0
LINE
  5
266D
  8
0
 10
41.337956355381372
 20
16.014024341862051
 30
0.0
 11
41.339175033881368
 21
16.013198691562049
 31
0.0
  0
ARC
  5
266E
  8
0
 10
41.338627600760198
 20
16.01278442351461
 30
0.0
 40
0.0006865136832491
 50
318.71679747654628
 51
37.116483614793538
  0
LINE
  5
266F
  8
0
 10
41.339143486681373
 20
16.012331474562039
 30
0.0
 11
41.337892551881367
 21
16.01152158356205
 31
0.0
  0
LINE
  5
2670
  8
0
 10
41.337892551881367
 20
16.01152158356205
 30
0.0
 11
41.335576195081373
 21
16.010840719362051
 31
0.0
  0
ARC
  5
2671
  8
0
 10
41.327776158558507
 20
16.050508325926959
 30
0.0
 40
0.0404272133636075
 50
268.65703091970198
 51
281.12442359634969
  0
ARC
  5
2672
  8
0
 10
41.325857479258651
 20
16.050386557503689
 30
0.0
 40
0.0403060420530967
 50
258.76563643442358
 51
271.38068162415209
  0
LINE
  5
2673
  8
0
 10
41.315681192281367
 20
16.011548467862049
 30
0.0
 11
41.318004949281367
 21
16.01085284026205
 31
0.0
  0
LINE
  5
2674
  8
0
 10
41.315681192281367
 20
16.011548467862049
 30
0.0
 11
41.314462152419807
 21
16.012375189095579
 31
0.0
  0
ARC
  5
2675
  8
0
 10
41.302095902742117
 20
16.005952897119691
 30
0.0
 40
0.0006638580782373
 50
133.05548783862099
 51
220.2499181462683
  0
ARC
  5
2676
  8
0
 10
41.306032530521293
 20
16.000728493533352
 30
0.0
 40
0.0072020084572484
 50
96.730782179992374
 51
127.55560360247389
  0
ARC
  5
2677
  8
0
 10
41.313074159786161
 20
15.9672117164629
 30
0.0
 40
0.0414266149654034
 50
88.807991166337374
 51
100.9734633497665
  0
ARC
  5
2678
  8
0
 10
41.314387753895893
 20
15.962309820835991
 30
0.0
 40
0.0463217488139027
 50
79.587482346552946
 51
90.558833410978508
  0
ARC
  5
2679
  8
0
 10
36.174299372570623
 20
-1.194890675306566
 30
0.0
 40
17.956658237422701
 50
73.330813892773435
 51
73.338553590646526
  0
LINE
  5
267A
  8
0
 10
41.325083427050252
 20
16.007173115986578
 30
0.0
 11
41.326302105550248
 21
16.006347465686581
 31
0.0
  0
ARC
  5
267B
  8
0
 10
41.325754672429078
 20
16.005933197639141
 30
0.0
 40
0.0006865136832491
 50
318.71679747654628
 51
37.116483614793538
  0
LINE
  5
267C
  8
0
 10
41.326270558350252
 20
16.005480248686581
 30
0.0
 11
41.325019623550247
 21
16.004670357686589
 31
0.0
  0
LINE
  5
267D
  8
0
 10
41.325019623550247
 20
16.004670357686589
 30
0.0
 11
41.322703266750253
 21
16.003989493486579
 31
0.0
  0
ARC
  5
267E
  8
0
 10
41.31490323022738
 20
16.043657100051501
 30
0.0
 40
0.0404272133636075
 50
268.65703091970198
 51
281.12442359634969
  0
ARC
  5
267F
  8
0
 10
41.312984550927531
 20
16.04353533162822
 30
0.0
 40
0.0403060420530967
 50
258.76563643442358
 51
271.38068162415209
  0
LINE
  5
2680
  8
0
 10
41.302808263950247
 20
16.00469724198658
 30
0.0
 11
41.305132020950253
 21
16.004001614386581
 31
0.0
  0
LINE
  5
2681
  8
0
 10
41.302808263950247
 20
16.00469724198658
 30
0.0
 11
41.301589224088687
 21
16.005523963220121
 31
0.0
  0
ARC
  5
2682
  8
0
 10
41.315335382958331
 20
15.99882979576258
 30
0.0
 40
0.0006638580782373
 50
133.05548783862099
 51
220.2499181462683
  0
ARC
  5
2683
  8
0
 10
41.3192720107375
 20
15.99360539217624
 30
0.0
 40
0.0072020084572484
 50
96.730782179992374
 51
127.55560360247389
  0
ARC
  5
2684
  8
0
 10
41.326313640002368
 20
15.96008861510578
 30
0.0
 40
0.0414266149654034
 50
88.807991166337374
 51
100.9734633497665
  0
ARC
  5
2685
  8
0
 10
41.3276272341121
 20
15.955186719478871
 30
0.0
 40
0.0463217488139027
 50
79.587482346552946
 51
90.558833410978508
  0
ARC
  5
2686
  8
0
 10
36.18753885278683
 20
-1.2020137766636829
 30
0.0
 40
17.956658237422701
 50
73.330813892773435
 51
73.338553590646526
  0
LINE
  5
2687
  8
0
 10
41.338322907266473
 20
16.000050014629469
 30
0.0
 11
41.339541585766469
 21
15.99922436432947
 31
0.0
  0
ARC
  5
2688
  8
0
 10
41.338994152645292
 20
15.99881009628203
 30
0.0
 40
0.0006865136832491
 50
318.71679747654628
 51
37.116483614793538
  0
LINE
  5
2689
  8
0
 10
41.339510038566473
 20
15.998357147329459
 30
0.0
 11
41.338259103766461
 21
15.99754725632947
 31
0.0
  0
LINE
  5
268A
  8
0
 10
41.338259103766461
 20
15.99754725632947
 30
0.0
 11
41.335942746966467
 21
15.996866392129469
 31
0.0
  0
ARC
  5
268B
  8
0
 10
41.328142710443601
 20
16.036533998694381
 30
0.0
 40
0.0404272133636075
 50
268.65703091970198
 51
281.12442359634969
  0
ARC
  5
268C
  8
0
 10
41.326224031143752
 20
16.036412230271111
 30
0.0
 40
0.0403060420530967
 50
258.76563643442358
 51
271.38068162415209
  0
LINE
  5
268D
  8
0
 10
41.316047744166461
 20
15.997574140629469
 30
0.0
 11
41.318371501166467
 21
15.99687851302947
 31
0.0
  0
LINE
  5
268E
  8
0
 10
41.316047744166461
 20
15.997574140629469
 30
0.0
 11
41.314828704304908
 21
15.998400861863001
 31
0.0
  0
ARC
  5
268F
  8
0
 10
41.314965058892739
 20
15.988468919413039
 30
0.0
 40
0.0006638580782373
 50
133.05548783862099
 51
220.2499181462683
  0
ARC
  5
2690
  8
0
 10
41.3189016866719
 20
15.983244515826691
 30
0.0
 40
0.0072020084572484
 50
96.730782179992374
 51
127.55560360247389
  0
ARC
  5
2691
  8
0
 10
41.325943315936783
 20
15.94972773875624
 30
0.0
 40
0.0414266149654034
 50
88.807991166337374
 51
100.9734633497665
  0
ARC
  5
2692
  8
0
 10
41.327256910046501
 20
15.94482584312934
 30
0.0
 40
0.0463217488139027
 50
79.587482346552946
 51
90.558833410978508
  0
ARC
  5
2693
  8
0
 10
36.18716852872123
 20
-1.212374653013224
 30
0.0
 40
17.956658237422701
 50
73.330813892773435
 51
73.338553590646526
  0
LINE
  5
2694
  8
0
 10
41.337952583200867
 20
15.98968913827993
 30
0.0
 11
41.339171261700869
 21
15.988863487979931
 31
0.0
  0
ARC
  5
2695
  8
0
 10
41.338623828579692
 20
15.988449219932489
 30
0.0
 40
0.0006865136832491
 50
318.71679747654628
 51
37.116483614793538
  0
LINE
  5
2696
  8
0
 10
41.339139714500867
 20
15.98799627097992
 30
0.0
 11
41.337888779700862
 21
15.98718637997993
 31
0.0
  0
LINE
  5
2697
  8
0
 10
41.337888779700862
 20
15.98718637997993
 30
0.0
 11
41.335572422900867
 21
15.98650551577993
 31
0.0
  0
ARC
  5
2698
  8
0
 10
41.327772386378001
 20
16.02617312234484
 30
0.0
 40
0.0404272133636075
 50
268.65703091970198
 51
281.12442359634969
  0
ARC
  5
2699
  8
0
 10
41.325853707078153
 20
16.026051353921559
 30
0.0
 40
0.0403060420530967
 50
258.76563643442358
 51
271.38068162415209
  0
LINE
  5
269A
  8
0
 10
41.315677420100862
 20
15.98721326427993
 30
0.0
 11
41.318001177100868
 21
15.986517636679929
 31
0.0
  0
LINE
  5
269B
  8
0
 10
41.315677420100862
 20
15.98721326427993
 30
0.0
 11
41.314458380239309
 21
15.98803998551346
 31
0.0
  0
ARC
  5
269C
  8
0
 10
41.287354927444753
 20
15.992823759051159
 30
0.0
 40
0.0006638580782373
 50
133.05548783862099
 51
220.2499181462683
  0
ARC
  5
269D
  8
0
 10
41.291291555223907
 20
15.98759935546482
 30
0.0
 40
0.0072020084572484
 50
96.730782179992374
 51
127.55560360247389
  0
ARC
  5
269E
  8
0
 10
41.29833318448879
 20
15.95408257839437
 30
0.0
 40
0.0414266149654034
 50
88.807991166337374
 51
100.9734633497665
  0
ARC
  5
269F
  8
0
 10
41.299646778598508
 20
15.94918068276746
 30
0.0
 40
0.0463217488139027
 50
79.587482346552946
 51
90.558833410978508
  0
ARC
  5
26A0
  8
0
 10
36.159558397273237
 20
-1.2080198133750979
 30
0.0
 40
17.956658237422701
 50
73.330813892773435
 51
73.338553590646526
  0
LINE
  5
26A1
  8
0
 10
41.310342451752867
 20
15.99404397791805
 30
0.0
 11
41.311561130252869
 21
15.993218327618051
 31
0.0
  0
ARC
  5
26A2
  8
0
 10
41.311013697131699
 20
15.992804059570609
 30
0.0
 40
0.0006865136832491
 50
318.71679747654628
 51
37.116483614793538
  0
LINE
  5
26A3
  8
0
 10
41.311529583052867
 20
15.992351110618049
 30
0.0
 11
41.310278648252869
 21
15.99154121961805
 31
0.0
  0
LINE
  5
26A4
  8
0
 10
41.310278648252869
 20
15.99154121961805
 30
0.0
 11
41.307962291452881
 21
15.99086035541805
 31
0.0
  0
ARC
  5
26A5
  8
0
 10
41.300162254930008
 20
16.030527961982958
 30
0.0
 40
0.0404272133636075
 50
268.65703091970198
 51
281.12442359634969
  0
ARC
  5
26A6
  8
0
 10
41.298243575630153
 20
16.030406193559688
 30
0.0
 40
0.0403060420530967
 50
258.76563643442358
 51
271.38068162415209
  0
LINE
  5
26A7
  8
0
 10
41.288067288652883
 20
15.99156810391805
 30
0.0
 11
41.290391045652868
 21
15.990872476318049
 31
0.0
  0
LINE
  5
26A8
  8
0
 10
41.288067288652883
 20
15.99156810391805
 30
0.0
 11
41.286848248791323
 21
15.992394825151591
 31
0.0
  0
ARC
  5
26A9
  8
0
 10
41.268838148117609
 20
15.998651748598199
 30
0.0
 40
0.0006638580782373
 50
133.05548783862099
 51
220.2499181462683
  0
ARC
  5
26AA
  8
0
 10
41.272774775896778
 20
15.99342734501186
 30
0.0
 40
0.0072020084572484
 50
96.730782179992374
 51
127.55560360247389
  0
ARC
  5
26AB
  8
0
 10
41.279816405161647
 20
15.95991056794141
 30
0.0
 40
0.0414266149654034
 50
88.807991166337374
 51
100.9734633497665
  0
ARC
  5
26AC
  8
0
 10
41.281129999271393
 20
15.9550086723145
 30
0.0
 40
0.0463217488139027
 50
79.587482346552946
 51
90.558833410978508
  0
ARC
  5
26AD
  8
0
 10
36.141041617946108
 20
-1.202191823828058
 30
0.0
 40
17.956658237422701
 50
73.330813892773435
 51
73.338553590646526
  0
LINE
  5
26AE
  8
0
 10
41.291825672425738
 20
15.99987196746509
 30
0.0
 11
41.29304435092574
 21
15.999046317165091
 31
0.0
  0
ARC
  5
26AF
  8
0
 10
41.29249691780457
 20
15.998632049117649
 30
0.0
 40
0.0006865136832491
 50
318.71679747654628
 51
37.116483614793538
  0
LINE
  5
26B0
  8
0
 10
41.293012803725738
 20
15.998179100165091
 30
0.0
 11
41.29176186892574
 21
15.9973692091651
 31
0.0
  0
LINE
  5
26B1
  8
0
 10
41.29176186892574
 20
15.9973692091651
 30
0.0
 11
41.289445512125738
 21
15.99668834496509
 31
0.0
  0
ARC
  5
26B2
  8
0
 10
41.281645475602879
 20
16.036355951529998
 30
0.0
 40
0.0404272133636075
 50
268.65703091970198
 51
281.12442359634969
  0
ARC
  5
26B3
  8
0
 10
41.279726796303017
 20
16.036234183106728
 30
0.0
 40
0.0403060420530967
 50
258.76563643442358
 51
271.38068162415209
  0
LINE
  5
26B4
  8
0
 10
41.269550509325747
 20
15.99739609346509
 30
0.0
 11
41.271874266325739
 21
15.996700465865089
 31
0.0
  0
LINE
  5
26B5
  8
0
 10
41.269550509325747
 20
15.99739609346509
 30
0.0
 11
41.268331469464187
 21
15.998222814698631
 31
0.0
  0
ARC
  5
26B6
  8
0
 10
41.262264705486018
 20
16.00577485902086
 30
0.0
 40
0.0006638580782373
 50
133.05548783862099
 51
220.2499181462683
  0
ARC
  5
26B7
  8
0
 10
41.26620133326518
 20
16.000550455434521
 30
0.0
 40
0.0072020084572484
 50
96.730782179992374
 51
127.55560360247389
  0
ARC
  5
26B8
  8
0
 10
41.273242962530063
 20
15.967033678364061
 30
0.0
 40
0.0414266149654034
 50
88.807991166337374
 51
100.9734633497665
  0
ARC
  5
26B9
  8
0
 10
41.274556556639787
 20
15.962131782737149
 30
0.0
 40
0.0463217488139027
 50
79.587482346552946
 51
90.558833410978508
  0
ARC
  5
26BA
  8
0
 10
36.134468175314517
 20
-1.1950687134054041
 30
0.0
 40
17.956658237422701
 50
73.330813892773435
 51
73.338553590646526
  0
LINE
  5
26BB
  8
0
 10
41.285252229794153
 20
16.006995077887751
 30
0.0
 11
41.286470908294149
 21
16.00616942758775
 31
0.0
  0
ARC
  5
26BC
  8
0
 10
41.285923475172972
 20
16.0057551595403
 30
0.0
 40
0.0006865136832491
 50
318.71679747654628
 51
37.116483614793538
  0
LINE
  5
26BD
  8
0
 10
41.286439361094153
 20
16.00530221058774
 30
0.0
 11
41.285188426294148
 21
16.004492319587751
 31
0.0
  0
LINE
  5
26BE
  8
0
 10
41.285188426294148
 20
16.004492319587751
 30
0.0
 11
41.282872069494147
 21
16.003811455387751
 31
0.0
  0
ARC
  5
26BF
  8
0
 10
41.275072032971288
 20
16.043479061952659
 30
0.0
 40
0.0404272133636075
 50
268.65703091970198
 51
281.12442359634969
  0
ARC
  5
26C0
  8
0
 10
41.273153353671432
 20
16.043357293529379
 30
0.0
 40
0.0403060420530967
 50
258.76563643442358
 51
271.38068162415209
  0
LINE
  5
26C1
  8
0
 10
41.262977066694148
 20
16.00451920388775
 30
0.0
 11
41.265300823694147
 21
16.003823576287751
 31
0.0
  0
LINE
  5
26C2
  8
0
 10
41.262977066694148
 20
16.00451920388775
 30
0.0
 11
41.261758026832602
 21
16.005345925121279
 31
0.0
  0
ARC
  5
26C3
  8
0
 10
41.268652995375902
 20
16.01289796037797
 30
0.0
 40
0.0006638580782373
 50
133.05548783862099
 51
220.2499181462683
  0
ARC
  5
26C4
  8
0
 10
41.272589623155071
 20
16.00767355679163
 30
0.0
 40
0.0072020084572484
 50
96.730782179992374
 51
127.55560360247389
  0
ARC
  5
26C5
  8
0
 10
41.279631252419939
 20
15.974156779721181
 30
0.0
 40
0.0414266149654034
 50
88.807991166337374
 51
100.9734633497665
  0
ARC
  5
26C6
  8
0
 10
41.280944846529671
 20
15.969254884094269
 30
0.0
 40
0.0463217488139027
 50
79.587482346552946
 51
90.558833410978508
  0
ARC
  5
26C7
  8
0
 10
36.140856465204401
 20
-1.1879456120482881
 30
0.0
 40
17.956658237422701
 50
73.330813892773435
 51
73.338553590646526
  0
LINE
  5
26C8
  8
0
 10
41.291640519684037
 20
16.014118179244861
 30
0.0
 11
41.292859198184033
 21
16.013292528944859
 31
0.0
  0
ARC
  5
26C9
  8
0
 10
41.292311765062863
 20
16.01287826089742
 30
0.0
 40
0.0006865136832491
 50
318.71679747654628
 51
37.116483614793538
  0
LINE
  5
26CA
  8
0
 10
41.29282765098403
 20
16.01242531194486
 30
0.0
 11
41.291576716184032
 21
16.011615420944871
 31
0.0
  0
LINE
  5
26CB
  8
0
 10
41.291576716184032
 20
16.011615420944871
 30
0.0
 11
41.289260359384038
 21
16.010934556744861
 31
0.0
  0
ARC
  5
26CC
  8
0
 10
41.281460322861157
 20
16.050602163309769
 30
0.0
 40
0.0404272133636075
 50
268.65703091970198
 51
281.12442359634969
  0
ARC
  5
26CD
  8
0
 10
41.279541643561323
 20
16.050480394886499
 30
0.0
 40
0.0403060420530967
 50
258.76563643442358
 51
271.38068162415209
  0
LINE
  5
26CE
  8
0
 10
41.269365356584032
 20
16.011642305244859
 30
0.0
 11
41.271689113584031
 21
16.01094667764486
 31
0.0
  0
LINE
  5
26CF
  8
0
 10
41.269365356584032
 20
16.011642305244859
 30
0.0
 11
41.268146316722479
 21
16.012469026478399
 31
0.0
  0
ARC
  5
26D0
  8
0
 10
41.287169756120861
 20
16.018910968488029
 30
0.0
 40
0.0006638580782373
 50
133.05548783862099
 51
220.2499181462683
  0
ARC
  5
26D1
  8
0
 10
41.291106383900022
 20
16.01368656490169
 30
0.0
 40
0.0072020084572484
 50
96.730782179992374
 51
127.55560360247389
  0
ARC
  5
26D2
  8
0
 10
41.298148013164912
 20
15.98016978783124
 30
0.0
 40
0.0414266149654034
 50
88.807991166337374
 51
100.9734633497665
  0
ARC
  5
26D3
  8
0
 10
41.29946160727463
 20
15.975267892204331
 30
0.0
 40
0.0463217488139027
 50
79.587482346552946
 51
90.558833410978508
  0
ARC
  5
26D4
  8
0
 10
36.159373225949359
 20
-1.181932603938225
 30
0.0
 40
17.956658237422701
 50
73.330813892773435
 51
73.338553590646526
  0
LINE
  5
26D5
  8
0
 10
41.310157280428989
 20
16.020131187354931
 30
0.0
 11
41.311375958928998
 21
16.01930553705493
 31
0.0
  0
ARC
  5
26D6
  8
0
 10
41.310828525807821
 20
16.018891269007479
 30
0.0
 40
0.0006865136832491
 50
318.71679747654628
 51
37.116483614793538
  0
LINE
  5
26D7
  8
0
 10
41.311344411728989
 20
16.018438320054919
 30
0.0
 11
41.310093476928991
 21
16.01762842905493
 31
0.0
  0
LINE
  5
26D8
  8
0
 10
41.310093476928991
 20
16.01762842905493
 30
0.0
 11
41.307777120128989
 21
16.016947564854931
 31
0.0
  0
ARC
  5
26D9
  8
0
 10
41.299977083606137
 20
16.056615171419839
 30
0.0
 40
0.0404272133636075
 50
268.65703091970198
 51
281.12442359634969
  0
ARC
  5
26DA
  8
0
 10
41.298058404306268
 20
16.056493402996558
 30
0.0
 40
0.0403060420530967
 50
258.76563643442358
 51
271.38068162415209
  0
LINE
  5
26DB
  8
0
 10
41.287882117328991
 20
16.017655313354929
 30
0.0
 11
41.290205874328997
 21
16.01695968575493
 31
0.0
  0
LINE
  5
26DC
  8
0
 10
41.287882117328991
 20
16.017655313354929
 30
0.0
 11
41.286663077467438
 21
16.018482034588459
 31
0.0
  0
ARC
  5
26DD
  8
0
 10
41.301270519915811
 20
16.031160767511249
 30
0.0
 40
0.0006638580782373
 50
133.05548783862099
 51
220.2499181462683
  0
ARC
  5
26DE
  8
0
 10
41.305207147694972
 20
16.02593636392491
 30
0.0
 40
0.0072020084572484
 50
96.730782179992374
 51
127.55560360247389
  0
ARC
  5
26DF
  8
0
 10
41.312248776959841
 20
15.99241958685446
 30
0.0
 40
0.0414266149654034
 50
98.840247307489292
 51
100.9734633497665
  0
ARC
  5
26E0
  8
0
 10
41.313562371069573
 20
15.98751769122755
 30
0.0
 40
0.0463217488139027
 50
79.587482346552946
 51
85.776197134889543
  0
ARC
  5
26E1
  8
0
 10
36.173473989744302
 20
-1.1696828049150081
 30
0.0
 40
17.956658237422701
 50
73.330813892773435
 51
73.338553590646526
  0
LINE
  5
26E2
  8
0
 10
41.324258044223939
 20
16.03238098637814
 30
0.0
 11
41.325476722723927
 21
16.031555336078139
 31
0.0
  0
ARC
  5
26E3
  8
0
 10
41.324929289602757
 20
16.031141068030699
 30
0.0
 40
0.0006865136832491
 50
318.71679747654628
 51
37.116483614793538
  0
LINE
  5
26E4
  8
0
 10
41.325445175523932
 20
16.030688119078139
 30
0.0
 11
41.324194240723934
 21
16.02987822807814
 31
0.0
  0
LINE
  5
26E5
  8
0
 10
41.324194240723934
 20
16.02987822807814
 30
0.0
 11
41.321877883923939
 21
16.02919736387814
 31
0.0
  0
ARC
  5
26E6
  8
0
 10
41.314077847401073
 20
16.068864970443052
 30
0.0
 40
0.0404272133636075
 50
268.65703091970198
 51
281.12442359634969
  0
ARC
  5
26E7
  8
0
 10
41.312159168101218
 20
16.068743202019778
 30
0.0
 40
0.0403060420530967
 50
258.76563643442358
 51
271.38068162415209
  0
LINE
  5
26E8
  8
0
 10
41.301982881123926
 20
16.029905112378142
 30
0.0
 11
41.304306638123933
 21
16.029209484778139
 31
0.0
  0
LINE
  5
26E9
  8
0
 10
41.301982881123926
 20
16.029905112378142
 30
0.0
 11
41.300763841262381
 21
16.030731833611679
 31
0.0
  0
ARC
  5
26EB
  8
0
 10
40.68422168924959
 20
16.056955403188351
 30
0.0
 40
0.0433251220306506
 50
122.71424541155891
 51
213.34694930730529
  0
ARC
  5
26EC
  8
0
 10
40.749433131370957
 20
16.110239932440901
 30
0.0
 40
0.1273858804219642
 50
217.24705288081699
 51
246.9464118407042
  0
ARC
  5
26ED
  8
0
 10
40.914645427442757
 20
16.439141950078621
 30
0.0
 40
0.4952620139586971
 50
244.2588191217053
 51
255.52480695691969
  0
ARC
  5
26EE
  8
0
 10
40.957007701627333
 20
16.39232619896918
 30
0.0
 40
0.4601532117850195
 50
253.9593322273592
 51
260.45842323160031
  0
ARC
  5
26EF
  8
0
 10
42.029033797641652
 20
16.054777516219438
 30
0.0
 40
0.0465709647225764
 50
332.31369088463759
 51
66.905988249956465
  0
ARC
  5
26F0
  8
0
 10
41.968869213213637
 20
16.110239905813678
 30
0.0
 40
0.1273858804219642
 50
293.0535856571106
 51
322.75294461699792
  0
ARC
  5
26F1
  8
0
 10
41.803656931505436
 20
16.439141930666441
 30
0.0
 40
0.4952620139586971
 50
284.47519054089531
 51
295.74117837610947
  0
ARC
  5
26F2
  8
0
 10
41.761294655276373
 20
16.392326181407022
 30
0.0
 40
0.4601532117850195
 50
279.5415742662147
 51
286.04066527045552
  0
ATTDEF
  5
2897
  8
DEFPOINTS
 10
41.354598261113779
 20
6.4258926043394151
 30
0.0
 40
0.001
  1
METAL
  3

  2
MATERIAL
 70
     0
1001
ACDBATTR
1070
     0
1070
     1
  0
ATTDEF
  5
2898
  8
DEFPOINTS
 10
41.354598261113779
 20
6.4275592710060803
 30
0.0
 40
0.001
  1
KITCHEN SINK FAUCET
  3

  2
PRODUCT
 70
     0
1001
ACDBATTR
1070
     0
1070
     1
  0
ATTDEF
  5
2899
  8
DEFPOINTS
 10
41.354598261113779
 20
6.4292259376727454
 30
0.0
 40
0.001
  1
SENSATE
  3

  2
TRADENAME
 70
     0
1001
ACDBATTR
1070
     0
1070
     1
  0
ATTDEF
  5
289A
  8
DEFPOINTS
 10
41.354598261113779
 20
6.4308926043394097
 30
0.0
 40
0.001
  1
K-72218
  3

  2
MODELNUMBER
 70
     0
1001
ACDBATTR
1070
     0
1070
     1
  0
ARC
  5
296D
  8
0
 10
43.293716068168521
 20
7.9977380687557433
 30
0.0
 40
0.0467561278256226
 50
212.83653755901389
 51
291.37707309805597
  0
ENDSEC
  0
EOF
