  0
SECTION
  2
HEADER
  9
$ACADVER
  1
AC1009
  9
$INSBASE
 10
41.359151192196862
 20
37.173964536200003
 30
0.0
  9
$EXTMIN
 10
40.346584570146092
 20
27.839646697780669
 30
-0.0000000000000053
  9
$EXTMAX
 10
44.28642987715881
 20
38.188177855416562
 30
0.0000000000000099
  9
$LIMMIN
 10
0.0
 20
0.0
  9
$LIMMAX
 10
11.692913385800001
 20
8.2677165353999982
  9
$ORTHOMODE
 70
     0
  9
$REGENMODE
 70
     1
  9
$FILLMODE
 70
     1
  9
$QTEXTMODE
 70
     0
  9
$MIRRTEXT
 70
     0
  9
$DRAGMODE
 70
     2
  9
$LTSCALE
 40
0.6431102362
  9
$OSMODE
 70
  3071
  9
$ATTMODE
 70
     1
  9
$TEXTSIZE
 40
0.2
  9
$TRACEWID
 40
0.05
  9
$TEXTSTYLE
  7
STANDARD
  9
$CLAYER
  8
0
  9
$CELTYPE
  6
BYLAYER
  9
$CECOLOR
 62
   256
  9
$DIMSCALE
 40
1.0
  9
$DIMASZ
 40
0.1875
  9
$DIMEXO
 40
0.0625
  9
$DIMDLI
 40
0.38
  9
$DIMRND
 40
0.0
  9
$DIMDLE
 40
0.0
  9
$DIMEXE
 40
0.125
  9
$DIMTP
 40
1.5
  9
$DIMTM
 40
1.5
  9
$DIMTXT
 40
0.15625
  9
$DIMCEN
 40
0.09
  9
$DIMTSZ
 40
0.0
  9
$DIMTOL
 70
     0
  9
$DIMLIM
 70
     0
  9
$DIMTIH
 70
     1
  9
$DIMTOH
 70
     1
  9
$DIMSE1
 70
     0
  9
$DIMSE2
 70
     0
  9
$DIMTAD
 70
     0
  9
$DIMZIN
 70
     4
  9
$DIMBLK
  1

  9
$DIMASO
 70
     1
  9
$DIMSHO
 70
     1
  9
$DIMPOST
  1
\X
  9
$DIMAPOST
  1

  9
$DIMALT
 70
     1
  9
$DIMALTD
 70
     2
  9
$DIMALTF
 40
25.399999999999999
  9
$DIMLFAC
 40
1.0
  9
$DIMTOFL
 70
     0
  9
$DIMTVP
 40
0.0
  9
$DIMTIX
 70
     0
  9
$DIMSOXD
 70
     0
  9
$DIMSAH
 70
     0
  9
$DIMBLK1
  1

  9
$DIMBLK2
  1

  9
$DIMSTYLE
  2
STANDARD
  9
$DIMCLRD
 70
     0
  9
$DIMCLRE
 70
     0
  9
$DIMCLRT
 70
     0
  9
$DIMTFAC
 40
1.0
  9
$DIMGAP
 40
0.09
  9
$LUNITS
 70
     2
  9
$LUPREC
 70
     4
  9
$SKETCHINC
 40
0.1
  9
$FILLETRAD
 40
0.0
  9
$AUNITS
 70
     0
  9
$AUPREC
 70
     0
  9
$MENU
  1
.
  9
$ELEVATION
 40
0.0
  9
$PELEVATION
 40
0.0
  9
$THICKNESS
 40
0.0
  9
$LIMCHECK
 70
     0
  9
$BLIPMODE
 70
     0
  9
$CHAMFERA
 40
0.0
  9
$CHAMFERB
 40
0.0
  9
$SKPOLY
 70
     0
  9
$TDCREATE
 40
2457730.5135056139
  9
$TDUPDATE
 40
2457731.6840874311
  9
$TDINDWG
 40
0.1396365856
  9
$TDUSRTIMER
 40
0.1396365856
  9
$USRTIMER
 70
     1
  9
$ANGBASE
 50
0.0
  9
$ANGDIR
 70
     0
  9
$PDMODE
 70
     0
  9
$PDSIZE
 40
0.3125
  9
$PLINEWID
 40
0.0
  9
$COORDS
 70
     1
  9
$SPLFRAME
 70
     0
  9
$SPLINETYPE
 70
     6
  9
$SPLINESEGS
 70
     8
  9
$ATTDIA
 70
     1
  9
$ATTREQ
 70
     1
  9
$HANDLING
 70
     1
  9
$HANDSEED
  5
2F51
  9
$SURFTAB1
 70
     6
  9
$SURFTAB2
 70
     6
  9
$SURFTYPE
 70
     6
  9
$SURFU
 70
     6
  9
$SURFV
 70
     6
  9
$UCSNAME
  2

  9
$UCSORG
 10
0.0
 20
0.0
 30
0.0
  9
$UCSXDIR
 10
1.0
 20
0.0
 30
0.0
  9
$UCSYDIR
 10
0.0
 20
1.0
 30
0.0
  9
$PUCSNAME
  2

  9
$PUCSORG
 10
0.0
 20
0.0
 30
0.0
  9
$PUCSXDIR
 10
1.0
 20
0.0
 30
0.0
  9
$PUCSYDIR
 10
0.0
 20
1.0
 30
0.0
  9
$USERI1
 70
     0
  9
$USERI2
 70
     0
  9
$USERI3
 70
     0
  9
$USERI4
 70
     0
  9
$USERI5
 70
     0
  9
$USERR1
 40
0.0
  9
$USERR2
 40
0.0
  9
$USERR3
 40
0.0
  9
$USERR4
 40
0.0
  9
$USERR5
 40
0.0
  9
$WORLDVIEW
 70
     1
  9
$SHADEDGE
 70
     3
  9
$SHADEDIF
 70
    70
  9
$TILEMODE
 70
     1
  9
$MAXACTVP
 70
    48
  9
$PLIMCHECK
 70
     0
  9
$PEXTMIN
 10
1.0000000000000000E+020
 20
1.0000000000000000E+020
 30
1.0000000000000000E+020
  9
$PEXTMAX
 10
-1.0000000000000000E+020
 20
-1.0000000000000000E+020
 30
-1.0000000000000000E+020
  9
$PLIMMIN
 10
0.0
 20
0.0
  9
$PLIMMAX
 10
12.0
 20
9.0
  9
$UNITMODE
 70
     0
  9
$VISRETAIN
 70
     1
  9
$PLINEGEN
 70
     0
  9
$PSLTSCALE
 70
     1
  0
ENDSEC
  0
SECTION
  2
TABLES
  0
TABLE
  2
VPORT
 70
     1
  0
VPORT
  2
*ACTIVE
 70
     0
 10
0.0
 20
0.0
 11
1.0
 21
1.0
 12
42.316507223652451
 22
33.01391227659861
 13
0.0
 23
0.0
 14
1.0
 24
1.0
 15
0.0
 25
0.0
 16
0.0
 26
0.0
 36
1.0
 17
0.0
 27
0.0
 37
0.0
 40
10.414375470409819
 41
2.0148619957537148
 42
50.0
 43
0.0
 44
0.0
 50
0.0
 51
0.0
 71
     0
 72
   100
 73
     1
 74
     1
 75
     0
 76
     1
 77
     0
 78
     1
  0
ENDTAB
  0
TABLE
  2
LTYPE
 70
     2
  0
LTYPE
  2
CONTINUOUS
 70
     0
  3
Solid line
 72
    65
 73
     0
 40
0.0
  0
LTYPE
  2
PHANTOM2
 70
     0
  3
___ _ _ ___ _ _ ___ _ _ ___ _ _
 72
    65
 73
     6
 40
1.25
 49
0.625
 49
-0.125
 49
0.125
 49
-0.125
 49
0.125
 49
-0.125
  0
ENDTAB
  0
TABLE
  2
LAYER
 70
     2
  0
LAYER
  2
0
 70
     0
 62
     7
  6
CONTINUOUS
  0
LAYER
  2
DEFPOINTS
 70
     0
 62
     7
  6
CONTINUOUS
  0
ENDTAB
  0
TABLE
  2
STYLE
 70
     1
  0
STYLE
  2
STANDARD
 70
     0
 40
0.0
 41
0.8
 50
0.0
 71
     0
 42
0.2
  3
txt
  4

  0
ENDTAB
  0
TABLE
  2
VIEW
 70
     0
  0
ENDTAB
  0
TABLE
  2
UCS
 70
     0
  0
ENDTAB
  0
TABLE
  2
APPID
 70
     7
  0
APPID
  2
ACAD
 70
     0
  0
APPID
  2
ACAD_MLEADERVER
 70
     0
  0
APPID
  2
ACAD_NAV_VCDISPLAY
 70
     0
  0
APPID
  2
ACAD_DSTYLE_DIMJAG
 70
     0
  0
APPID
  2
ACAD_DSTYLE_DIMTALN
 70
     0
  0
APPID
  2
ACAD_EXEMPT_FROM_CAD_STANDARDS
 70
     0
  0
APPID
  2
ACDBATTR
 70
     0
  0
ENDTAB
  0
TABLE
  2
DIMSTYLE
 70
     1
  0
DIMSTYLE
  2
STANDARD
 70
     0
  3
\X
  4

  5

  6

  7

 40
1.0
 41
0.1875
 42
0.0625
 43
0.38
 44
0.125
 45
0.0
 46
0.0
 47
1.5
 48
1.5
140
0.15625
141
0.09
142
0.0
143
25.399999999999999
144
1.0
145
0.0
146
1.0
147
0.09
 71
     0
 72
     0
 73
     1
 74
     1
 75
     0
 76
     0
 77
     0
 78
     4
170
     1
171
     2
172
     0
173
     0
174
     0
175
     0
176
     0
177
     0
178
     0
  0
ENDTAB
  0
ENDSEC
  0
SECTION
  2
BLOCKS
  0
BLOCK
  8
0
  2
$MODEL_SPACE
 70
     0
 10
0.0
 20
0.0
 30
0.0
  3
$MODEL_SPACE
  1

  0
ENDBLK
  5
21
  8
0
  0
BLOCK
 67
     1
  8
0
  2
$PAPER_SPACE
 70
     0
 10
0.0
 20
0.0
 30
0.0
  3
$PAPER_SPACE
  1

  0
ENDBLK
  5
1D
 67
     1
  8
0
  0
ENDSEC
  0
SECTION
  2
ENTITIES
  0
ARC
  5
1732
  8
0
 10
17.460411073480941
 20
32.073914595898138
 30
0.0
 40
23.325996092842519
 50
355.35092029934788
 51
359.2239129369122
  0
ARC
  5
1733
  8
0
 10
-110.4421596598702
 20
34.076624890563721
 30
0.0
 40
151.2442011972837
 50
359.12158922102748
 51
0.9945859395376533
  0
ARC
  5
1735
  8
0
 10
65.257891310912783
 20
32.073914595898138
 30
0.0
 40
23.325996092842519
 50
180.7760870630878
 51
184.64907970065201
  0
ARC
  5
1736
  8
0
 10
193.16046204426399
 20
34.076624890563721
 30
0.0
 40
151.2442011972837
 50
179.0054140604623
 51
180.87841077897249
  0
ARC
  5
173A
  8
0
 10
41.305468675143779
 20
30.12775436154033
 30
0.0
 40
0.5976332149829008
 50
183.64050217682029
 51
275.1534814322639
  0
ARC
  5
173B
  8
0
 10
41.406068350066718
 20
30.135632731916779
 30
0.0
 40
0.6049320366307162
 50
265.5518192449847
 51
355.5565356843685
  0
ARC
  5
173C
  8
0
 10
41.40938148348836
 20
30.132596399072639
 30
0.0
 40
0.6014000022361188
 50
355.82048592747958
 51
4.834274920861362
  0
ARC
  5
173D
  8
0
 10
42.667134084973583
 20
30.123580414405591
 30
0.0
 40
1.9583838979599231
 50
178.25315533278749
 51
180.9881452545869
  0
ARC
  5
173E
  8
0
 10
33.260768940832712
 20
30.588444218225838
 30
0.0
 40
7.4704375656395161
 50
350.03325867851709
 51
355.94309785157992
  0
ARC
  5
173F
  8
0
 10
39.28094148216725
 20
29.539301244434309
 30
0.0
 40
1.359564619611884
 50
345.55690571044789
 51
349.66911586132261
  0
ARC
  5
1740
  8
0
 10
49.609466298086282
 20
30.60713090191814
 30
0.0
 40
7.6233158354866939
 50
184.11621022840589
 51
189.90743121895051
  0
ARC
  5
1741
  8
0
 10
43.437360891200989
 20
29.539301207753809
 30
0.0
 40
1.359564619611884
 50
190.33088312740409
 51
194.44309157179251
  0
ARC
  5
1742
  8
0
 10
41.294088267116408
 20
28.775494292777349
 30
0.0
 40
0.884185872445191
 50
138.7578607507472
 51
180.39536214462251
  0
ARC
  5
1743
  8
0
 10
41.33179238814261
 20
28.77195989789001
 30
0.0
 40
0.9218725164120657
 50
180.15953116127861
 51
235.15814747649591
  0
ARC
  5
1744
  8
0
 10
41.358270455451873
 20
28.804891019446959
 30
0.0
 40
0.9640318300614564
 50
234.98475092555239
 51
270.05234538776438
  0
ARC
  5
1745
  8
0
 10
41.360407704133088
 20
28.802391142069141
 30
0.0
 40
0.9615323713529242
 50
269.92512707954808
 51
313.88509752419691
  0
ARC
  5
1746
  8
0
 10
41.392703800951772
 20
28.769573555733409
 30
0.0
 40
0.9154917378108503
 50
313.85210354222238
 51
9.1204482142840515
  0
ARC
  5
1747
  8
0
 10
41.430894322555027
 20
28.780074533943122
 30
0.0
 40
0.8761301564563456
 50
8.8382903060487692
 51
41.29596576656489
  0
ARC
  5
174A
  8
0
 10
41.341476979527677
 20
28.810009799056939
 30
0.0
 40
0.8400559579469437
 50
152.3075994913508
 51
271.20555293470011
  0
ARC
  5
174B
  8
0
 10
41.376825391398867
 20
28.810009798815649
 30
0.0
 40
0.8400559579469437
 50
268.79444628308153
 51
27.67672399000757
  0
ARC
  5
174D
  8
0
 10
41.359151192196862
 20
37.173964536200003
 30
0.0
 40
1.0113069075999961
 50
53.702467297613111
 51
235.41357300451909
  0
ARC
  5
174E
  8
0
 10
41.436657761391977
 20
37.173964536200003
 30
0.0
 40
0.8828174463048804
 50
304.35178967602258
 51
66.055559560118965
  0
ARC
  5
1753
  8
0
 10
41.359151192196862
 20
37.173964536200003
 30
0.0
 40
0.883238698401805
 50
65.670403973546868
 51
229.2447142788908
  0
ARC
  5
1755
  8
0
 10
41.359151192196862
 20
37.173964536200003
 30
0.0
 40
0.74773944179639
 50
320.85335363120919
 51
219.1466770576728
  0
ARC
  5
1758
  8
0
 10
41.345208166725811
 20
37.173535713956113
 30
0.0
 40
0.7858078263204771
 50
318.97660210527567
 51
62.32521945043063
  0
ARC
  5
1759
  8
0
 10
41.270352833616229
 20
37.026910304995162
 30
0.0
 40
0.950427468433017
 50
62.434266948825439
 51
84.170816959553306
  0
LINE
  5
175A
  8
0
 10
41.366881114496877
 20
37.972423215399999
 30
0.0
 11
41.359160115196858
 21
37.975641334199999
 31
0.0
  0
LINE
  5
175B
  8
0
 10
41.359160115196858
 20
37.975641334199999
 30
0.0
 11
41.360042393096478
 21
37.976054683525447
 31
0.0
  0
ARC
  5
175E
  8
0
 10
41.494888550305781
 20
45.539485691265646
 30
0.0
 40
7.5646329782058919
 50
268.97859883624341
 51
273.50853511700041
  0
LINE
  5
1760
  8
0
 10
41.95782311108244
 20
37.989031156113569
 30
0.0
 11
43.128797420396857
 21
38.040780740059851
 31
0.0
  0
ARC
  5
1761
  8
0
 10
43.16748083221416
 20
37.046696857782507
 30
0.0
 40
0.9948362543040386
 50
86.592139283972173
 51
92.228462352370556
  0
ARC
  5
1762
  8
0
 10
43.222834004140523
 20
38.008369095508527
 30
0.0
 40
0.0316318833813586
 50
2.707057435796008
 51
83.130886329292949
  0
LINE
  5
1763
  8
0
 10
43.254430588396858
 20
38.009863069200001
 30
0.0
 11
43.254430588396858
 21
36.338061374200009
 31
0.0
  0
ARC
  5
1764
  8
0
 10
43.224430595852922
 20
36.338061342635292
 30
0.0
 40
0.0299999925439586
 50
274.18071745588821
 51
0.0000629579811005
  0
ARC
  5
1765
  8
0
 10
43.167598205034757
 20
37.294670739424618
 30
0.0
 40
0.9882934142861344
 50
267.75093819857688
 51
273.42365894063789
  0
LINE
  5
1766
  8
0
 10
43.12881415816566
 20
36.307138628336681
 30
0.0
 11
41.933497793239383
 21
36.3599731390293
 31
0.0
  0
CIRCLE
  5
1768
  8
0
 10
42.491430588396867
 20
37.173964536200003
 30
0.0
 40
0.0700000000000035
  0
CIRCLE
  5
1769
  8
0
 10
42.491430588396867
 20
37.173964536200003
 30
0.0
 40
0.0739999999999991
  0
LINE
  5
176A
  8
0
 10
43.254430588396858
 20
37.9501572004
 30
0.0
 11
43.286899223696857
 21
37.9501572004
 31
0.0
  0
LINE
  5
176B
  8
0
 10
43.254430588396858
 20
36.393964536200002
 30
0.0
 11
43.286899223696857
 21
36.393964536200002
 31
0.0
  0
LINE
  5
176C
  8
0
 10
43.286899223696857
 20
36.335036648900001
 30
0.0
 11
43.286899223696857
 21
36.742497449943542
 31
0.0
  0
LINE
  5
176D
  8
0
 10
43.286899223696857
 20
37.604952000399997
 30
0.0
 11
43.286899223696857
 21
38.012885390400001
 31
0.0
  0
ARC
  5
1777
  8
0
 10
43.306899234437367
 20
38.012892418327183
 30
0.0
 40
0.0200000107405074
 50
78.924331145577582
 51
179.99998546744791
  0
ARC
  5
1778
  8
0
 10
43.144348608646311
 20
37.178759576881092
 30
0.0
 40
0.8696359380418298
 50
31.135489131467189
 51
78.968197458838873
  0
ARC
  5
1779
  8
0
 10
43.306557353552662
 20
36.334867736310642
 30
0.0
 40
0.0196588555335795
 50
179.5076978135925
 51
282.33487912708188
  0
ARC
  5
177A
  8
0
 10
43.129297245016161
 20
37.191529755729363
 30
0.0
 40
0.8944667400964053
 50
281.70479173797241
 51
328.14768799550768
  0
ARC
  5
177B
  8
0
 10
43.294247473990659
 20
37.566307776812181
 30
0.0
 40
0.0398170255070621
 50
92.087539076008994
 51
179.8481087371209
  0
LINE
  5
177C
  8
0
 10
43.292797084299288
 20
37.60609837733508
 30
0.0
 11
44.05905642170859
 21
37.634555839893231
 31
0.0
  0
ARC
  5
177D
  8
0
 10
44.090043258227162
 20
37.387420295883771
 30
0.0
 40
0.2490705946954716
 50
92.860836348793839
 51
97.146676883592477
  0
LINE
  5
177E
  8
0
 10
44.077560071591542
 20
37.636177871031499
 30
0.0
 11
44.21189147828791
 21
37.64021526302804
 31
0.0
  0
ARC
  5
177F
  8
0
 10
44.213618846899493
 20
37.597070749478497
 30
0.0
 40
0.0431945221655505
 50
8.9726640609498123
 51
92.17686430762906
  0
ARC
  5
1780
  8
0
 10
41.138241917958076
 20
37.17392623145556
 30
0.0
 40
3.1475370170138879
 50
352.14339125333572
 51
7.8498221029399442
  0
ARC
  5
1781
  8
0
 10
44.215872450703174
 20
36.74846957575069
 30
0.0
 40
0.0406451046904904
 50
268.70491673385578
 51
353.22639864895859
  0
ARC
  5
1782
  8
0
 10
43.294113287752317
 20
36.781626416674932
 30
0.0
 40
0.0398170255070621
 50
180.15189126287891
 51
267.91246092399098
  0
LINE
  5
1783
  8
0
 10
43.292606363886797
 20
36.741837917071493
 30
0.0
 11
44.061535045571802
 21
36.713283783434157
 31
0.0
  0
ARC
  5
1784
  8
0
 10
44.036085620053619
 20
35.876022170780431
 30
0.0
 40
0.8376483040529146
 50
87.034691445793882
 51
88.258972069084479
  0
LINE
  5
1785
  8
0
 10
44.079418252853749
 20
36.71254889732139
 30
0.0
 11
44.214429887103407
 21
36.707837858605181
 31
0.0
  0
LINE
  5
1787
  8
0
 10
44.08690568119686
 20
37.624072448699998
 30
0.0
 11
44.087411057396857
 21
36.723299732900003
 31
0.0
  0
ARC
  5
1788
  8
0
 10
44.078441677407099
 20
36.721621519724089
 30
0.0
 40
0.0091250302390979
 50
276.14365282344062
 51
10.59777404744095
  0
ATTDEF
  5
29DC
  8
DEFPOINTS
 10
41.3357709948421
 20
37.169654193508983
 30
0.0
 40
0.001
  1
METAL
  3

  2
MATERIAL
 70
     0
1001
ACDBATTR
1070
     0
1070
     1
  0
ATTDEF
  5
29DD
  8
DEFPOINTS
 10
41.3357709948421
 20
37.171320860175648
 30
0.0
 40
0.001
  1
KITCHEN SINK FAUCET
  3

  2
PRODUCT
 70
     0
1001
ACDBATTR
1070
     0
1070
     1
  0
ATTDEF
  5
29DE
  8
DEFPOINTS
 10
41.3357709948421
 20
37.172987526842313
 30
0.0
 40
0.001
  1
SENSATE
  3

  2
TRADENAME
 70
     0
1001
ACDBATTR
1070
     0
1070
     1
  0
ATTDEF
  5
29DF
  8
DEFPOINTS
 10
41.3357709948421
 20
37.174654193508978
 30
0.0
 40
0.001
  1
K-72218
  3

  2
MODELNUMBER
 70
     0
1001
ACDBATTR
1070
     0
1070
     1
  0
ENDSEC
  0
EOF
