  0
SECTION
  2
HEADER
  9
$ACADVER
  1
AC1009
  9
$INSBASE
 10
61.466992948398413
 20
6.4357506122999988
 30
0.0
  9
$EXTMIN
 10
52.129286026304896
 20
6.4351720012550819
 30
-0.000000000000013
  9
$EXTMAX
 10
62.47830015007051
 20
21.945483388521449
 30
0.0000000000000023
  9
$LIMMIN
 10
0.0
 20
0.0
  9
$LIMMAX
 10
11.692913385800001
 20
8.2677165353999982
  9
$ORTHOMODE
 70
     0
  9
$REGENMODE
 70
     1
  9
$FILLMODE
 70
     1
  9
$QTEXTMODE
 70
     0
  9
$MIRRTEXT
 70
     0
  9
$DRAGMODE
 70
     2
  9
$LTSCALE
 40
0.6431102362
  9
$OSMODE
 70
  3071
  9
$ATTMODE
 70
     1
  9
$TEXTSIZE
 40
0.2
  9
$TRACEWID
 40
0.05
  9
$TEXTSTYLE
  7
STANDARD
  9
$CLAYER
  8
0
  9
$CELTYPE
  6
BYLAYER
  9
$CECOLOR
 62
   256
  9
$DIMSCALE
 40
1.0
  9
$DIMASZ
 40
0.1875
  9
$DIMEXO
 40
0.0625
  9
$DIMDLI
 40
0.38
  9
$DIMRND
 40
0.0
  9
$DIMDLE
 40
0.0
  9
$DIMEXE
 40
0.125
  9
$DIMTP
 40
1.5
  9
$DIMTM
 40
1.5
  9
$DIMTXT
 40
0.15625
  9
$DIMCEN
 40
0.09
  9
$DIMTSZ
 40
0.0
  9
$DIMTOL
 70
     0
  9
$DIMLIM
 70
     0
  9
$DIMTIH
 70
     1
  9
$DIMTOH
 70
     1
  9
$DIMSE1
 70
     0
  9
$DIMSE2
 70
     0
  9
$DIMTAD
 70
     0
  9
$DIMZIN
 70
     4
  9
$DIMBLK
  1

  9
$DIMASO
 70
     1
  9
$DIMSHO
 70
     1
  9
$DIMPOST
  1
\X
  9
$DIMAPOST
  1

  9
$DIMALT
 70
     1
  9
$DIMALTD
 70
     2
  9
$DIMALTF
 40
25.399999999999999
  9
$DIMLFAC
 40
1.0
  9
$DIMTOFL
 70
     0
  9
$DIMTVP
 40
0.0
  9
$DIMTIX
 70
     0
  9
$DIMSOXD
 70
     0
  9
$DIMSAH
 70
     0
  9
$DIMBLK1
  1

  9
$DIMBLK2
  1

  9
$DIMSTYLE
  2
STANDARD
  9
$DIMCLRD
 70
     0
  9
$DIMCLRE
 70
     0
  9
$DIMCLRT
 70
     0
  9
$DIMTFAC
 40
1.0
  9
$DIMGAP
 40
0.09
  9
$LUNITS
 70
     2
  9
$LUPREC
 70
     4
  9
$SKETCHINC
 40
0.1
  9
$FILLETRAD
 40
0.0
  9
$AUNITS
 70
     0
  9
$AUPREC
 70
     0
  9
$MENU
  1
.
  9
$ELEVATION
 40
0.0
  9
$PELEVATION
 40
0.0
  9
$THICKNESS
 40
0.0
  9
$LIMCHECK
 70
     0
  9
$BLIPMODE
 70
     0
  9
$CHAMFERA
 40
0.0
  9
$CHAMFERB
 40
0.0
  9
$SKPOLY
 70
     0
  9
$TDCREATE
 40
2457730.5135056139
  9
$TDUPDATE
 40
2457731.6843527658
  9
$TDINDWG
 40
0.1395536921
  9
$TDUSRTIMER
 40
0.1395536921
  9
$USRTIMER
 70
     1
  9
$ANGBASE
 50
0.0
  9
$ANGDIR
 70
     0
  9
$PDMODE
 70
     0
  9
$PDSIZE
 40
0.3125
  9
$PLINEWID
 40
0.0
  9
$COORDS
 70
     1
  9
$SPLFRAME
 70
     0
  9
$SPLINETYPE
 70
     6
  9
$SPLINESEGS
 70
     8
  9
$ATTDIA
 70
     1
  9
$ATTREQ
 70
     1
  9
$HANDLING
 70
     1
  9
$HANDSEED
  5
2B81
  9
$SURFTAB1
 70
     6
  9
$SURFTAB2
 70
     6
  9
$SURFTYPE
 70
     6
  9
$SURFU
 70
     6
  9
$SURFV
 70
     6
  9
$UCSNAME
  2

  9
$UCSORG
 10
0.0
 20
0.0
 30
0.0
  9
$UCSXDIR
 10
1.0
 20
0.0
 30
0.0
  9
$UCSYDIR
 10
0.0
 20
1.0
 30
0.0
  9
$PUCSNAME
  2

  9
$PUCSORG
 10
0.0
 20
0.0
 30
0.0
  9
$PUCSXDIR
 10
1.0
 20
0.0
 30
0.0
  9
$PUCSYDIR
 10
0.0
 20
1.0
 30
0.0
  9
$USERI1
 70
     0
  9
$USERI2
 70
     0
  9
$USERI3
 70
     0
  9
$USERI4
 70
     0
  9
$USERI5
 70
     0
  9
$USERR1
 40
0.0
  9
$USERR2
 40
0.0
  9
$USERR3
 40
0.0
  9
$USERR4
 40
0.0
  9
$USERR5
 40
0.0
  9
$WORLDVIEW
 70
     1
  9
$SHADEDGE
 70
     3
  9
$SHADEDIF
 70
    70
  9
$TILEMODE
 70
     1
  9
$MAXACTVP
 70
    48
  9
$PLIMCHECK
 70
     0
  9
$PEXTMIN
 10
1.0000000000000000E+020
 20
1.0000000000000000E+020
 30
1.0000000000000000E+020
  9
$PEXTMAX
 10
-1.0000000000000000E+020
 20
-1.0000000000000000E+020
 30
-1.0000000000000000E+020
  9
$PLIMMIN
 10
0.0
 20
0.0
  9
$PLIMMAX
 10
12.0
 20
9.0
  9
$UNITMODE
 70
     0
  9
$VISRETAIN
 70
     1
  9
$PLINEGEN
 70
     0
  9
$PSLTSCALE
 70
     1
  0
ENDSEC
  0
SECTION
  2
TABLES
  0
TABLE
  2
VPORT
 70
     1
  0
VPORT
  2
*ACTIVE
 70
     0
 10
0.0
 20
0.0
 11
1.0
 21
1.0
 12
57.303793088187703
 22
14.19032769488827
 13
0.0
 23
0.0
 14
1.0
 24
1.0
 15
0.0
 25
0.0
 16
0.0
 26
0.0
 36
1.0
 17
0.0
 27
0.0
 37
0.0
 40
15.608998416241549
 41
2.0148619957537148
 42
50.0
 43
0.0
 44
0.0
 50
0.0
 51
0.0
 71
     0
 72
   100
 73
     1
 74
     1
 75
     0
 76
     1
 77
     0
 78
     1
  0
ENDTAB
  0
TABLE
  2
LTYPE
 70
     2
  0
LTYPE
  2
CONTINUOUS
 70
     0
  3
Solid line
 72
    65
 73
     0
 40
0.0
  0
LTYPE
  2
PHANTOM2
 70
     0
  3
___ _ _ ___ _ _ ___ _ _ ___ _ _
 72
    65
 73
     6
 40
1.25
 49
0.625
 49
-0.125
 49
0.125
 49
-0.125
 49
0.125
 49
-0.125
  0
ENDTAB
  0
TABLE
  2
LAYER
 70
     2
  0
LAYER
  2
0
 70
     0
 62
     7
  6
CONTINUOUS
  0
LAYER
  2
DEFPOINTS
 70
     0
 62
     7
  6
CONTINUOUS
  0
ENDTAB
  0
TABLE
  2
STYLE
 70
     1
  0
STYLE
  2
STANDARD
 70
     0
 40
0.0
 41
0.8
 50
0.0
 71
     0
 42
0.2
  3
txt
  4

  0
ENDTAB
  0
TABLE
  2
VIEW
 70
     0
  0
ENDTAB
  0
TABLE
  2
UCS
 70
     0
  0
ENDTAB
  0
TABLE
  2
APPID
 70
     7
  0
APPID
  2
ACAD
 70
     0
  0
APPID
  2
ACAD_MLEADERVER
 70
     0
  0
APPID
  2
ACAD_NAV_VCDISPLAY
 70
     0
  0
APPID
  2
ACAD_DSTYLE_DIMJAG
 70
     0
  0
APPID
  2
ACAD_DSTYLE_DIMTALN
 70
     0
  0
APPID
  2
ACAD_EXEMPT_FROM_CAD_STANDARDS
 70
     0
  0
APPID
  2
ACDBATTR
 70
     0
  0
ENDTAB
  0
TABLE
  2
DIMSTYLE
 70
     1
  0
DIMSTYLE
  2
STANDARD
 70
     0
  3
\X
  4

  5

  6

  7

 40
1.0
 41
0.1875
 42
0.0625
 43
0.38
 44
0.125
 45
0.0
 46
0.0
 47
1.5
 48
1.5
140
0.15625
141
0.09
142
0.0
143
25.399999999999999
144
1.0
145
0.0
146
1.0
147
0.09
 71
     0
 72
     0
 73
     1
 74
     1
 75
     0
 76
     0
 77
     0
 78
     4
170
     1
171
     2
172
     0
173
     0
174
     0
175
     0
176
     0
177
     0
178
     0
  0
ENDTAB
  0
ENDSEC
  0
SECTION
  2
BLOCKS
  0
BLOCK
  8
0
  2
$MODEL_SPACE
 70
     0
 10
0.0
 20
0.0
 30
0.0
  3
$MODEL_SPACE
  1

  0
ENDBLK
  5
21
  8
0
  0
BLOCK
 67
     1
  8
0
  2
$PAPER_SPACE
 70
     0
 10
0.0
 20
0.0
 30
0.0
  3
$PAPER_SPACE
  1

  0
ENDBLK
  5
1D
 67
     1
  8
0
  0
ENDSEC
  0
SECTION
  2
ENTITIES
  0
ARC
  5
1C40
  8
0
 10
64.515582970243045
 20
14.10543865801993
 30
0.0
 40
12.47334163547281
 50
154.253242549882
 51
169.20027333994241
  0
ARC
  5
1C41
  8
0
 10
57.341427039984687
 20
17.246938954709119
 30
0.0
 40
4.6556076214895903
 50
139.04184894415559
 51
150.72151418519871
  0
ARC
  5
1C42
  8
0
 10
57.444228207150772
 20
17.138136121473739
 30
0.0
 40
4.8065281277874794
 50
92.291684315365885
 51
138.29510719758969
  0
ARC
  5
1C4C
  8
0
 10
57.421013166225521
 20
17.167127938069871
 30
0.0
 40
4.7766820384682802
 50
0.8296883072949801
 51
92.027349754974196
  0
ARC
  5
1C4D
  8
0
 10
57.487654021140251
 20
17.147008148440658
 30
0.0
 40
3.236844022536546
 50
358.37785848437733
 51
91.545344554296307
  0
ARC
  5
1C4F
  8
0
 10
57.029184582900342
 20
17.52699852405032
 30
0.0
 40
2.7165430627950911
 50
139.70179637809491
 51
152.61585688586209
  0
ARC
  5
1C50
  8
0
 10
54.940791731228657
 20
19.30235921120002
 30
0.0
 40
0.0247205813757965
 50
311.92242186981753
 51
55.023893909468022
  0
ARC
  5
1C51
  8
0
 10
59.211903006802338
 20
16.476318208255389
 30
0.0
 40
5.1384272900217312
 50
153.40763398982469
 51
166.60554637718269
  0
ARC
  5
1C52
  8
0
 10
54.724742650919268
 20
17.239138238150058
 30
0.0
 40
0.6650512848308984
 50
140.67774382827261
 51
166.99863476154511
  0
LINE
  5
1C53
  8
0
 10
54.191237086696859
 20
17.635352166299999
 30
0.0
 11
54.268621194257257
 21
17.619831554863449
 31
0.0
  0
LINE
  5
1C54
  8
0
 10
54.210262888351203
 20
17.66056887937485
 30
0.0
 11
54.21324960028609
 21
17.66665401007274
 31
0.0
  0
ARC
  5
1C55
  8
0
 10
64.234994774283635
 20
15.38030679584157
 30
0.0
 40
10.35490279352469
 50
168.81594536461861
 51
172.31074685805149
  0
ARC
  5
1C56
  8
0
 10
54.804694983991872
 20
16.645116365203279
 30
0.0
 40
0.8402067868370714
 50
171.74199854170831
 51
195.53570750783891
  0
ARC
  5
1C57
  8
0
 10
73.471953357108305
 20
14.09342486238458
 30
0.0
 40
19.614147309991608
 50
173.20476987192109
 51
174.27017580870981
  0
ARC
  5
1C58
  8
0
 10
54.138406447292503
 20
16.03099781610852
 30
0.0
 40
0.183767787600457
 50
173.5454497137695
 51
192.21505954684059
  0
LINE
  5
1C59
  8
0
 10
53.995186227996911
 20
16.420076327399808
 30
0.0
 11
53.995588342896859
 21
16.4141964015
 31
0.0
  0
LINE
  5
1C5A
  8
0
 10
60.72320087939687
 20
17.055379799899999
 30
0.0
 11
60.711704218287501
 21
10.839376680319781
 31
0.0
  0
LINE
  5
1C5B
  8
0
 10
62.222321367678148
 20
10.839334323312141
 30
0.0
 11
62.197194394196863
 21
17.2362956632
 31
0.0
  0
ARC
  5
1C5C
  8
0
 10
-21.940389337976828
 20
11.99960631916924
 30
0.0
 40
82.664452453843737
 50
358.04475872071708
 51
359.14053338829871
  0
ARC
  5
1C5D
  8
0
 10
60.744760907224482
 20
10.75929869686232
 30
0.0
 40
0.0299999896377155
 50
89.99991468200335
 51
179.34266441626789
  0
ARC
  5
1C5E
  8
0
 10
60.73699294839686
 20
10.7992986865
 30
0.0
 40
0.019999999999996
 50
90.0
 51
180.00000000002029
  0
ARC
  5
1C5F
  8
0
 10
60.735227867374888
 20
10.843040410891319
 30
0.0
 40
0.0238072465457067
 50
188.85250692812559
 51
274.25183874683648
  0
LINE
  5
1C60
  8
0
 10
60.736996098696856
 20
10.8192986865
 30
0.0
 11
61.006865445596851
 21
10.8192986865
 31
0.0
  0
LINE
  5
1C61
  8
0
 10
60.716992948396857
 20
10.7892986865
 30
0.0
 11
61.006049560896862
 21
10.7892986865
 31
0.0
  0
LINE
  5
1C62
  8
0
 10
60.716998871996857
 20
10.7892986865
 30
0.0
 11
60.716992948396857
 21
10.7992986865
 31
0.0
  0
ARC
  5
1C63
  8
0
 10
62.189223457896851
 20
10.759298696862279
 30
0.0
 40
0.0299999896377155
 50
0.6573355837321241
 51
90.000085317996437
  0
ARC
  5
1C64
  8
0
 10
62.194522793896859
 20
10.7992986865
 30
0.0
 40
0.019999999999996
 50
359.99999999997971
 51
90.0
  0
ARC
  5
1C65
  8
0
 10
62.200480749717208
 20
10.84108750826616
 30
0.0
 40
0.0218664273924864
 50
274.82862909831391
 51
355.51259547184259
  0
LINE
  5
1C66
  8
0
 10
62.214516870296862
 20
10.7892986865
 30
0.0
 11
62.214522793896862
 21
10.7992986865
 31
0.0
  0
LINE
  5
1C67
  8
0
 10
62.214516870296862
 20
10.7892986865
 30
0.0
 11
61.930547095358278
 21
10.7892986865
 31
0.0
  0
LINE
  5
1C68
  8
0
 10
62.202254618125529
 20
10.8192986865
 30
0.0
 11
61.929652390891022
 21
10.8192986865
 31
0.0
  0
ARC
  5
1C69
  8
0
 10
164.9409077359139
 20
12.494307179324281
 30
0.0
 40
102.73632737748579
 50
180.96746345112749
 51
181.84918741860099
  0
ARC
  5
1C6A
  8
0
 10
105.3269487271165
 20
9.8590513001278932
 30
0.0
 40
44.3306517065704
 50
178.80758432765469
 51
181.4798124597113
  0
ARC
  5
1C6C
  8
0
 10
61.471515372165172
 20
11.004449299096731
 30
0.0
 40
0.4430339355624621
 50
90.328721752057263
 51
170.6698360648802
  0
ARC
  5
1C6D
  8
0
 10
61.469961927569123
 20
11.01563213663897
 30
0.0
 40
0.4318449373468686
 50
12.24898826024169
 51
90.13112140476872
  0
ARC
  5
1C6E
  8
0
 10
63.199570335655601
 20
10.718556345201851
 30
0.0
 40
2.1945783878025091
 50
170.6188553827869
 51
178.35447528940321
  0
ARC
  5
1C6F
  8
0
 10
61.466997039455421
 20
8.4920111941030232
 30
0.0
 40
0.4323061970792392
 50
188.01408078269989
 51
270.19204250675801
  0
ARC
  5
1C70
  8
0
 10
61.465838815521607
 20
8.4956490411357315
 30
0.0
 40
0.4359494125517164
 50
270.34267152985819
 51
356.26066666396019
  0
ARC
  5
1C71
  8
0
 10
62.46544519423869
 20
8.7148984835598551
 30
0.0
 40
1.4543634408220261
 50
180.0265615312104
 51
191.22693097332669
  0
ARC
  5
1C72
  8
0
 10
19.051767852690411
 20
10.16845273392358
 30
0.0
 40
42.88285099956277
 50
357.72638295714722
 51
0.7645325868582265
  0
ARC
  5
1C73
  8
0
 10
60.331384465897749
 20
10.756619429819651
 30
0.0
 40
1.5994964986770941
 50
359.4278696864983
 51
12.6629113967637
  0
ARC
  5
1C74
  8
0
 10
-1804.1763256595609
 20
61.676607469830273
 30
0.0
 40
1865.5906847101501
 50
358.31227875399782
 51
358.3663960693936
  0
ARC
  5
1C75
  8
0
 10
61.466992948396857
 20
8.8127506123000003
 30
0.0
 40
0.8718117981230745
 50
122.5916422201487
 51
57.907307819594578
  0
LINE
  5
1C76
  8
0
 10
61.36705386569686
 20
8.0714163652568054
 30
0.0
 11
61.36705386569686
 21
8.0363504955999971
 31
0.0
  0
LINE
  5
1C77
  8
0
 10
61.566932031096862
 20
8.0715829471493752
 30
0.0
 11
61.566932031096862
 21
8.0363505019883377
 31
0.0
  0
ARC
  5
1C79
  8
0
 10
61.413261853579613
 20
8.0465593586255189
 30
0.0
 40
0.047322288918075
 50
192.4583901026455
 51
242.71121560674439
  0
ARC
  5
1C7A
  8
0
 10
61.520724027214321
 20
8.0465593586255189
 30
0.0
 40
0.047322288918075
 50
297.28878439325558
 51
347.54160989735431
  0
ARC
  5
1C7B
  8
0
 10
61.466981709881871
 20
8.1625942271439058
 30
0.0
 40
0.1751575876039373
 50
244.49685205227621
 51
295.55002852432261
  0
ARC
  5
1C7C
  8
0
 10
1927.110311556354
 20
61.676607469830273
 30
0.0
 40
1865.5906847101501
 50
181.6336039306064
 51
181.68772124600221
  0
ARC
  5
1C7D
  8
0
 10
60.458223984278
 20
6.7428082244625038
 30
0.0
 40
0.1477483954208648
 50
328.16945061309571
 51
355.47657745404348
  0
LINE
  5
1C7E
  8
0
 10
60.583752735796857
 20
6.6648844097999991
 30
0.0
 11
60.460810853977222
 21
6.4825203791644581
 31
0.0
  0
ARC
  5
1C7F
  8
0
 10
60.485686040799948
 20
6.4657506123051443
 30
0.0
 40
0.0300000000051424
 50
146.01388747915661
 51
269.99999999409692
  0
LINE
  5
1C80
  8
0
 10
60.485686040799948
 20
6.4357506122999997
 30
0.0
 11
62.448299855996858
 21
6.4357506122999988
 31
0.0
  0
ARC
  5
1C81
  8
0
 10
62.448299855996872
 20
6.4657506123000044
 30
0.0
 40
0.0300000000000041
 50
270.00000739388202
 51
33.986112539310867
  0
LINE
  5
1C82
  8
0
 10
62.473175048596872
 20
6.4825203705999987
 30
0.0
 11
62.350233161596861
 21
6.664884408899999
 31
0.0
  0
ARC
  5
1C83
  8
0
 10
62.468786278075463
 20
6.7395522582777341
 30
0.0
 40
0.1401074871389205
 50
183.43032178569479
 51
212.20379427766321
  0
LINE
  5
1C85
  8
0
 10
60.60505607559687
 20
6.7311689766999994
 30
0.0
 11
62.328473726596862
 21
6.7311558063999994
 31
0.0
  0
ARC
  5
1C86
  8
0
 10
61.311643465860662
 20
9.2029267888690427
 30
0.0
 40
0.6283029096533893
 50
120.11083305898541
 51
180.73351143530391
  0
ARC
  5
1C87
  8
0
 10
61.622342430933067
 20
9.2029267888690427
 30
0.0
 40
0.6283029096533893
 50
359.26648856469598
 51
59.889166941014793
  0
ARC
  5
1C91
  8
0
 10
61.363407438537422
 20
8.4450174814118348
 30
0.0
 40
0.702681022025403
 50
177.2198957788973
 51
228.38955181279371
  0
ARC
  5
1C92
  8
0
 10
61.46706026544976
 20
8.7229572204364754
 30
0.0
 40
0.9851578290363997
 50
234.628990688112
 51
269.99608490851938
  0
ARC
  5
1C93
  8
0
 10
61.568270192505807
 20
8.4450174814118348
 30
0.0
 40
0.702681022025403
 50
311.6104481872066
 51
2.3730816793295531
  0
ARC
  5
1C94
  8
0
 10
61.464617365593462
 20
8.7229572204364754
 30
0.0
 40
0.9851578290363997
 50
270.00391509148079
 51
305.3710093118878
  0
ARC
  5
1C95
  8
0
 10
54.262254510267589
 20
17.58835572337334
 30
0.0
 40
0.0321432290947136
 50
349.87735088920391
 51
78.587968634874343
  0
LINE
  5
1C96
  8
0
 10
54.293903050193563
 20
17.582738027029109
 30
0.0
 11
54.291758592763081
 21
17.570773962892339
 31
0.0
  0
LINE
  5
1C97
  8
0
 10
54.291758592763081
 20
17.570773962892339
 30
0.0
 11
54.345494880045962
 21
17.550118925715939
 31
0.0
  0
ARC
  5
1C98
  8
0
 10
54.3339226021602
 20
17.520160781856902
 30
0.0
 40
0.0321454846534755
 50
344.38441871426699
 51
68.910464736159355
  0
LINE
  5
1C99
  8
0
 10
54.364881577683121
 20
17.511507804439962
 30
0.0
 11
54.198358517596859
 21
17.049690054399999
 31
0.0
  0
LINE
  5
1C9A
  8
0
 10
54.291758592850208
 20
17.570773963378439
 30
0.0
 11
54.198358517596859
 21
17.049690054399999
 31
0.0
  0
LINE
  5
1C9B
  8
0
 10
54.19835851759683
 20
17.04969005439991
 30
0.0
 11
54.196833996330362
 21
17.041184657593991
 31
0.0
  0
LINE
  5
1C9C
  8
0
 10
54.197125819008598
 20
17.030044203449791
 30
0.0
 11
54.205233174996863
 21
16.9953773758
 31
0.0
  0
ARC
  5
1C9D
  8
0
 10
54.223966703657041
 20
17.036321345965401
 30
0.0
 40
0.0275651157601761
 50
169.83811773854691
 51
193.1629062189925
  0
ARC
  5
1CDF
  8
0
 10
54.105716535480248
 20
16.974637485642202
 30
0.0
 40
0.1016546181825807
 50
349.44056293853151
 51
11.772196077033311
  0
LINE
  5
1CE0
  8
0
 10
54.205649666496861
 20
16.95600872499999
 30
0.0
 11
54.155055179796861
 21
16.744876905999998
 31
0.0
  0
ARC
  5
1CE1
  8
0
 10
57.38206898200378
 20
16.018210327701439
 30
0.0
 40
3.307818398225399
 50
167.3086310352333
 51
168.05899940535431
  0
ARC
  5
1CE2
  8
0
 10
54.472509993692313
 20
16.636565307883028
 30
0.0
 40
0.332953300637292
 50
168.68056308931611
 51
185.74725493405541
  0
ARC
  5
1CE3
  8
0
 10
55.335136349711568
 20
16.677025062375598
 30
0.0
 40
1.1961846983428801
 50
183.53785781693799
 51
187.54379147443811
  0
ARC
  5
1CE4
  8
0
 10
54.117509089783923
 20
16.515649563813032
 30
0.0
 40
0.032090013488514
 50
269.79411623703709
 51
7.7649802771318788
  0
LINE
  5
1CE5
  8
0
 10
54.117393779396863
 20
16.4835597575
 30
0.0
 11
54.04265071979686
 21
16.483778349200001
 31
0.0
  0
ARC
  5
1CE6
  8
0
 10
54.010681869326071
 20
16.48714709062536
 30
0.0
 40
0.0321458522863315
 50
260.5880311102697
 51
353.98461406204223
  0
LINE
  5
1CE7
  8
0
 10
53.985379461338113
 20
16.45891883840526
 30
0.0
 11
54.005424992196779
 21
16.455433985100012
 31
0.0
  0
LINE
  5
1CE8
  8
0
 10
53.958799104296872
 20
15.9921159167
 30
0.0
 11
53.989271932496862
 21
15.8417082988
 31
0.0
  0
ARC
  5
1CE9
  8
0
 10
53.970926380277028
 20
15.827790230215649
 30
0.0
 40
0.0201286672739976
 50
260.26820042455699
 51
12.69280081512159
  0
LINE
  5
1CEA
  8
0
 10
53.990563146396859
 20
15.83221297400001
 30
0.0
 11
53.989273740429113
 21
15.841695003633349
 31
0.0
  0
LINE
  5
1CEB
  8
0
 10
53.967523902296861
 20
15.8079512184
 30
0.0
 11
53.957131650036523
 21
15.80914558564519
 31
0.0
  0
LINE
  5
1CEC
  8
0
 10
53.957131650036523
 20
15.80914558564519
 30
0.0
 11
53.843559006546862
 21
15.8305530831
 31
0.0
  0
LINE
  5
1CED
  8
0
 10
53.843559006546883
 20
15.830553083099989
 30
0.0
 11
52.269595014296868
 21
16.182388545999999
 31
0.0
  0
LINE
  5
1CEE
  8
0
 10
52.269595014296868
 20
16.182388545999999
 30
0.0
 11
52.158438493553788
 21
16.211201140682132
 31
0.0
  0
ARC
  5
1CEF
  8
0
 10
52.15452251371407
 20
16.234152547142831
 30
0.0
 40
0.0205035379619812
 50
143.6421956619007
 51
252.99680297163439
  0
LINE
  5
1CF0
  8
0
 10
52.158438493553788
 20
16.211201140682132
 30
0.0
 11
52.148526765297262
 21
16.214545250799869
 31
0.0
  0
LINE
  5
1CF1
  8
0
 10
52.138010387096863
 20
16.246307576700001
 30
0.0
 11
52.143214328297312
 21
16.254338171212101
 31
0.0
  0
LINE
  5
1CF2
  8
0
 10
52.143214328297312
 20
16.254338171212101
 30
0.0
 11
52.229103698596859
 21
16.3697657429
 31
0.0
  0
ARC
  5
1CF3
  8
0
 10
52.083431662489069
 20
16.482261801626279
 30
0.0
 40
0.184048654590765
 50
322.32265246483843
 51
347.5717275344856
  0
LINE
  5
1CF4
  8
0
 10
52.263168200596859
 20
16.4426511566
 30
0.0
 11
53.955803500996851
 21
16.051656077499828
 31
0.0
  0
LINE
  5
1CF5
  8
0
 10
53.860468204146862
 20
20.304052932649999
 30
0.0
 11
54.972269879496857
 21
19.307111914899998
 31
0.0
  0
ARC
  5
1CF6
  8
0
 10
54.985495770580819
 20
19.32457713745692
 30
0.0
 40
0.0219079481907236
 50
232.86444133145969
 51
312.9415872443841
  0
ARC
  5
1CF7
  8
0
 10
57.448792093379843
 20
17.118913161935641
 30
0.0
 40
3.284659213291127
 50
105.06115149255071
 51
138.1931134977892
  0
ARC
  5
1CF8
  8
0
 10
57.249067168064478
 20
20.303045073574921
 30
0.0
 40
0.164476640705083
 50
48.297820002789813
 51
90.141450392050885
  0
LINE
  5
1CF9
  8
0
 10
57.358486694496868
 20
20.425845450499988
 30
0.0
 11
57.40036255064819
 21
20.38267491518441
 31
0.0
  0
ARC
  5
1CFA
  8
0
 10
57.428627618347633
 20
16.774493658676001
 30
0.0
 40
3.6974099665224718
 50
92.789898101736455
 51
101.4738994855268
  0
ARC
  5
1CFB
  8
0
 10
56.730803603260739
 20
20.229993338266791
 30
0.0
 40
0.1721902443784769
 50
102.636894187243
 51
134.7404213137269
  0
ARC
  5
1CFC
  8
0
 10
56.640905262059
 20
20.312857761614211
 30
0.0
 40
0.0503565570892483
 50
128.4389446376552
 51
175.61849752431749
  0
LINE
  5
1CFD
  8
0
 10
56.590695873596857
 20
20.316704858199991
 30
0.0
 11
56.595273970997198
 21
20.290741177800111
 31
0.0
  0
ATTDEF
  5
2816
  8
DEFPOINTS
 10
61.461176743653397
 20
6.4386562689393632
 30
0.0
 40
0.001
  1
METAL
  3

  2
MATERIAL
 70
     0
1001
ACDBATTR
1070
     0
1070
     1
  0
ATTDEF
  5
2817
  8
DEFPOINTS
 10
61.461176743653397
 20
6.4403229356060283
 30
0.0
 40
0.001
  1
KITCHEN SINK FAUCET
  3

  2
PRODUCT
 70
     0
1001
ACDBATTR
1070
     0
1070
     1
  0
ATTDEF
  5
2818
  8
DEFPOINTS
 10
61.461176743653397
 20
6.4419896022726926
 30
0.0
 40
0.001
  1
SENSATE
  3

  2
TRADENAME
 70
     0
1001
ACDBATTR
1070
     0
1070
     1
  0
ATTDEF
  5
2819
  8
DEFPOINTS
 10
61.461176743653397
 20
6.4436562689393577
 30
0.0
 40
0.001
  1
K-72218
  3

  2
MODELNUMBER
 70
     0
1001
ACDBATTR
1070
     0
1070
     1
  0
ARC
  5
28A7
  8
0
 10
53.884751053708108
 20
20.323907524972391
 30
0.0
 40
0.0313665684942147
 50
157.53955337831999
 51
219.27075429361631
  0
ARC
  5
28A8
  8
0
 10
53.84862569490388
 20
20.264644378128551
 30
0.0
 40
0.0411494738075858
 50
73.274158736721574
 51
124.0836859711432
  0
ENDSEC
  0
EOF
