  0
SECTION
  2
HEADER
  9
$ACADVER
  1
AC1009
  9
$INSBASE
 10
221.0898184632224
 20
11.287321303649509
 30
0.0
  9
$EXTMIN
 10
204.3398184632224
 20
2.137321303649514
 30
0.0
  9
$EXTMAX
 10
237.8398184632224
 20
20.437321303649519
 30
0.0
  9
$LIMMIN
 10
0.0
 20
0.0
  9
$LIMMAX
 10
11.692913385800001
 20
8.2677165353999982
  9
$ORTHOMODE
 70
     1
  9
$REGENMODE
 70
     1
  9
$FILLMODE
 70
     1
  9
$QTEXTMODE
 70
     0
  9
$MIRRTEXT
 70
     0
  9
$DRAGMODE
 70
     2
  9
$LTSCALE
 40
0.6431102362
  9
$OSMODE
 70
  3071
  9
$ATTMODE
 70
     1
  9
$TEXTSIZE
 40
0.2
  9
$TRACEWID
 40
0.05
  9
$TEXTSTYLE
  7
STANDARD
  9
$CLAYER
  8
0
  9
$CELTYPE
  6
BYLAYER
  9
$CECOLOR
 62
   256
  9
$DIMSCALE
 40
1.0
  9
$DIMASZ
 40
0.1875
  9
$DIMEXO
 40
0.0625
  9
$DIMDLI
 40
0.4443307087
  9
$DIMRND
 40
0.0
  9
$DIMDLE
 40
0.0
  9
$DIMEXE
 40
0.125
  9
$DIMTP
 40
0.01
  9
$DIMTM
 40
0.01
  9
$DIMTXT
 40
1.0
  9
$DIMCEN
 40
0.1052362205
  9
$DIMTSZ
 40
0.0
  9
$DIMTOL
 70
     1
  9
$DIMLIM
 70
     0
  9
$DIMTIH
 70
     1
  9
$DIMTOH
 70
     1
  9
$DIMSE1
 70
     0
  9
$DIMSE2
 70
     0
  9
$DIMTAD
 70
     0
  9
$DIMZIN
 70
     0
  9
$DIMBLK
  1

  9
$DIMASO
 70
     1
  9
$DIMSHO
 70
     1
  9
$DIMPOST
  1
\X
  9
$DIMAPOST
  1

  9
$DIMALT
 70
     1
  9
$DIMALTD
 70
     2
  9
$DIMALTF
 40
25.399999999999999
  9
$DIMLFAC
 40
1.0
  9
$DIMTOFL
 70
     0
  9
$DIMTVP
 40
0.0
  9
$DIMTIX
 70
     0
  9
$DIMSOXD
 70
     0
  9
$DIMSAH
 70
     0
  9
$DIMBLK1
  1

  9
$DIMBLK2
  1

  9
$DIMSTYLE
  2
STANDARD
  9
$DIMCLRD
 70
     0
  9
$DIMCLRE
 70
     0
  9
$DIMCLRT
 70
     0
  9
$DIMTFAC
 40
1.0
  9
$DIMGAP
 40
0.09
  9
$LUNITS
 70
     2
  9
$LUPREC
 70
     4
  9
$SKETCHINC
 40
0.1
  9
$FILLETRAD
 40
0.0
  9
$AUNITS
 70
     0
  9
$AUPREC
 70
     0
  9
$MENU
  1
.
  9
$ELEVATION
 40
0.0
  9
$PELEVATION
 40
0.0
  9
$THICKNESS
 40
0.0
  9
$LIMCHECK
 70
     0
  9
$BLIPMODE
 70
     0
  9
$CHAMFERA
 40
0.0
  9
$CHAMFERB
 40
0.0
  9
$SKPOLY
 70
     0
  9
$TDCREATE
 40
2458249.4810457518
  9
$TDUPDATE
 40
2458249.5951805669
  9
$TDINDWG
 40
0.0519341435
  9
$TDUSRTIMER
 40
0.0519341435
  9
$USRTIMER
 70
     1
  9
$ANGBASE
 50
0.0
  9
$ANGDIR
 70
     0
  9
$PDMODE
 70
     0
  9
$PDSIZE
 40
0.3125
  9
$PLINEWID
 40
0.0
  9
$COORDS
 70
     1
  9
$SPLFRAME
 70
     0
  9
$SPLINETYPE
 70
     6
  9
$SPLINESEGS
 70
     8
  9
$ATTDIA
 70
     1
  9
$ATTREQ
 70
     1
  9
$HANDLING
 70
     1
  9
$HANDSEED
  5
1341
  9
$SURFTAB1
 70
     6
  9
$SURFTAB2
 70
     6
  9
$SURFTYPE
 70
     6
  9
$SURFU
 70
     6
  9
$SURFV
 70
     6
  9
$UCSNAME
  2

  9
$UCSORG
 10
0.0
 20
0.0
 30
0.0
  9
$UCSXDIR
 10
1.0
 20
0.0
 30
0.0
  9
$UCSYDIR
 10
0.0
 20
1.0
 30
0.0
  9
$PUCSNAME
  2

  9
$PUCSORG
 10
0.0
 20
0.0
 30
0.0
  9
$PUCSXDIR
 10
1.0
 20
0.0
 30
0.0
  9
$PUCSYDIR
 10
0.0
 20
1.0
 30
0.0
  9
$USERI1
 70
     0
  9
$USERI2
 70
     0
  9
$USERI3
 70
     0
  9
$USERI4
 70
     0
  9
$USERI5
 70
     0
  9
$USERR1
 40
0.0
  9
$USERR2
 40
0.0
  9
$USERR3
 40
0.0
  9
$USERR4
 40
0.0
  9
$USERR5
 40
0.0
  9
$WORLDVIEW
 70
     1
  9
$SHADEDGE
 70
     3
  9
$SHADEDIF
 70
    70
  9
$TILEMODE
 70
     1
  9
$MAXACTVP
 70
    64
  9
$PLIMCHECK
 70
     0
  9
$PEXTMIN
 10
1.0000000000000000E+020
 20
1.0000000000000000E+020
 30
1.0000000000000000E+020
  9
$PEXTMAX
 10
-1.0000000000000000E+020
 20
-1.0000000000000000E+020
 30
-1.0000000000000000E+020
  9
$PLIMMIN
 10
0.0
 20
0.0
  9
$PLIMMAX
 10
12.0
 20
9.0
  9
$UNITMODE
 70
     0
  9
$VISRETAIN
 70
     1
  9
$PLINEGEN
 70
     0
  9
$PSLTSCALE
 70
     1
  0
ENDSEC
  0
SECTION
  2
TABLES
  0
TABLE
  2
VPORT
 70
     1
  0
VPORT
  2
*ACTIVE
 70
     0
 10
0.0
 20
0.0
 11
1.0
 21
1.0
 12
0.0
 22
0.0
 13
0.0
 23
0.0
 14
1.0
 24
1.0
 15
0.0
 25
0.0
 16
-0.0000000000000284
 26
0.0
 36
106.7395003355275
 17
221.0898184632224
 27
11.28732130364952
 37
0.0
 40
38.172503192743342
 41
2.0834248079034019
 42
50.0
 43
0.0
 44
0.0
 50
0.0
 51
0.0
 71
     0
 72
   100
 73
     1
 74
     1
 75
     0
 76
     0
 77
     0
 78
     0
  0
ENDTAB
  0
TABLE
  2
LTYPE
 70
     2
  0
LTYPE
  2
CONTINUOUS
 70
     0
  3
Solid line
 72
    65
 73
     0
 40
0.0
  0
LTYPE
  2
PHANTOM2
 70
     0
  3
___ _ _ ___ _ _ ___ _ _ ___ _ _
 72
    65
 73
     6
 40
1.25
 49
0.625
 49
-0.125
 49
0.125
 49
-0.125
 49
0.125
 49
-0.125
  0
ENDTAB
  0
TABLE
  2
LAYER
 70
     2
  0
LAYER
  2
0
 70
     0
 62
   255
  6
CONTINUOUS
  0
LAYER
  2
DEFPOINTS
 70
     0
 62
     7
  6
CONTINUOUS
  0
ENDTAB
  0
TABLE
  2
STYLE
 70
     1
  0
STYLE
  2
STANDARD
 70
     0
 40
0.0
 41
0.8
 50
0.0
 71
     0
 42
0.2
  3
txt
  4

  0
ENDTAB
  0
TABLE
  2
VIEW
 70
     0
  0
ENDTAB
  0
TABLE
  2
UCS
 70
     0
  0
ENDTAB
  0
TABLE
  2
APPID
 70
     9
  0
APPID
  2
ACAD
 70
     0
  0
APPID
  2
ACAD_MLEADERVER
 70
     0
  0
APPID
  2
ACAD_EXEMPT_FROM_CAD_STANDARDS
 70
     0
  0
APPID
  2
ACAD_DSTYLE_DIMJAG
 70
     0
  0
APPID
  2
ACAD_DSTYLE_DIMTALN
 70
     0
  0
APPID
  2
ACAD_NAV_VCDISPLAY
 70
     0
  0
APPID
  2
ACAECLAYERSTANDARD
 70
     0
  0
APPID
  2
ACCMTRANSPARENCY
 70
     0
  0
APPID
  2
ACDBATTR
 70
     0
  0
ENDTAB
  0
TABLE
  2
DIMSTYLE
 70
     1
  0
DIMSTYLE
  2
STANDARD
 70
     0
  3

  4

  5

  6

  7

 40
1.0
 41
0.1875
 42
0.0625
 43
0.38
 44
0.125
 45
0.0
 46
0.0
 47
0.01
 48
0.01
140
0.15625
141
0.09
142
0.0
143
25.399999999999999
144
1.0
145
0.0
146
1.0
147
0.09
 71
     1
 72
     0
 73
     1
 74
     1
 75
     0
 76
     0
 77
     0
 78
     4
170
     0
171
     2
172
     0
173
     0
174
     0
175
     0
176
     0
177
     0
178
     0
  0
ENDTAB
  0
ENDSEC
  0
SECTION
  2
BLOCKS
  0
BLOCK
  8
0
  2
$MODEL_SPACE
 70
     0
 10
0.0
 20
0.0
 30
0.0
  3
$MODEL_SPACE
  1

  0
ENDBLK
  5
21
  8
0
  0
BLOCK
 67
     1
  8
0
  2
$PAPER_SPACE
 70
     0
 10
0.0
 20
0.0
 30
0.0
  3
$PAPER_SPACE
  1

  0
ENDBLK
  5
1D
 67
     1
  8
0
  0
ENDSEC
  0
SECTION
  2
ENTITIES
  0
ATTDEF
  5
1150
  8
DEFPOINTS
 10
221.0865782243026
 20
11.292911055668791
 30
0.0
 40
0.001
  1
K-8199
  3

  2
MODELNUMBER
 70
     0
1001
ACDBATTR
1070
     0
1070
     1
  0
ATTDEF
  5
1151
  8
DEFPOINTS
 10
221.0865782243026
 20
11.29124438900212
 30
0.0
 40
0.001
  1
CAIRN
  3

  2
TRADENAME
 70
     0
1001
ACDBATTR
1070
     0
1070
     1
  0
ATTDEF
  5
1152
  8
DEFPOINTS
 10
221.0865782243026
 20
11.28957772233546
 30
0.0
 40
0.001
  1
KITCHEN SINK
  3

  2
PRODUCT
 70
     0
1001
ACDBATTR
1070
     0
1070
     1
  0
ATTDEF
  5
1153
  8
DEFPOINTS
 10
221.0865782243026
 20
11.28791105566879
 30
0.0
 40
0.001
  1
NEOROC
  3

  2
MATERIAL
 70
     0
1001
ACDBATTR
1070
     0
1070
     1
  0
LINE
  5
124E
  8
0
 10
204.3398184632224
 20
4.6907913036495152
 30
0.0
 11
204.3398184632224
 21
17.883851303649511
 31
0.0
  0
LINE
  5
124F
  8
0
 10
205.89328846322249
 20
17.88522176894951
 30
0.0
 11
205.89328846322249
 21
4.6894208384495171
 31
0.0
  0
LINE
  5
1250
  8
0
 10
235.28634846322251
 20
2.137321303649514
 30
0.0
 11
206.89328846322249
 21
2.137321303649514
 31
0.0
  0
LINE
  5
1251
  8
0
 10
235.28666500488569
 20
2.931969917021259
 30
0.0
 11
206.89293445764201
 21
2.9317621636093949
 31
0.0
  0
LINE
  5
1252
  8
0
 10
206.89191799802251
 20
3.6907913036495148
 30
0.0
 11
220.35561720282249
 21
3.6907913036495148
 31
0.0
  0
LINE
  5
1253
  8
0
 10
221.82401920082251
 20
3.6907913036495148
 30
0.0
 11
235.28771892842249
 21
3.6907913036495148
 31
0.0
  0
LINE
  5
1254
  8
0
 10
220.77724741882241
 20
4.2061752838495137
 30
0.0
 11
220.77724741912249
 21
18.368467356649511
 31
0.0
  0
LINE
  5
1255
  8
0
 10
221.40238950762239
 20
18.368467323449511
 30
0.0
 11
221.4023895073224
 21
4.2061752529495129
 31
0.0
  0
LINE
  5
1256
  8
0
 10
235.28771892842249
 20
18.883851303649511
 30
0.0
 11
221.8240197211224
 21
18.883851303649511
 31
0.0
  0
LINE
  5
1257
  8
0
 10
220.35561772562249
 20
18.883851303649521
 30
0.0
 11
206.89191799792249
 21
18.883851303649511
 31
0.0
  0
LINE
  5
1258
  8
0
 10
206.89293446053389
 20
19.642880423091849
 30
0.0
 11
235.28670446041451
 21
19.64288044229578
 31
0.0
  0
LINE
  5
1259
  8
0
 10
206.89328846322249
 20
20.437321303649519
 30
0.0
 11
235.28634846322251
 21
20.437321303649519
 31
0.0
  0
LINE
  5
125A
  8
0
 10
236.2863484632224
 20
4.6894208384495171
 30
0.0
 11
236.2863484632224
 21
17.88522176894951
 31
0.0
  0
LINE
  5
125B
  8
0
 10
237.8398184632224
 20
17.883851303649511
 30
0.0
 11
237.8398184632224
 21
4.6907913036495152
 31
0.0
  0
ARC
  5
125C
  8
0
 10
206.89328846322249
 20
4.6907913036495152
 30
0.0
 40
2.553469999999999
 50
180.0
 51
270.0
  0
ARC
  5
125D
  8
0
 10
206.89328846322249
 20
17.883851303649511
 30
0.0
 40
2.553469999999999
 50
90.0
 51
180.0
  0
ARC
  5
125E
  8
0
 10
235.28634846322251
 20
4.6907913036495152
 30
0.0
 40
2.553469999999999
 50
270.0
 51
0.0
  0
ARC
  5
125F
  8
0
 10
235.28634846322251
 20
17.883851303649511
 30
0.0
 40
2.553469999999999
 50
0.0
 51
90.0
  0
ARC
  5
1260
  8
0
 10
235.28546297597379
 20
17.88322322457655
 30
0.0
 40
1.7596576556691259
 50
0.0311130121555369
 51
89.959576327555141
  0
ARC
  5
1261
  8
0
 10
235.28581805020599
 20
4.6912722215399114
 30
0.0
 40
1.7593025083870231
 50
270.02758305079988
 51
359.97420557085712
  0
ARC
  5
1262
  8
0
 10
206.894155977097
 20
4.6913760518853449
 30
0.0
 40
1.759614312263738
 50
180.02954633126089
 51
269.9602254229851
  0
ARC
  5
1263
  8
0
 10
206.89415594802171
 20
17.883266563869981
 30
0.0
 40
1.759614283187477
 50
90.039773536774405
 51
179.97045373534971
  0
ARC
  5
1264
  8
0
 10
221.08981872337239
 20
12.862085165201281
 30
0.0
 40
6.0663595781710358
 50
83.048549400588286
 51
96.9514505994117
  0
ARC
  5
1265
  8
0
 10
220.22662840338219
 20
18.348169438428329
 30
0.0
 40
0.5509930180853809
 50
2.1111851090050369
 51
76.461224606539929
  0
ARC
  5
1266
  8
0
 10
221.9528253666054
 20
18.348319148138739
 30
0.0
 40
0.55080448783811
 50
103.5238455935998
 51
177.90367900893591
  0
ARC
  5
1267
  8
0
 10
221.0898182016833
 20
9.7125578806650594
 30
0.0
 40
6.0663600136489073
 50
263.04854989149572
 51
276.95145010850428
  0
ARC
  5
1268
  8
0
 10
220.22681635401571
 20
4.2263195377199407
 30
0.0
 40
0.5507995534386777
 50
283.52345585629729
 51
357.90406841324892
  0
ARC
  5
1269
  8
0
 10
221.95283774511239
 20
4.2263334572991234
 30
0.0
 40
0.5508172253013239
 50
182.09731640812871
 51
256.4750930567925
  0
ARC
  5
126A
  8
0
 10
206.89135257573841
 20
17.88578719113362
 30
0.0
 40
0.9980642726770554
 50
89.967540861433307
 51
180.03245913856671
  0
ARC
  5
126B
  8
0
 10
235.2882865744678
 20
17.885789414894891
 30
0.0
 40
0.9980620501784807
 50
359.96741312959858
 51
90.032586876137984
  0
ARC
  5
126C
  8
0
 10
235.2882843532343
 20
4.688855413637703
 30
0.0
 40
0.9980642701508418
 50
269.96754071050259
 51
0.0324592894974272
  0
ARC
  5
126D
  8
0
 10
206.891348872436
 20
4.6888517128630687
 30
0.0
 40
0.998060571480244
 50
179.96732813937831
 51
270.03267186062169
  0
CIRCLE
  5
126E
  8
0
 10
213.33981846322251
 20
14.287321303649509
 30
0.0
 40
0.31
  0
CIRCLE
  5
126F
  8
0
 10
213.33981846322251
 20
14.287321303649509
 30
0.0
 40
0.2760925586
  0
CIRCLE
  5
1270
  8
0
 10
213.33981846322251
 20
14.287321303649509
 30
0.0
 40
2.25
  0
CIRCLE
  5
1271
  8
0
 10
213.33981846322251
 20
14.287321303649509
 30
0.0
 40
1.6780895467000001
  0
CIRCLE
  5
1272
  8
0
 10
228.8398184632224
 20
14.287321303649509
 30
0.0
 40
0.31
  0
CIRCLE
  5
1273
  8
0
 10
228.8398184632224
 20
14.287321303649509
 30
0.0
 40
0.2760925586
  0
CIRCLE
  5
1274
  8
0
 10
228.8398184632224
 20
14.287321303649509
 30
0.0
 40
2.25
  0
CIRCLE
  5
1275
  8
0
 10
228.8398184632224
 20
14.287321303649509
 30
0.0
 40
1.6780895467000001
  0
LINE
  5
1276
  8
0
 10
237.045120380307
 20
4.6904801875934998
 30
0.0
 11
237.04512037220289
 21
17.884178761752331
 31
0.0
  0
LINE
  5
1277
  8
0
 10
205.13454189879741
 20
4.6904686526755022
 30
0.0
 11
205.13454189879729
 21
17.88417396101914
 31
0.0
  0
ENDSEC
  0
EOF
