  0
SECTION
  2
HEADER
  9
$ACADVER
  1
AC1009
  9
$INSBASE
 10
94.006626827045693
 20
13.2109206481
 30
0.0
  9
$EXTMIN
 10
77.256626827045693
 20
3.0709206480999991
 30
0.0
  9
$EXTMAX
 10
110.75662682704569
 20
13.2109206481
 30
0.0
  9
$LIMMIN
 10
0.0
 20
0.0
  9
$LIMMAX
 10
11.692913385800001
 20
8.2677165353999982
  9
$ORTHOMODE
 70
     0
  9
$REGENMODE
 70
     1
  9
$FILLMODE
 70
     1
  9
$QTEXTMODE
 70
     0
  9
$MIRRTEXT
 70
     0
  9
$DRAGMODE
 70
     2
  9
$LTSCALE
 40
0.6431102362
  9
$OSMODE
 70
  3071
  9
$ATTMODE
 70
     1
  9
$TEXTSIZE
 40
0.2
  9
$TRACEWID
 40
0.05
  9
$TEXTSTYLE
  7
STANDARD
  9
$CLAYER
  8
0
  9
$CELTYPE
  6
BYLAYER
  9
$CECOLOR
 62
   256
  9
$DIMSCALE
 40
1.0
  9
$DIMASZ
 40
0.1875
  9
$DIMEXO
 40
0.0625
  9
$DIMDLI
 40
0.4443307087
  9
$DIMRND
 40
0.0
  9
$DIMDLE
 40
0.0
  9
$DIMEXE
 40
0.125
  9
$DIMTP
 40
0.01
  9
$DIMTM
 40
0.01
  9
$DIMTXT
 40
1.0
  9
$DIMCEN
 40
0.1052362205
  9
$DIMTSZ
 40
0.0
  9
$DIMTOL
 70
     1
  9
$DIMLIM
 70
     0
  9
$DIMTIH
 70
     1
  9
$DIMTOH
 70
     1
  9
$DIMSE1
 70
     0
  9
$DIMSE2
 70
     0
  9
$DIMTAD
 70
     0
  9
$DIMZIN
 70
     0
  9
$DIMBLK
  1

  9
$DIMASO
 70
     1
  9
$DIMSHO
 70
     1
  9
$DIMPOST
  1
\X
  9
$DIMAPOST
  1

  9
$DIMALT
 70
     1
  9
$DIMALTD
 70
     2
  9
$DIMALTF
 40
25.399999999999999
  9
$DIMLFAC
 40
1.0
  9
$DIMTOFL
 70
     0
  9
$DIMTVP
 40
0.0
  9
$DIMTIX
 70
     0
  9
$DIMSOXD
 70
     0
  9
$DIMSAH
 70
     0
  9
$DIMBLK1
  1

  9
$DIMBLK2
  1

  9
$DIMSTYLE
  2
STANDARD
  9
$DIMCLRD
 70
     0
  9
$DIMCLRE
 70
     0
  9
$DIMCLRT
 70
     0
  9
$DIMTFAC
 40
1.0
  9
$DIMGAP
 40
0.09
  9
$LUNITS
 70
     2
  9
$LUPREC
 70
     4
  9
$SKETCHINC
 40
0.1
  9
$FILLETRAD
 40
0.0
  9
$AUNITS
 70
     0
  9
$AUPREC
 70
     0
  9
$MENU
  1
.
  9
$ELEVATION
 40
0.0
  9
$PELEVATION
 40
0.0
  9
$THICKNESS
 40
0.0
  9
$LIMCHECK
 70
     0
  9
$BLIPMODE
 70
     0
  9
$CHAMFERA
 40
0.0
  9
$CHAMFERB
 40
0.0
  9
$SKPOLY
 70
     0
  9
$TDCREATE
 40
2458249.6884124419
  9
$TDUPDATE
 40
2458250.4770027199
  9
$TDINDWG
 40
0.0340480671
  9
$TDUSRTIMER
 40
0.0340480671
  9
$USRTIMER
 70
     1
  9
$ANGBASE
 50
0.0
  9
$ANGDIR
 70
     0
  9
$PDMODE
 70
     0
  9
$PDSIZE
 40
0.3125
  9
$PLINEWID
 40
0.0
  9
$COORDS
 70
     1
  9
$SPLFRAME
 70
     0
  9
$SPLINETYPE
 70
     6
  9
$SPLINESEGS
 70
     8
  9
$ATTDIA
 70
     1
  9
$ATTREQ
 70
     1
  9
$HANDLING
 70
     1
  9
$HANDSEED
  5
1909
  9
$SURFTAB1
 70
     6
  9
$SURFTAB2
 70
     6
  9
$SURFTYPE
 70
     6
  9
$SURFU
 70
     6
  9
$SURFV
 70
     6
  9
$UCSNAME
  2

  9
$UCSORG
 10
0.0
 20
0.0
 30
0.0
  9
$UCSXDIR
 10
1.0
 20
0.0
 30
0.0
  9
$UCSYDIR
 10
0.0
 20
1.0
 30
0.0
  9
$PUCSNAME
  2

  9
$PUCSORG
 10
0.0
 20
0.0
 30
0.0
  9
$PUCSXDIR
 10
1.0
 20
0.0
 30
0.0
  9
$PUCSYDIR
 10
0.0
 20
1.0
 30
0.0
  9
$USERI1
 70
     0
  9
$USERI2
 70
     0
  9
$USERI3
 70
     0
  9
$USERI4
 70
     0
  9
$USERI5
 70
     0
  9
$USERR1
 40
0.0
  9
$USERR2
 40
0.0
  9
$USERR3
 40
0.0
  9
$USERR4
 40
0.0
  9
$USERR5
 40
0.0
  9
$WORLDVIEW
 70
     1
  9
$SHADEDGE
 70
     3
  9
$SHADEDIF
 70
    70
  9
$TILEMODE
 70
     1
  9
$MAXACTVP
 70
    64
  9
$PLIMCHECK
 70
     0
  9
$PEXTMIN
 10
1.0000000000000000E+020
 20
1.0000000000000000E+020
 30
1.0000000000000000E+020
  9
$PEXTMAX
 10
-1.0000000000000000E+020
 20
-1.0000000000000000E+020
 30
-1.0000000000000000E+020
  9
$PLIMMIN
 10
0.0
 20
0.0
  9
$PLIMMAX
 10
12.0
 20
9.0
  9
$UNITMODE
 70
     0
  9
$VISRETAIN
 70
     1
  9
$PLINEGEN
 70
     0
  9
$PSLTSCALE
 70
     1
  0
ENDSEC
  0
SECTION
  2
TABLES
  0
TABLE
  2
VPORT
 70
     1
  0
VPORT
  2
*ACTIVE
 70
     0
 10
0.0
 20
0.0
 11
1.0
 21
1.0
 12
0.0
 22
0.0
 13
0.0
 23
0.0
 14
1.0
 24
1.0
 15
0.0
 25
0.0
 16
-0.0000000000000284
 26
0.0
 36
97.871198567522356
 17
94.006626827045693
 27
8.1409206481000016
 37
0.0
 40
35.006933254300542
 41
2.0834248079034019
 42
50.0
 43
0.0
 44
0.0
 50
0.0
 51
0.0
 71
     0
 72
   100
 73
     1
 74
     1
 75
     0
 76
     0
 77
     0
 78
     0
  0
ENDTAB
  0
TABLE
  2
LTYPE
 70
     2
  0
LTYPE
  2
CONTINUOUS
 70
     0
  3
Solid line
 72
    65
 73
     0
 40
0.0
  0
LTYPE
  2
PHANTOM2
 70
     0
  3
___ _ _ ___ _ _ ___ _ _ ___ _ _
 72
    65
 73
     6
 40
1.25
 49
0.625
 49
-0.125
 49
0.125
 49
-0.125
 49
0.125
 49
-0.125
  0
ENDTAB
  0
TABLE
  2
LAYER
 70
     2
  0
LAYER
  2
0
 70
     0
 62
   255
  6
CONTINUOUS
  0
LAYER
  2
DEFPOINTS
 70
     0
 62
     7
  6
CONTINUOUS
  0
ENDTAB
  0
TABLE
  2
STYLE
 70
     1
  0
STYLE
  2
STANDARD
 70
     0
 40
0.0
 41
0.8
 50
0.0
 71
     0
 42
0.2
  3
txt
  4

  0
ENDTAB
  0
TABLE
  2
VIEW
 70
     0
  0
ENDTAB
  0
TABLE
  2
UCS
 70
     0
  0
ENDTAB
  0
TABLE
  2
APPID
 70
     9
  0
APPID
  2
ACAD
 70
     0
  0
APPID
  2
ACAD_MLEADERVER
 70
     0
  0
APPID
  2
ACAD_EXEMPT_FROM_CAD_STANDARDS
 70
     0
  0
APPID
  2
ACAD_DSTYLE_DIMJAG
 70
     0
  0
APPID
  2
ACAD_DSTYLE_DIMTALN
 70
     0
  0
APPID
  2
ACAD_NAV_VCDISPLAY
 70
     0
  0
APPID
  2
ACAECLAYERSTANDARD
 70
     0
  0
APPID
  2
ACCMTRANSPARENCY
 70
     0
  0
APPID
  2
ACDBATTR
 70
     0
  0
ENDTAB
  0
TABLE
  2
DIMSTYLE
 70
     1
  0
DIMSTYLE
  2
STANDARD
 70
     0
  3

  4

  5

  6

  7

 40
1.0
 41
0.1875
 42
0.0625
 43
0.38
 44
0.125
 45
0.0
 46
0.0
 47
0.01
 48
0.01
140
0.15625
141
0.09
142
0.0
143
25.399999999999999
144
1.0
145
0.0
146
1.0
147
0.09
 71
     1
 72
     0
 73
     1
 74
     1
 75
     0
 76
     0
 77
     0
 78
     4
170
     0
171
     2
172
     0
173
     0
174
     0
175
     0
176
     0
177
     0
178
     0
  0
ENDTAB
  0
ENDSEC
  0
SECTION
  2
BLOCKS
  0
BLOCK
  8
0
  2
$MODEL_SPACE
 70
     0
 10
0.0
 20
0.0
 30
0.0
  3
$MODEL_SPACE
  1

  0
ENDBLK
  5
21
  8
0
  0
BLOCK
 67
     1
  8
0
  2
$PAPER_SPACE
 70
     0
 10
0.0
 20
0.0
 30
0.0
  3
$PAPER_SPACE
  1

  0
ENDBLK
  5
1D
 67
     1
  8
0
  0
ENDSEC
  0
SECTION
  2
ENTITIES
  0
LINE
  5
15BB
  8
0
 10
78.5604394433457
 20
11.397836658999999
 30
0.0
 11
78.933110270945704
 21
4.2868536572
 31
0.0
  0
LINE
  5
15BC
  8
0
 10
79.781968983345706
 20
3.2952961667
 30
0.0
 11
79.793728005945709
 21
3.0709206480999991
 31
0.0
  0
LINE
  5
15BD
  8
0
 10
80.801398808745702
 20
3.2172882852999991
 30
0.0
 11
80.793728005945709
 21
3.0709206480999991
 31
0.0
  0
LINE
  5
15BE
  8
0
 10
79.793728005945709
 20
3.0709206480999991
 30
0.0
 11
80.793728005945709
 21
3.0709206480999991
 31
0.0
  0
LINE
  5
15BF
  8
0
 10
89.143675790275964
 20
3.0709206480999991
 30
0.0
 11
94.041577863715403
 21
3.0709206480999991
 31
0.0
  0
LINE
  5
15C0
  8
0
 10
94.412626827045699
 20
3.0709206480999991
 30
0.0
 11
95.412626826645706
 21
3.0709206480999991
 31
0.0
  0
LINE
  5
15C1
  8
0
 10
88.586413330745714
 20
3.182735211999999
 30
0.0
 11
94.362891509645706
 21
3.182735211999999
 31
0.0
  0
LINE
  5
15C2
  8
0
 10
80.933269713445696
 20
3.449988876099999
 30
0.0
 11
88.586413330745714
 21
3.182735211999999
 31
0.0
  0
LINE
  5
15C3
  8
0
 10
107.2679039991457
 20
5.2081946765999998
 30
0.0
 11
106.53884032324569
 21
5.182735211999999
 31
0.0
  0
LINE
  5
15C4
  8
0
 10
99.71262682704571
 20
5.0709206481000004
 30
0.0
 11
100.7126268270457
 21
5.0709206481000004
 31
0.0
  0
LINE
  5
15C5
  8
0
 10
101.0836757902759
 20
5.070920648069503
 30
0.0
 11
105.9815778637154
 21
5.070920648069503
 31
0.0
  0
LINE
  5
15C6
  8
0
 10
107.3140774784457
 20
5.0709206481000004
 30
0.0
 11
108.3140774785125
 21
5.0709206480760338
 31
0.0
  0
LINE
  5
15C7
  8
0
 10
100.7455015299457
 20
5.182735211999999
 30
0.0
 11
106.53884032324569
 21
5.182735211999999
 31
0.0
  0
LINE
  5
15C8
  8
0
 10
99.53304269434571
 20
5.2174244789999991
 30
0.0
 11
99.665852635245713
 21
5.2127866537000003
 31
0.0
  0
LINE
  5
15C9
  8
0
 10
97.173730791045699
 20
4.8711035520000001
 30
0.0
 11
97.312752664445696
 21
7.5237989216999992
 31
0.0
  0
LINE
  5
15CA
  8
0
 10
97.812500989545697
 20
7.5237989216999992
 30
0.0
 11
97.846515127745704
 21
6.8747705028999988
 31
0.0
  0
LINE
  5
15CB
  8
0
 10
109.17212398374571
 20
6.0419480717999994
 30
0.0
 11
109.4528142107457
 21
11.397836658999999
 31
0.0
  0
ARC
  5
15DC
  8
0
 10
88.525339211420416
 20
1.433801263629042
 30
0.0
 40
1.7500000010746759
 50
69.308553668604517
 51
87.999999997123993
  0
ARC
  5
15DD
  8
0
 10
78.00372038671108
 20
12.524062302405589
 30
0.0
 40
0.1869772047435085
 50
33.311407218117282
 51
87.956933825978965
  0
ARC
  5
15DE
  8
0
 10
95.413750805945696
 20
4.9649816906000002
 30
0.0
 40
1.7624819580999991
 50
344.70703696570001
 51
356.94671038630003
  0
ARC
  5
15DF
  8
0
 10
94.660844224163867
 20
1.430912576714884
 30
0.0
 40
1.753030889457287
 50
99.305183188432395
 51
110.68651541742911
  0
ARC
  5
15E0
  8
0
 10
100.4648947293658
 20
3.4324116182355051
 30
0.0
 40
1.7514570626163191
 50
69.311013671427546
 51
81.120700398489376
  0
ARC
  5
15E1
  8
0
 10
106.59991444244569
 20
3.4338012647
 30
0.0
 40
1.75
 50
92.000000000000398
 51
110.6914463403001
  0
ARC
  5
15E2
  8
0
 10
108.32741991804571
 20
6.0870014301999991
 30
0.0
 40
0.8459047013
 50
342.9945589867001
 51
356.94694983860001
  0
ARC
  5
15E3
  8
0
 10
97.562626827045705
 20
7.5107035716999988
 30
0.0
 40
0.2502170764
 50
3.0000000000000089
 51
176.99999999990001
  0
LINE
  5
1614
  8
0
 10
77.256626827045693
 20
12.7109206481
 30
0.0
 11
77.295579347345708
 21
13.1561499927
 31
0.0
  0
LINE
  5
1615
  8
0
 10
77.256626827045693
 20
12.7109206481
 30
0.0
 11
110.75662682704569
 21
12.7109206481
 31
0.0
  0
LINE
  5
1616
  8
0
 10
110.6579026248457
 20
13.2109206481
 30
0.0
 11
77.35535102924571
 21
13.2109206481
 31
0.0
  0
LINE
  5
1617
  8
0
 10
110.71767430674571
 20
13.1561499927
 30
0.0
 11
110.75662682704569
 21
12.7109206481
 31
0.0
  0
ARC
  5
1618
  8
0
 10
77.355760212568001
 20
13.15047410286191
 30
0.0
 40
0.060447930173123
 50
90.38784879191688
 51
174.6121512117858
  0
ARC
  5
1619
  8
0
 10
110.6579026248457
 20
13.1509206481
 30
0.0
 40
0.06
 50
4.9999999999998579
 51
90.0
  0
ARC
  5
1620
  8
0
 10
76.112110940436509
 20
11.279710130050001
 30
0.0
 40
2.4511765205711602
 50
2.76225478684588
 51
33.335978108643268
  0
ARC
  5
1621
  8
0
 10
79.771936826849654
 20
4.3310710075728442
 30
0.0
 40
0.8399911695748215
 50
183.01745916996549
 51
264.46603071614589
  0
ARC
  5
1622
  8
0
 10
79.481924456051132
 20
3.2791138227321812
 30
0.0
 40
0.300480592743879
 50
3.087150421780501
 51
45.926867183788808
  0
ARC
  5
1623
  8
0
 10
81.100247525967845
 20
3.2016471540786648
 30
0.0
 40
0.2992577497262226
 50
123.915748496912
 51
177.00398959628239
  0
ARC
  5
1624
  8
0
 10
94.128437241015817
 20
3.0114810747535699
 30
0.0
 40
0.2903390838990724
 50
11.813383283705731
 51
36.145784947872983
  0
ARC
  5
1625
  8
0
 10
95.707477644948767
 20
3.0496819448533432
 30
0.0
 40
0.2956147620968583
 50
146.50030161274759
 51
175.87998453120429
  0
ARC
  5
1626
  8
0
 10
95.425410638089176
 20
4.9632623520635528
 30
0.0
 40
1.7507820926214059
 50
271.16371817539141
 51
344.66066847440328
  0
ARC
  5
1627
  8
0
 10
99.594121945363256
 20
6.9663636484493274
 30
0.0
 40
1.750005398075541
 50
183.00016200880279
 51
267.99983805293931
  0
ARC
  5
1628
  8
0
 10
99.430270833022291
 20
5.0564698348657773
 30
0.0
 40
0.2827255442524442
 50
2.9298079338511869
 51
33.565674314430829
  0
ARC
  5
1629
  8
0
 10
100.96159219491059
 20
5.0584621538135286
 30
0.0
 40
0.2492768911792388
 50
150.0969285507588
 51
177.1352473059153
  0
ARC
  5
162A
  8
0
 10
107.0394952162943
 20
5.05496465192972
 30
0.0
 40
0.2750454735518574
 50
3.32572205323953
 51
33.856029414770703
  0
ARC
  5
162B
  8
0
 10
108.3330346033943
 20
6.0862031313195244
 30
0.0
 40
0.8403024938782699
 50
272.81690807988429
 51
342.93464574841249
  0
ARC
  5
162C
  8
0
 10
108.6505444716522
 20
5.0540403190286307
 30
0.0
 40
0.3368901645659039
 50
145.07400100411539
 51
177.12791623375489
  0
ARC
  5
162D
  8
0
 10
111.9040125840466
 20
11.27879307434465
 30
0.0
 40
2.4540873738028162
 50
146.68492745698899
 51
177.21958831173251
  0
ARC
  5
162E
  8
0
 10
110.0107444558209
 20
12.522113970710659
 30
0.0
 40
0.1890705281023562
 50
93.027299338315743
 51
146.42234502046011
  0
ATTDEF
  5
1777
  8
DEFPOINTS
 10
94.000814735107014
 20
13.20899563206687
 30
0.0
 40
0.001
  1
K-8204
  3

  2
MODELNUMBER
 70
     0
1001
ACDBATTR
1070
     0
1070
     1
  0
ATTDEF
  5
1778
  8
DEFPOINTS
 10
94.000814735107014
 20
13.20732896540021
 30
0.0
 40
0.001
  1
CAIRN
  3

  2
TRADENAME
 70
     0
1001
ACDBATTR
1070
     0
1070
     1
  0
ATTDEF
  5
1779
  8
DEFPOINTS
 10
94.000814735107014
 20
13.205662298733539
 30
0.0
 40
0.001
  1
KITCHEN SINK
  3

  2
PRODUCT
 70
     0
1001
ACDBATTR
1070
     0
1070
     1
  0
ATTDEF
  5
177A
  8
DEFPOINTS
 10
94.000814735107014
 20
13.20399563206688
 30
0.0
 40
0.001
  1
NEOROC
  3

  2
MATERIAL
 70
     0
1001
ACDBATTR
1070
     0
1070
     1
  0
ENDSEC
  0
EOF
