  0
SECTION
  2
HEADER
  9
$ACADVER
  1
AC1009
  9
$INSBASE
 10
94.006626827045693
 20
36.757306252200003
 30
0.0
  9
$EXTMIN
 10
77.256626827045693
 20
27.607306252200001
 30
0.0
  9
$EXTMAX
 10
110.75662682704569
 20
45.907306252199987
 30
0.0
  9
$LIMMIN
 10
0.0
 20
0.0
  9
$LIMMAX
 10
11.692913385800001
 20
8.2677165353999982
  9
$ORTHOMODE
 70
     1
  9
$REGENMODE
 70
     1
  9
$FILLMODE
 70
     1
  9
$QTEXTMODE
 70
     0
  9
$MIRRTEXT
 70
     0
  9
$DRAGMODE
 70
     2
  9
$LTSCALE
 40
0.6431102362
  9
$OSMODE
 70
  3071
  9
$ATTMODE
 70
     1
  9
$TEXTSIZE
 40
0.2
  9
$TRACEWID
 40
0.05
  9
$TEXTSTYLE
  7
STANDARD
  9
$CLAYER
  8
0
  9
$CELTYPE
  6
BYLAYER
  9
$CECOLOR
 62
   256
  9
$DIMSCALE
 40
1.0
  9
$DIMASZ
 40
0.1875
  9
$DIMEXO
 40
0.0625
  9
$DIMDLI
 40
0.4443307087
  9
$DIMRND
 40
0.0
  9
$DIMDLE
 40
0.0
  9
$DIMEXE
 40
0.125
  9
$DIMTP
 40
0.01
  9
$DIMTM
 40
0.01
  9
$DIMTXT
 40
1.0
  9
$DIMCEN
 40
0.1052362205
  9
$DIMTSZ
 40
0.0
  9
$DIMTOL
 70
     1
  9
$DIMLIM
 70
     0
  9
$DIMTIH
 70
     1
  9
$DIMTOH
 70
     1
  9
$DIMSE1
 70
     0
  9
$DIMSE2
 70
     0
  9
$DIMTAD
 70
     0
  9
$DIMZIN
 70
     0
  9
$DIMBLK
  1

  9
$DIMASO
 70
     1
  9
$DIMSHO
 70
     1
  9
$DIMPOST
  1
\X
  9
$DIMAPOST
  1

  9
$DIMALT
 70
     1
  9
$DIMALTD
 70
     2
  9
$DIMALTF
 40
25.399999999999999
  9
$DIMLFAC
 40
1.0
  9
$DIMTOFL
 70
     0
  9
$DIMTVP
 40
0.0
  9
$DIMTIX
 70
     0
  9
$DIMSOXD
 70
     0
  9
$DIMSAH
 70
     0
  9
$DIMBLK1
  1

  9
$DIMBLK2
  1

  9
$DIMSTYLE
  2
STANDARD
  9
$DIMCLRD
 70
     0
  9
$DIMCLRE
 70
     0
  9
$DIMCLRT
 70
     0
  9
$DIMTFAC
 40
1.0
  9
$DIMGAP
 40
0.09
  9
$LUNITS
 70
     2
  9
$LUPREC
 70
     4
  9
$SKETCHINC
 40
0.1
  9
$FILLETRAD
 40
0.0
  9
$AUNITS
 70
     0
  9
$AUPREC
 70
     0
  9
$MENU
  1
.
  9
$ELEVATION
 40
0.0
  9
$PELEVATION
 40
0.0
  9
$THICKNESS
 40
0.0
  9
$LIMCHECK
 70
     0
  9
$BLIPMODE
 70
     0
  9
$CHAMFERA
 40
0.0
  9
$CHAMFERB
 40
0.0
  9
$SKPOLY
 70
     0
  9
$TDCREATE
 40
2458249.6884124419
  9
$TDUPDATE
 40
2458250.477283889
  9
$TDINDWG
 40
0.0351553241
  9
$TDUSRTIMER
 40
0.0351553241
  9
$USRTIMER
 70
     1
  9
$ANGBASE
 50
0.0
  9
$ANGDIR
 70
     0
  9
$PDMODE
 70
     0
  9
$PDSIZE
 40
0.3125
  9
$PLINEWID
 40
0.0
  9
$COORDS
 70
     1
  9
$SPLFRAME
 70
     0
  9
$SPLINETYPE
 70
     6
  9
$SPLINESEGS
 70
     8
  9
$ATTDIA
 70
     1
  9
$ATTREQ
 70
     1
  9
$HANDLING
 70
     1
  9
$HANDSEED
  5
19CE
  9
$SURFTAB1
 70
     6
  9
$SURFTAB2
 70
     6
  9
$SURFTYPE
 70
     6
  9
$SURFU
 70
     6
  9
$SURFV
 70
     6
  9
$UCSNAME
  2

  9
$UCSORG
 10
0.0
 20
0.0
 30
0.0
  9
$UCSXDIR
 10
1.0
 20
0.0
 30
0.0
  9
$UCSYDIR
 10
0.0
 20
1.0
 30
0.0
  9
$PUCSNAME
  2

  9
$PUCSORG
 10
0.0
 20
0.0
 30
0.0
  9
$PUCSXDIR
 10
1.0
 20
0.0
 30
0.0
  9
$PUCSYDIR
 10
0.0
 20
1.0
 30
0.0
  9
$USERI1
 70
     0
  9
$USERI2
 70
     0
  9
$USERI3
 70
     0
  9
$USERI4
 70
     0
  9
$USERI5
 70
     0
  9
$USERR1
 40
0.0
  9
$USERR2
 40
0.0
  9
$USERR3
 40
0.0
  9
$USERR4
 40
0.0
  9
$USERR5
 40
0.0
  9
$WORLDVIEW
 70
     1
  9
$SHADEDGE
 70
     3
  9
$SHADEDIF
 70
    70
  9
$TILEMODE
 70
     1
  9
$MAXACTVP
 70
    64
  9
$PLIMCHECK
 70
     0
  9
$PEXTMIN
 10
1.0000000000000000E+020
 20
1.0000000000000000E+020
 30
1.0000000000000000E+020
  9
$PEXTMAX
 10
-1.0000000000000000E+020
 20
-1.0000000000000000E+020
 30
-1.0000000000000000E+020
  9
$PLIMMIN
 10
0.0
 20
0.0
  9
$PLIMMAX
 10
12.0
 20
9.0
  9
$UNITMODE
 70
     0
  9
$VISRETAIN
 70
     1
  9
$PLINEGEN
 70
     0
  9
$PSLTSCALE
 70
     1
  0
ENDSEC
  0
SECTION
  2
TABLES
  0
TABLE
  2
VPORT
 70
     1
  0
VPORT
  2
*ACTIVE
 70
     0
 10
0.0
 20
0.0
 11
1.0
 21
1.0
 12
0.0
 22
0.0
 13
0.0
 23
0.0
 14
1.0
 24
1.0
 15
0.0
 25
0.0
 16
-0.0000000000000284
 26
0.0
 36
106.7395003355275
 17
94.006626827045693
 27
36.757306252200003
 37
0.0
 40
38.180348492813948
 41
2.0834248079034019
 42
50.0
 43
0.0
 44
0.0
 50
0.0
 51
0.0
 71
     0
 72
   100
 73
     1
 74
     1
 75
     0
 76
     0
 77
     0
 78
     0
  0
ENDTAB
  0
TABLE
  2
LTYPE
 70
     2
  0
LTYPE
  2
CONTINUOUS
 70
     0
  3
Solid line
 72
    65
 73
     0
 40
0.0
  0
LTYPE
  2
PHANTOM2
 70
     0
  3
___ _ _ ___ _ _ ___ _ _ ___ _ _
 72
    65
 73
     6
 40
1.25
 49
0.625
 49
-0.125
 49
0.125
 49
-0.125
 49
0.125
 49
-0.125
  0
ENDTAB
  0
TABLE
  2
LAYER
 70
     2
  0
LAYER
  2
0
 70
     0
 62
   255
  6
CONTINUOUS
  0
LAYER
  2
DEFPOINTS
 70
     0
 62
     7
  6
CONTINUOUS
  0
ENDTAB
  0
TABLE
  2
STYLE
 70
     1
  0
STYLE
  2
STANDARD
 70
     0
 40
0.0
 41
0.8
 50
0.0
 71
     0
 42
0.2
  3
txt
  4

  0
ENDTAB
  0
TABLE
  2
VIEW
 70
     0
  0
ENDTAB
  0
TABLE
  2
UCS
 70
     0
  0
ENDTAB
  0
TABLE
  2
APPID
 70
     9
  0
APPID
  2
ACAD
 70
     0
  0
APPID
  2
ACAD_MLEADERVER
 70
     0
  0
APPID
  2
ACAD_EXEMPT_FROM_CAD_STANDARDS
 70
     0
  0
APPID
  2
ACAD_DSTYLE_DIMJAG
 70
     0
  0
APPID
  2
ACAD_DSTYLE_DIMTALN
 70
     0
  0
APPID
  2
ACAD_NAV_VCDISPLAY
 70
     0
  0
APPID
  2
ACAECLAYERSTANDARD
 70
     0
  0
APPID
  2
ACCMTRANSPARENCY
 70
     0
  0
APPID
  2
ACDBATTR
 70
     0
  0
ENDTAB
  0
TABLE
  2
DIMSTYLE
 70
     1
  0
DIMSTYLE
  2
STANDARD
 70
     0
  3

  4

  5

  6

  7

 40
1.0
 41
0.1875
 42
0.0625
 43
0.38
 44
0.125
 45
0.0
 46
0.0
 47
0.01
 48
0.01
140
0.15625
141
0.09
142
0.0
143
25.399999999999999
144
1.0
145
0.0
146
1.0
147
0.09
 71
     1
 72
     0
 73
     1
 74
     1
 75
     0
 76
     0
 77
     0
 78
     4
170
     0
171
     2
172
     0
173
     0
174
     0
175
     0
176
     0
177
     0
178
     0
  0
ENDTAB
  0
ENDSEC
  0
SECTION
  2
BLOCKS
  0
BLOCK
  8
0
  2
$MODEL_SPACE
 70
     0
 10
0.0
 20
0.0
 30
0.0
  3
$MODEL_SPACE
  1

  0
ENDBLK
  5
21
  8
0
  0
BLOCK
 67
     1
  8
0
  2
$PAPER_SPACE
 70
     0
 10
0.0
 20
0.0
 30
0.0
  3
$PAPER_SPACE
  1

  0
ENDBLK
  5
1D
 67
     1
  8
0
  0
ENDSEC
  0
SECTION
  2
ENTITIES
  0
LINE
  5
15EA
  8
0
 10
77.256626827045693
 20
30.160776252200002
 30
0.0
 11
77.256626827045693
 21
43.35383625219999
 31
0.0
  0
LINE
  5
15EB
  8
0
 10
78.810096827045712
 20
43.355206717499989
 30
0.0
 11
78.810096827045712
 21
30.159405787000001
 31
0.0
  0
LINE
  5
15EC
  8
0
 10
108.2031568270457
 20
27.607306252200001
 30
0.0
 11
79.810096827045712
 21
27.607306252200001
 31
0.0
  0
LINE
  5
15ED
  8
0
 10
108.2034733687089
 20
28.401954865571739
 30
0.0
 11
79.809742821465321
 21
28.401747112159882
 31
0.0
  0
LINE
  5
15EE
  8
0
 10
79.8087263618457
 20
29.160776252200002
 30
0.0
 11
96.828425566417451
 21
29.160776252200009
 31
0.0
  0
LINE
  5
15EF
  8
0
 10
98.296827564695704
 20
29.16077625219998
 30
0.0
 11
108.2045272922457
 21
29.160776252200002
 31
0.0
  0
LINE
  5
15F0
  8
0
 10
97.250055782695725
 20
29.676160232400001
 30
0.0
 11
97.25005578299573
 21
43.838452305199993
 31
0.0
  0
LINE
  5
15F1
  8
0
 10
97.8751978714957
 20
43.838452271999998
 30
0.0
 11
97.875197871195695
 21
29.6761602015
 31
0.0
  0
LINE
  5
15F2
  8
0
 10
108.2045272922457
 20
44.353836252199997
 30
0.0
 11
98.296828085273944
 21
44.353836252199997
 31
0.0
  0
LINE
  5
15F3
  8
0
 10
96.828426089495721
 20
44.353836252199997
 30
0.0
 11
79.808726361745713
 21
44.353836252199997
 31
0.0
  0
LINE
  5
15F4
  8
0
 10
79.809742824357116
 20
45.112865371642343
 30
0.0
 11
108.20351282423781
 21
45.112865390846252
 31
0.0
  0
LINE
  5
15F5
  8
0
 10
79.810096827045712
 20
45.907306252199987
 30
0.0
 11
108.2031568270457
 21
45.907306252199987
 31
0.0
  0
LINE
  5
15F6
  8
0
 10
109.2031568270457
 20
30.159405787000001
 30
0.0
 11
109.2031568270457
 21
43.355206717499989
 31
0.0
  0
LINE
  5
15F7
  8
0
 10
110.75662682704569
 20
43.35383625219999
 30
0.0
 11
110.75662682704569
 21
30.160776252200002
 31
0.0
  0
ARC
  5
15F8
  8
0
 10
79.810096827045712
 20
30.160776252200002
 30
0.0
 40
2.553469999999999
 50
180.0
 51
270.0
  0
ARC
  5
15F9
  8
0
 10
79.810096827045712
 20
43.35383625219999
 30
0.0
 40
2.553469999999999
 50
90.0
 51
180.0
  0
ARC
  5
15FA
  8
0
 10
108.2031568270457
 20
30.160776252200002
 30
0.0
 40
2.553469999999999
 50
270.0
 51
0.0
  0
ARC
  5
15FB
  8
0
 10
108.2031568270457
 20
43.35383625219999
 30
0.0
 40
2.553469999999999
 50
0.0
 51
90.0
  0
ARC
  5
15FC
  8
0
 10
108.20227133979699
 20
43.353208173127037
 30
0.0
 40
1.7596576556691259
 50
0.0311130121555374
 51
89.959576327555141
  0
ARC
  5
15FD
  8
0
 10
108.2026264140292
 20
30.161257170090391
 30
0.0
 40
1.7593025083870231
 50
270.02758305079988
 51
359.97420557085712
  0
ARC
  5
15FE
  8
0
 10
79.810964340920222
 20
30.161361000435829
 30
0.0
 40
1.759614312263738
 50
180.02954633126089
 51
269.9602254229851
  0
ARC
  5
15FF
  8
0
 10
79.810964311844927
 20
43.353251512420456
 30
0.0
 40
1.759614283187477
 50
90.039773536774405
 51
179.97045373534971
  0
ARC
  5
1600
  8
0
 10
97.562627087245701
 20
38.332070113751762
 30
0.0
 40
6.0663595781710358
 50
83.048549400588286
 51
96.951450599411714
  0
ARC
  5
1601
  8
0
 10
96.699436767255506
 20
43.818154386978819
 30
0.0
 40
0.5509930180853809
 50
2.1111851090050489
 51
76.461224606539915
  0
ARC
  5
1602
  8
0
 10
98.425633730478623
 20
43.818304096689218
 30
0.0
 40
0.55080448783811
 50
103.5238455935998
 51
177.90367900893591
  0
ARC
  5
1603
  8
0
 10
97.562626565556613
 20
35.182542829215542
 30
0.0
 40
6.0663600136489073
 50
263.04854989149572
 51
276.95145010850428
  0
ARC
  5
1604
  8
0
 10
96.699624717888994
 20
29.696304486270432
 30
0.0
 40
0.5507995534386777
 50
283.52345585629729
 51
357.90406841324892
  0
ARC
  5
1605
  8
0
 10
98.425646108985646
 20
29.696318405849599
 30
0.0
 40
0.5508172253013239
 50
182.09731640812879
 51
256.4750930567925
  0
ARC
  5
1606
  8
0
 10
79.808160939561603
 20
43.355772139684099
 30
0.0
 40
0.9980642726770554
 50
89.967540861433307
 51
180.03245913856671
  0
ARC
  5
1607
  8
0
 10
108.205094938291
 20
43.355774363445377
 30
0.0
 40
0.9980620501784807
 50
359.96741312959858
 51
90.032586876137984
  0
ARC
  5
1608
  8
0
 10
108.2050927170575
 20
30.15884036218819
 30
0.0
 40
0.9980642701508418
 50
269.96754071050259
 51
0.0324592894974274
  0
ARC
  5
1609
  8
0
 10
79.808157236259277
 20
30.158836661413549
 30
0.0
 40
0.998060571480244
 50
179.9673281393782
 51
270.03267186062169
  0
CIRCLE
  5
160A
  8
0
 10
91.592626827045706
 20
36.757306252200003
 30
0.0
 40
0.31
  0
CIRCLE
  5
160B
  8
0
 10
91.592626827045706
 20
36.757306252200003
 30
0.0
 40
0.2760925586
  0
CIRCLE
  5
160C
  8
0
 10
91.592626827045706
 20
36.757306252200003
 30
0.0
 40
2.25
  0
CIRCLE
  5
160D
  8
0
 10
91.592626827045706
 20
36.757306252200003
 30
0.0
 40
1.6780895467000001
  0
CIRCLE
  5
160E
  8
0
 10
103.5326268270457
 20
36.757306252200003
 30
0.0
 40
0.31
  0
CIRCLE
  5
160F
  8
0
 10
103.5326268270457
 20
36.757306252200003
 30
0.0
 40
0.2760925586
  0
CIRCLE
  5
1610
  8
0
 10
103.5326268270457
 20
36.757306252200003
 30
0.0
 40
2.25
  0
CIRCLE
  5
1611
  8
0
 10
103.5326268270457
 20
36.757306252200003
 30
0.0
 40
1.6780895467000001
  0
LINE
  5
1612
  8
0
 10
109.9619287441303
 20
30.16046513614398
 30
0.0
 11
109.9619287360261
 21
43.354163710302807
 31
0.0
  0
LINE
  5
1613
  8
0
 10
78.051350262620659
 20
30.160453601225989
 30
0.0
 11
78.051350262620545
 21
43.35415890956962
 31
0.0
  0
ATTDEF
  5
17FB
  8
DEFPOINTS
 10
94.003751709595875
 20
36.762701503587778
 30
0.0
 40
0.001
  1
K-8204
  3

  2
MODELNUMBER
 70
     0
1001
ACDBATTR
1070
     0
1070
     1
  0
ATTDEF
  5
17FC
  8
DEFPOINTS
 10
94.003751709595875
 20
36.76103483692112
 30
0.0
 40
0.001
  1
CAIRN
  3

  2
TRADENAME
 70
     0
1001
ACDBATTR
1070
     0
1070
     1
  0
ATTDEF
  5
17FD
  8
DEFPOINTS
 10
94.003751709595875
 20
36.759368170254447
 30
0.0
 40
0.001
  1
KITCHEN SINK
  3

  2
PRODUCT
 70
     0
1001
ACDBATTR
1070
     0
1070
     1
  0
ATTDEF
  5
17FE
  8
DEFPOINTS
 10
94.003751709595875
 20
36.757701503587782
 30
0.0
 40
0.001
  1
NEOROC
  3

  2
MATERIAL
 70
     0
1001
ACDBATTR
1070
     0
1070
     1
  0
ENDSEC
  0
EOF
