  0
SECTION
  2
HEADER
  9
$ACADVER
  1
AC1009
  9
$INSBASE
 10
133.8564230300457
 20
13.2109206481
 30
0.0
  9
$EXTMIN
 10
124.7064230300457
 20
3.0709206480694968
 30
0.0
  9
$EXTMAX
 10
143.00642303004571
 20
13.224881296597349
 30
0.0
  9
$LIMMIN
 10
0.0
 20
0.0
  9
$LIMMAX
 10
11.692913385800001
 20
8.2677165353999982
  9
$ORTHOMODE
 70
     0
  9
$REGENMODE
 70
     1
  9
$FILLMODE
 70
     1
  9
$QTEXTMODE
 70
     0
  9
$MIRRTEXT
 70
     0
  9
$DRAGMODE
 70
     2
  9
$LTSCALE
 40
0.6431102362
  9
$OSMODE
 70
  3071
  9
$ATTMODE
 70
     1
  9
$TEXTSIZE
 40
0.2
  9
$TRACEWID
 40
0.05
  9
$TEXTSTYLE
  7
STANDARD
  9
$CLAYER
  8
0
  9
$CELTYPE
  6
BYLAYER
  9
$CECOLOR
 62
   256
  9
$DIMSCALE
 40
1.0
  9
$DIMASZ
 40
0.1875
  9
$DIMEXO
 40
0.0625
  9
$DIMDLI
 40
0.4443307087
  9
$DIMRND
 40
0.0
  9
$DIMDLE
 40
0.0
  9
$DIMEXE
 40
0.125
  9
$DIMTP
 40
0.01
  9
$DIMTM
 40
0.01
  9
$DIMTXT
 40
1.0
  9
$DIMCEN
 40
0.1052362205
  9
$DIMTSZ
 40
0.0
  9
$DIMTOL
 70
     1
  9
$DIMLIM
 70
     0
  9
$DIMTIH
 70
     1
  9
$DIMTOH
 70
     1
  9
$DIMSE1
 70
     0
  9
$DIMSE2
 70
     0
  9
$DIMTAD
 70
     0
  9
$DIMZIN
 70
     0
  9
$DIMBLK
  1

  9
$DIMASO
 70
     1
  9
$DIMSHO
 70
     1
  9
$DIMPOST
  1
\X
  9
$DIMAPOST
  1

  9
$DIMALT
 70
     1
  9
$DIMALTD
 70
     2
  9
$DIMALTF
 40
25.399999999999999
  9
$DIMLFAC
 40
1.0
  9
$DIMTOFL
 70
     0
  9
$DIMTVP
 40
0.0
  9
$DIMTIX
 70
     0
  9
$DIMSOXD
 70
     0
  9
$DIMSAH
 70
     0
  9
$DIMBLK1
  1

  9
$DIMBLK2
  1

  9
$DIMSTYLE
  2
STANDARD
  9
$DIMCLRD
 70
     0
  9
$DIMCLRE
 70
     0
  9
$DIMCLRT
 70
     0
  9
$DIMTFAC
 40
1.0
  9
$DIMGAP
 40
0.09
  9
$LUNITS
 70
     2
  9
$LUPREC
 70
     4
  9
$SKETCHINC
 40
0.1
  9
$FILLETRAD
 40
0.0
  9
$AUNITS
 70
     0
  9
$AUPREC
 70
     0
  9
$MENU
  1
.
  9
$ELEVATION
 40
0.0
  9
$PELEVATION
 40
0.0
  9
$THICKNESS
 40
0.0
  9
$LIMCHECK
 70
     0
  9
$BLIPMODE
 70
     0
  9
$CHAMFERA
 40
0.0
  9
$CHAMFERB
 40
0.0
  9
$SKPOLY
 70
     0
  9
$TDCREATE
 40
2458249.6884124419
  9
$TDUPDATE
 40
2458250.476892164
  9
$TDINDWG
 40
0.0328625347
  9
$TDUSRTIMER
 40
0.0328625347
  9
$USRTIMER
 70
     1
  9
$ANGBASE
 50
0.0
  9
$ANGDIR
 70
     0
  9
$PDMODE
 70
     0
  9
$PDSIZE
 40
0.3125
  9
$PLINEWID
 40
0.0
  9
$COORDS
 70
     1
  9
$SPLFRAME
 70
     0
  9
$SPLINETYPE
 70
     6
  9
$SPLINESEGS
 70
     8
  9
$ATTDIA
 70
     1
  9
$ATTREQ
 70
     1
  9
$HANDLING
 70
     1
  9
$HANDSEED
  5
1992
  9
$SURFTAB1
 70
     6
  9
$SURFTAB2
 70
     6
  9
$SURFTYPE
 70
     6
  9
$SURFU
 70
     6
  9
$SURFV
 70
     6
  9
$UCSNAME
  2

  9
$UCSORG
 10
0.0
 20
0.0
 30
0.0
  9
$UCSXDIR
 10
1.0
 20
0.0
 30
0.0
  9
$UCSYDIR
 10
0.0
 20
1.0
 30
0.0
  9
$PUCSNAME
  2

  9
$PUCSORG
 10
0.0
 20
0.0
 30
0.0
  9
$PUCSXDIR
 10
1.0
 20
0.0
 30
0.0
  9
$PUCSYDIR
 10
0.0
 20
1.0
 30
0.0
  9
$USERI1
 70
     0
  9
$USERI2
 70
     0
  9
$USERI3
 70
     0
  9
$USERI4
 70
     0
  9
$USERI5
 70
     0
  9
$USERR1
 40
0.0
  9
$USERR2
 40
0.0
  9
$USERR3
 40
0.0
  9
$USERR4
 40
0.0
  9
$USERR5
 40
0.0
  9
$WORLDVIEW
 70
     1
  9
$SHADEDGE
 70
     3
  9
$SHADEDIF
 70
    70
  9
$TILEMODE
 70
     1
  9
$MAXACTVP
 70
    64
  9
$PLIMCHECK
 70
     0
  9
$PEXTMIN
 10
1.0000000000000000E+020
 20
1.0000000000000000E+020
 30
1.0000000000000000E+020
  9
$PEXTMAX
 10
-1.0000000000000000E+020
 20
-1.0000000000000000E+020
 30
-1.0000000000000000E+020
  9
$PLIMMIN
 10
0.0
 20
0.0
  9
$PLIMMAX
 10
12.0
 20
9.0
  9
$UNITMODE
 70
     0
  9
$VISRETAIN
 70
     1
  9
$PLINEGEN
 70
     0
  9
$PSLTSCALE
 70
     1
  0
ENDSEC
  0
SECTION
  2
TABLES
  0
TABLE
  2
VPORT
 70
     1
  0
VPORT
  2
*ACTIVE
 70
     0
 10
0.0
 20
0.0
 11
1.0
 21
1.0
 12
0.0
 22
0.0
 13
0.0
 23
0.0
 14
1.0
 24
1.0
 15
0.0
 25
0.0
 16
0.0
 26
0.0
 36
58.520505511323847
 17
133.8564230300457
 27
8.1479009723334226
 37
0.0
 40
20.93023144839178
 41
2.0834248079034019
 42
50.0
 43
0.0
 44
0.0
 50
0.0
 51
0.0
 71
     0
 72
   100
 73
     1
 74
     1
 75
     0
 76
     0
 77
     0
 78
     0
  0
ENDTAB
  0
TABLE
  2
LTYPE
 70
     2
  0
LTYPE
  2
CONTINUOUS
 70
     0
  3
Solid line
 72
    65
 73
     0
 40
0.0
  0
LTYPE
  2
PHANTOM2
 70
     0
  3
___ _ _ ___ _ _ ___ _ _ ___ _ _
 72
    65
 73
     6
 40
1.25
 49
0.625
 49
-0.125
 49
0.125
 49
-0.125
 49
0.125
 49
-0.125
  0
ENDTAB
  0
TABLE
  2
LAYER
 70
     2
  0
LAYER
  2
0
 70
     0
 62
   255
  6
CONTINUOUS
  0
LAYER
  2
DEFPOINTS
 70
     0
 62
     7
  6
CONTINUOUS
  0
ENDTAB
  0
TABLE
  2
STYLE
 70
     1
  0
STYLE
  2
STANDARD
 70
     0
 40
0.0
 41
0.8
 50
0.0
 71
     0
 42
0.2
  3
txt
  4

  0
ENDTAB
  0
TABLE
  2
VIEW
 70
     0
  0
ENDTAB
  0
TABLE
  2
UCS
 70
     0
  0
ENDTAB
  0
TABLE
  2
APPID
 70
     9
  0
APPID
  2
ACAD
 70
     0
  0
APPID
  2
ACAD_MLEADERVER
 70
     0
  0
APPID
  2
ACAD_EXEMPT_FROM_CAD_STANDARDS
 70
     0
  0
APPID
  2
ACAD_DSTYLE_DIMJAG
 70
     0
  0
APPID
  2
ACAD_DSTYLE_DIMTALN
 70
     0
  0
APPID
  2
ACAD_NAV_VCDISPLAY
 70
     0
  0
APPID
  2
ACAECLAYERSTANDARD
 70
     0
  0
APPID
  2
ACCMTRANSPARENCY
 70
     0
  0
APPID
  2
AcDbAttr
 70
     0
  0
ENDTAB
  0
TABLE
  2
DIMSTYLE
 70
     1
  0
DIMSTYLE
  2
STANDARD
 70
     0
  3

  4

  5

  6

  7

 40
1.0
 41
0.1875
 42
0.0625
 43
0.38
 44
0.125
 45
0.0
 46
0.0
 47
0.01
 48
0.01
140
0.15625
141
0.09
142
0.0
143
25.399999999999999
144
1.0
145
0.0
146
1.0
147
0.09
 71
     1
 72
     0
 73
     1
 74
     1
 75
     0
 76
     0
 77
     0
 78
     4
170
     0
171
     2
172
     0
173
     0
174
     0
175
     0
176
     0
177
     0
178
     0
  0
ENDTAB
  0
ENDSEC
  0
SECTION
  2
BLOCKS
  0
BLOCK
  8
0
  2
$MODEL_SPACE
 70
     0
 10
0.0
 20
0.0
 30
0.0
  3
$MODEL_SPACE
  1

  0
ENDBLK
  5
21
  8
0
  0
BLOCK
 67
     1
  8
0
  2
$PAPER_SPACE
 70
     0
 10
0.0
 20
0.0
 30
0.0
  3
$PAPER_SPACE
  1

  0
ENDBLK
  5
1D
 67
     1
  8
0
  0
ENDSEC
  0
SECTION
  2
ENTITIES
  0
LINE
  5
15CC
  8
0
 10
126.01023564634571
 20
11.397836658999999
 30
0.0
 11
126.3924036176457
 21
4.1056373604000003
 31
0.0
  0
LINE
  5
15CD
  8
0
 10
127.24429218904569
 20
3.0709206480999991
 30
0.0
 11
127.2394871241457
 21
3.1626067472999999
 31
0.0
  0
LINE
  5
15CE
  8
0
 10
136.86263652624569
 20
3.182735211999999
 30
0.0
 11
139.29532241534571
 21
3.2676864751999992
 31
0.0
  0
LINE
  5
15CF
  8
0
 10
127.24429218904569
 20
3.0709206480999991
 30
0.0
 11
128.25431222964571
 21
3.0709206481
 31
0.0
  0
LINE
  5
15D0
  8
0
 10
131.407471993276
 20
3.0709206480695022
 30
0.0
 11
136.30537406679611
 21
3.0709206481
 31
0.0
  0
LINE
  5
15D1
  8
0
 10
139.4586063237457
 20
3.0709206480999991
 30
0.0
 11
140.4685538709457
 21
3.0709206480999991
 31
0.0
  0
LINE
  5
15D2
  8
0
 10
130.8502095337457
 20
3.182735211999999
 30
0.0
 11
136.86263652624569
 21
3.182735211999999
 31
0.0
  0
LINE
  5
15D3
  8
0
 10
130.8502095337457
 20
3.182735211999999
 30
0.0
 11
128.41756209004569
 21
3.2676851326
 31
0.0
  0
LINE
  5
15D4
  8
0
 10
136.86263652624569
 20
5.182735211999999
 30
0.0
 11
139.45102725374571
 21
5.2731238079000002
 31
0.0
  0
LINE
  5
15D5
  8
0
 10
127.1485068449457
 20
5.0709206480760338
 30
0.0
 11
128.14931676754571
 21
5.0709206480760338
 31
0.0
  0
LINE
  5
15D6
  8
0
 10
131.407471993276
 20
5.0709206480760338
 30
0.0
 11
136.30537406671539
 21
5.0709206480760338
 31
0.0
  0
LINE
  5
15D7
  8
0
 10
139.56433921484569
 20
5.0709206480760338
 30
0.0
 11
140.5643392149457
 21
5.0709206480760338
 31
0.0
  0
LINE
  5
15D8
  8
0
 10
130.8502095337457
 20
5.182735211999999
 30
0.0
 11
128.27803572667639
 21
5.2725575006151573
 31
0.0
  0
LINE
  5
15D9
  8
0
 10
130.8502095337457
 20
5.182735211999999
 30
0.0
 11
136.86263652624569
 21
5.182735211999999
 31
0.0
  0
LINE
  5
15DA
  8
0
 10
140.4685538709457
 20
3.0709206480999991
 30
0.0
 11
140.47334023394569
 21
3.1622498929999998
 31
0.0
  0
LINE
  5
15DB
  8
0
 10
141.32044372534571
 20
4.1056618415999964
 30
0.0
 11
141.7026104137457
 21
11.397836658999999
 31
0.0
  0
ARC
  5
15E4
  8
0
 10
125.45279976963749
 20
12.52291942926367
 30
0.0
 40
0.188001249958733
 50
33.474733155008892
 51
89.967031904851169
  0
ARC
  5
15E5
  8
0
 10
130.78913541454571
 20
1.4338012647
 30
0.0
 40
1.75
 50
69.308553659699854
 51
87.999999999999616
  0
ARC
  5
15E6
  8
0
 10
130.78913541451891
 20
3.4338012644709091
 30
0.0
 40
1.7500000002298901
 50
69.308553661605032
 51
87.999999999384883
  0
ARC
  5
15E7
  8
0
 10
136.92371064544571
 20
1.4338012647
 30
0.0
 40
1.75
 50
92.000000000000398
 51
110.6914463403001
  0
ARC
  5
15E8
  8
0
 10
136.92371064547251
 20
3.433801264470818
 30
0.0
 40
1.750000000229978
 50
92.000000000616879
 51
110.6914463383948
  0
ARC
  5
15E9
  8
0
 10
142.26004629047591
 20
12.522919429130241
 30
0.0
 40
0.1880012501341315
 50
90.032990316525883
 51
146.52526682918941
  0
LINE
  5
161A
  8
0
 10
124.7064230300457
 20
12.7109206481
 30
0.0
 11
124.7453755503457
 21
13.1561499927
 31
0.0
  0
LINE
  5
161B
  8
0
 10
124.7064230300457
 20
12.7109206481
 30
0.0
 11
143.00642303004571
 21
12.7109206481
 31
0.0
  0
LINE
  5
161C
  8
0
 10
142.90769882784571
 20
13.2109206481
 30
0.0
 11
124.8051472322457
 21
13.2109206481
 31
0.0
  0
LINE
  5
161D
  8
0
 10
142.96747050974571
 20
13.1561499927
 30
0.0
 11
143.00642303004571
 21
12.7109206481
 31
0.0
  0
ARC
  5
161E
  8
0
 10
124.80555641556801
 20
13.15047410286191
 30
0.0
 40
0.060447930173123
 50
90.38784879191688
 51
174.6121512117858
  0
ARC
  5
161F
  8
0
 10
142.90769882784571
 20
13.1509206481
 30
0.0
 40
0.06
 50
4.9999999999998579
 51
90.0
  0
ARC
  5
162F
  8
0
 10
123.5711939424144
 20
11.28233212132586
 30
0.0
 40
2.4417751189942511
 50
2.711303358253399
 51
33.403733539587989
  0
ARC
  5
1630
  8
0
 10
127.23121561220491
 20
4.1495910451192461
 30
0.0
 40
0.8399627900192028
 50
182.99955115489851
 51
262.77159225209328
  0
ARC
  5
1631
  8
0
 10
126.9551267681581
 20
3.0708624125609458
 30
0.0
 40
0.2987939675434117
 50
17.88146832153566
 51
55.229265388035166
  0
ARC
  5
1632
  8
0
 10
128.5449591669248
 20
2.9958833143380992
 30
0.0
 40
0.3001770204526124
 50
115.1131022115438
 51
165.52385223730479
  0
ARC
  5
1633
  8
0
 10
139.16892718163211
 20
2.996666241198187
 30
0.0
 40
0.2990446828150901
 50
14.377256590186541
 51
64.997148228846044
  0
ARC
  5
1634
  8
0
 10
140.7575348655017
 20
3.0718276076413349
 30
0.0
 40
0.2982327586496266
 50
124.4876096674941
 51
162.3504760752873
  0
ARC
  5
1635
  8
0
 10
140.48403546219819
 20
4.148593273361695
 30
0.0
 40
0.8375093375565471
 50
277.17682522340169
 51
357.06168245771801
  0
ARC
  5
1636
  8
0
 10
144.15188204565129
 20
11.27899685881005
 30
0.0
 40
2.4521530182610469
 50
146.66280248538831
 51
177.22216062501531
  0
ARC
  5
1637
  8
0
 10
127.1226984911499
 20
6.1501978567790534
 30
0.0
 40
0.8363030982154008
 50
182.8010874824628
 51
262.2238257253199
  0
ARC
  5
1638
  8
0
 10
126.826484444979
 20
5.0562496534444632
 30
0.0
 40
0.3223564241080908
 50
2.6085303974271938
 51
55.397587660116749
  0
ARC
  5
1639
  8
0
 10
128.3913475135094
 20
5.0583190313810151
 30
0.0
 40
0.242358582961434
 50
117.8745849715597
 51
177.01951886243489
  0
ARC
  5
163A
  8
0
 10
139.30184480636009
 20
5.0566731109938221
 30
0.0
 40
0.2628807843854811
 50
3.106822425865384
 51
55.424558204660407
  0
ARC
  5
163B
  8
0
 10
140.88666626917771
 20
5.0560108846002167
 30
0.0
 40
0.3226717076795031
 50
124.60218035596409
 51
177.351578137746
  0
ARC
  5
163C
  8
0
 10
140.5848085858278
 20
6.1550959374352328
 30
0.0
 40
0.8418878039935126
 50
278.09982377840959
 51
356.88372182301862
  0
ATTDEF
  5
17FE
  8
DEFPOINTS
 10
133.85322541086231
 20
13.22388129659735
 30
0.0
 40
0.001
  1
K-8204
  3

  2
MODELNUMBER
 70
     0
1001
AcDbAttr
1070
     0
1070
     1
  0
ATTDEF
  5
17FF
  8
DEFPOINTS
 10
133.85322541086231
 20
13.222214629930679
 30
0.0
 40
0.001
  1
CAIRN
  3

  2
TRADENAME
 70
     0
1001
AcDbAttr
1070
     0
1070
     1
  0
ATTDEF
  5
1800
  8
DEFPOINTS
 10
133.85322541086231
 20
13.220547963264011
 30
0.0
 40
0.001
  1
KITCHEN SINK
  3

  2
PRODUCT
 70
     0
1001
AcDbAttr
1070
     0
1070
     1
  0
ATTDEF
  5
1801
  8
DEFPOINTS
 10
133.85322541086231
 20
13.218881296597351
 30
0.0
 40
0.001
  1
NEOROC
  3

  2
MATERIAL
 70
     0
1001
AcDbAttr
1070
     0
1070
     1
  0
ENDSEC
  0
EOF
