  0
SECTION
  2
HEADER
  9
$ACADVER
  1
AC1009
  9
$INSBASE
 10
116.0133436086103
 20
12.552486276199989
 30
0.0
  9
$EXTMIN
 10
99.263343608610313
 20
2.412486276169497
 30
0.0
  9
$EXTMAX
 10
132.76334360861031
 20
12.5524862762
 30
0.0
  9
$LIMMIN
 10
0.0
 20
0.0
  9
$LIMMAX
 10
11.692913385800001
 20
8.2677165353999982
  9
$ORTHOMODE
 70
     0
  9
$REGENMODE
 70
     1
  9
$FILLMODE
 70
     1
  9
$QTEXTMODE
 70
     0
  9
$MIRRTEXT
 70
     0
  9
$DRAGMODE
 70
     2
  9
$LTSCALE
 40
0.6431102362
  9
$OSMODE
 70
  3071
  9
$ATTMODE
 70
     1
  9
$TEXTSIZE
 40
0.2
  9
$TRACEWID
 40
0.05
  9
$TEXTSTYLE
  7
STANDARD
  9
$CLAYER
  8
0
  9
$CELTYPE
  6
BYLAYER
  9
$CECOLOR
 62
   256
  9
$DIMSCALE
 40
1.0
  9
$DIMASZ
 40
0.1875
  9
$DIMEXO
 40
0.0625
  9
$DIMDLI
 40
0.4443307087
  9
$DIMRND
 40
0.0
  9
$DIMDLE
 40
0.0
  9
$DIMEXE
 40
0.125
  9
$DIMTP
 40
0.01
  9
$DIMTM
 40
0.01
  9
$DIMTXT
 40
1.0
  9
$DIMCEN
 40
0.1052362205
  9
$DIMTSZ
 40
0.0
  9
$DIMTOL
 70
     1
  9
$DIMLIM
 70
     0
  9
$DIMTIH
 70
     1
  9
$DIMTOH
 70
     1
  9
$DIMSE1
 70
     0
  9
$DIMSE2
 70
     0
  9
$DIMTAD
 70
     0
  9
$DIMZIN
 70
     0
  9
$DIMBLK
  1

  9
$DIMASO
 70
     1
  9
$DIMSHO
 70
     1
  9
$DIMPOST
  1
\X
  9
$DIMAPOST
  1

  9
$DIMALT
 70
     1
  9
$DIMALTD
 70
     2
  9
$DIMALTF
 40
25.399999999999999
  9
$DIMLFAC
 40
1.0
  9
$DIMTOFL
 70
     0
  9
$DIMTVP
 40
0.0
  9
$DIMTIX
 70
     0
  9
$DIMSOXD
 70
     0
  9
$DIMSAH
 70
     0
  9
$DIMBLK1
  1

  9
$DIMBLK2
  1

  9
$DIMSTYLE
  2
STANDARD
  9
$DIMCLRD
 70
     0
  9
$DIMCLRE
 70
     0
  9
$DIMCLRT
 70
     0
  9
$DIMTFAC
 40
1.0
  9
$DIMGAP
 40
0.09
  9
$LUNITS
 70
     2
  9
$LUPREC
 70
     4
  9
$SKETCHINC
 40
0.1
  9
$FILLETRAD
 40
0.0
  9
$AUNITS
 70
     0
  9
$AUPREC
 70
     0
  9
$MENU
  1
.
  9
$ELEVATION
 40
0.0
  9
$PELEVATION
 40
0.0
  9
$THICKNESS
 40
0.0
  9
$LIMCHECK
 70
     0
  9
$BLIPMODE
 70
     0
  9
$CHAMFERA
 40
0.0
  9
$CHAMFERB
 40
0.0
  9
$SKPOLY
 70
     0
  9
$TDCREATE
 40
2458249.5889512729
  9
$TDUPDATE
 40
2458249.672965718
  9
$TDINDWG
 40
0.0759538773
  9
$TDUSRTIMER
 40
0.0759538773
  9
$USRTIMER
 70
     1
  9
$ANGBASE
 50
0.0
  9
$ANGDIR
 70
     0
  9
$PDMODE
 70
     0
  9
$PDSIZE
 40
0.3125
  9
$PLINEWID
 40
0.0
  9
$COORDS
 70
     1
  9
$SPLFRAME
 70
     0
  9
$SPLINETYPE
 70
     6
  9
$SPLINESEGS
 70
     8
  9
$ATTDIA
 70
     1
  9
$ATTREQ
 70
     1
  9
$HANDLING
 70
     1
  9
$HANDSEED
  5
12BF
  9
$SURFTAB1
 70
     6
  9
$SURFTAB2
 70
     6
  9
$SURFTYPE
 70
     6
  9
$SURFU
 70
     6
  9
$SURFV
 70
     6
  9
$UCSNAME
  2

  9
$UCSORG
 10
0.0
 20
0.0
 30
0.0
  9
$UCSXDIR
 10
1.0
 20
0.0
 30
0.0
  9
$UCSYDIR
 10
0.0
 20
1.0
 30
0.0
  9
$PUCSNAME
  2

  9
$PUCSORG
 10
0.0
 20
0.0
 30
0.0
  9
$PUCSXDIR
 10
1.0
 20
0.0
 30
0.0
  9
$PUCSYDIR
 10
0.0
 20
1.0
 30
0.0
  9
$USERI1
 70
     0
  9
$USERI2
 70
     0
  9
$USERI3
 70
     0
  9
$USERI4
 70
     0
  9
$USERI5
 70
     0
  9
$USERR1
 40
0.0
  9
$USERR2
 40
0.0
  9
$USERR3
 40
0.0
  9
$USERR4
 40
0.0
  9
$USERR5
 40
0.0
  9
$WORLDVIEW
 70
     1
  9
$SHADEDGE
 70
     3
  9
$SHADEDIF
 70
    70
  9
$TILEMODE
 70
     1
  9
$MAXACTVP
 70
    64
  9
$PLIMCHECK
 70
     0
  9
$PEXTMIN
 10
1.0000000000000000E+020
 20
1.0000000000000000E+020
 30
1.0000000000000000E+020
  9
$PEXTMAX
 10
-1.0000000000000000E+020
 20
-1.0000000000000000E+020
 30
-1.0000000000000000E+020
  9
$PLIMMIN
 10
0.0
 20
0.0
  9
$PLIMMAX
 10
12.0
 20
9.0
  9
$UNITMODE
 70
     0
  9
$VISRETAIN
 70
     1
  9
$PLINEGEN
 70
     0
  9
$PSLTSCALE
 70
     1
  0
ENDSEC
  0
SECTION
  2
TABLES
  0
TABLE
  2
VPORT
 70
     1
  0
VPORT
  2
*ACTIVE
 70
     0
 10
0.0
 20
0.0
 11
1.0
 21
1.0
 12
0.0
 22
0.0
 13
0.0
 23
0.0
 14
1.0
 24
1.0
 15
0.0
 25
0.0
 16
-0.0000000000000284
 26
0.0
 36
97.871198567547083
 17
116.0133436086103
 27
7.4824862761847486
 37
0.0
 40
35.004257400918881
 41
2.0834248079034019
 42
50.0
 43
0.0
 44
0.0
 50
0.0
 51
0.0
 71
     0
 72
   100
 73
     1
 74
     1
 75
     0
 76
     0
 77
     0
 78
     0
  0
ENDTAB
  0
TABLE
  2
LTYPE
 70
     2
  0
LTYPE
  2
CONTINUOUS
 70
     0
  3
Solid line
 72
    65
 73
     0
 40
0.0
  0
LTYPE
  2
PHANTOM2
 70
     0
  3
___ _ _ ___ _ _ ___ _ _ ___ _ _
 72
    65
 73
     6
 40
1.25
 49
0.625
 49
-0.125
 49
0.125
 49
-0.125
 49
0.125
 49
-0.125
  0
ENDTAB
  0
TABLE
  2
LAYER
 70
     2
  0
LAYER
  2
0
 70
     0
 62
   255
  6
CONTINUOUS
  0
LAYER
  2
DEFPOINTS
 70
     0
 62
     7
  6
CONTINUOUS
  0
ENDTAB
  0
TABLE
  2
STYLE
 70
     1
  0
STYLE
  2
STANDARD
 70
     0
 40
0.0
 41
0.8
 50
0.0
 71
     0
 42
0.2
  3
txt
  4

  0
ENDTAB
  0
TABLE
  2
VIEW
 70
     0
  0
ENDTAB
  0
TABLE
  2
UCS
 70
     0
  0
ENDTAB
  0
TABLE
  2
APPID
 70
     9
  0
APPID
  2
ACAD
 70
     0
  0
APPID
  2
ACAD_MLEADERVER
 70
     0
  0
APPID
  2
ACAD_EXEMPT_FROM_CAD_STANDARDS
 70
     0
  0
APPID
  2
ACAD_DSTYLE_DIMJAG
 70
     0
  0
APPID
  2
ACAD_DSTYLE_DIMTALN
 70
     0
  0
APPID
  2
ACAD_NAV_VCDISPLAY
 70
     0
  0
APPID
  2
ACAECLAYERSTANDARD
 70
     0
  0
APPID
  2
ACCMTRANSPARENCY
 70
     0
  0
APPID
  2
AcDbAttr
 70
     0
  0
ENDTAB
  0
TABLE
  2
DIMSTYLE
 70
     1
  0
DIMSTYLE
  2
STANDARD
 70
     0
  3

  4

  5

  6

  7

 40
1.0
 41
0.1875
 42
0.0625
 43
0.38
 44
0.125
 45
0.0
 46
0.0
 47
0.01
 48
0.01
140
0.15625
141
0.09
142
0.0
143
25.399999999999999
144
1.0
145
0.0
146
1.0
147
0.09
 71
     1
 72
     0
 73
     1
 74
     1
 75
     0
 76
     0
 77
     0
 78
     4
170
     0
171
     2
172
     0
173
     0
174
     0
175
     0
176
     0
177
     0
178
     0
  0
ENDTAB
  0
ENDSEC
  0
SECTION
  2
BLOCKS
  0
BLOCK
  8
0
  2
$MODEL_SPACE
 70
     0
 10
0.0
 20
0.0
 30
0.0
  3
$MODEL_SPACE
  1

  0
ENDBLK
  5
21
  8
0
  0
BLOCK
 67
     1
  8
0
  2
$PAPER_SPACE
 70
     0
 10
0.0
 20
0.0
 30
0.0
  3
$PAPER_SPACE
  1

  0
ENDBLK
  5
1D
 67
     1
  8
0
  0
ENDSEC
  0
SECTION
  2
ENTITIES
  0
LINE
  5
F5F
  8
0
 10
100.56715622491031
 20
10.739402287100001
 30
0.0
 11
100.9143584750997
 21
4.1143825828480747
 31
0.0
  0
LINE
  5
F60
  8
0
 10
101.7980173213103
 20
3.0472029693999989
 30
0.0
 11
101.8312897116103
 21
2.4124862762000001
 31
0.0
  0
LINE
  5
F61
  8
0
 10
102.8598334021103
 20
2.9571323367999991
 30
0.0
 11
102.8312897116103
 21
2.4124862762000001
 31
0.0
  0
LINE
  5
F62
  8
0
 10
129.0990483881103
 20
2.530551353499999
 30
0.0
 11
128.9200571048103
 21
2.5243008400999991
 31
0.0
  0
LINE
  5
F63
  8
0
 10
101.8312897116103
 20
2.4124862762000001
 30
0.0
 11
102.8312897116103
 21
2.4124862762000001
 31
0.0
  0
LINE
  5
F64
  8
0
 10
123.46489257184059
 20
2.4124862761695032
 30
0.0
 11
128.36279464527999
 21
2.4124862761695032
 31
0.0
  0
LINE
  5
F65
  8
0
 10
129.15112951971031
 20
2.4124862762000001
 30
0.0
 11
130.15112951971031
 21
2.4124862762000001
 31
0.0
  0
LINE
  5
F66
  8
0
 10
122.9076301124103
 20
2.5243008400999991
 30
0.0
 11
128.9200571048103
 21
2.5243008400999991
 31
0.0
  0
LINE
  5
F67
  8
0
 10
122.9076301124103
 20
2.5243008400999991
 30
0.0
 11
103.0434032216103
 21
3.2179749284999999
 31
0.0
  0
LINE
  5
F68
  8
0
 10
131.07602455261031
 20
3.421663490599999
 30
0.0
 11
131.45953099231031
 21
10.739402287100001
 31
0.0
  0
ARC
  5
F73
  8
0
 10
101.8131257373103
 20
4.1614719277000001
 30
0.0
 40
0.8999999989
 50
182.99917025740001
 51
261.09004313147938
  0
ARC
  5
F74
  8
0
 10
100.00995854568851
 20
11.86449101683815
 30
0.0
 40
0.1879952596956136
 50
33.513680978946212
 51
90.003414187345072
  0
ARC
  5
F75
  8
0
 10
122.8465559931103
 20
0.7753668928000002
 30
0.0
 40
1.75
 50
69.308553659699854
 51
87.999999999999616
  0
ARC
  5
F76
  8
0
 10
128.98113122401031
 20
0.7753668928000002
 30
0.0
 40
1.75
 50
92.000000000000398
 51
110.6914463403001
  0
ARC
  5
F77
  8
0
 10
132.0167310695019
 20
11.86448148244766
 30
0.0
 40
0.1880047939585342
 50
89.997316503456787
 51
146.48283535295241
  0
LINE
  5
F98
  8
0
 10
99.263343608610313
 20
12.052486276199989
 30
0.0
 11
99.302296128910314
 21
12.497715620799999
 31
0.0
  0
LINE
  5
F99
  8
0
 10
99.263343608610313
 20
12.052486276199989
 30
0.0
 11
132.76334360861031
 21
12.052486276199989
 31
0.0
  0
LINE
  5
F9A
  8
0
 10
132.66461940641031
 20
12.552486276199989
 30
0.0
 11
99.362067810810331
 21
12.552486276199989
 31
0.0
  0
LINE
  5
F9B
  8
0
 10
132.72439108831031
 20
12.497715620799999
 30
0.0
 11
132.76334360861031
 21
12.052486276199989
 31
0.0
  0
ARC
  5
F9C
  8
0
 10
99.362476994132606
 20
12.49203973096191
 30
0.0
 40
0.060447930173123
 50
90.38784879191688
 51
174.6121512117858
  0
ARC
  5
F9D
  8
0
 10
132.66461940641031
 20
12.492486276199999
 30
0.0
 40
0.06
 50
4.9999999999997629
 51
90.0
  0
ARC
  5
F9E
  8
0
 10
98.105751881602657
 20
10.61699981048289
 30
0.0
 40
2.464445923029313
 50
2.8469003284698431
 51
33.251422232621167
  0
ARC
  5
F9F
  8
0
 10
101.49844394691171
 20
3.0286910464961738
 30
0.0
 40
0.3001447949543122
 50
3.5360555350799929
 51
54.266832533838127
  0
ARC
  5
FA0
  8
0
 10
103.1591425045208
 20
2.9415070137282529
 30
0.0
 40
0.2997166820630344
 50
112.7159161594212
 51
177.01160743251901
  0
ARC
  5
FA1
  8
0
 10
128.8511878639751
 20
2.3506949518090918
 30
0.0
 40
0.3062403707119036
 50
11.640713073306729
 51
35.965972213988827
  0
ARC
  5
FA2
  8
0
 10
130.45962750960609
 20
2.4046626741532391
 30
0.0
 40
0.3085971784037045
 50
147.8363194352095
 51
178.54727313941279
  0
ARC
  5
FA3
  8
0
 10
130.1771473335204
 20
3.4688029435926948
 30
0.0
 40
0.9001124279928804
 50
271.35233852797057
 51
356.99801073502181
  0
ARC
  5
FA4
  8
0
 10
133.92096932848281
 20
10.61699324209294
 30
0.0
 40
2.464480200180029
 50
146.74877142422369
 51
177.15298640542829
  0
ATTDEF
  5
11F2
  8
DEFPOINTS
 10
116.0074961637625
 20
12.550683717135209
 30
0.0
 40
0.001
  1
K-8206
  3

  2
MODELNUMBER
 70
     0
1001
AcDbAttr
1070
     0
1070
     1
  0
ATTDEF
  5
11F3
  8
DEFPOINTS
 10
116.0074961637625
 20
12.549017050468541
 30
0.0
 40
0.001
  1
CAIRN
  3

  2
TRADENAME
 70
     0
1001
AcDbAttr
1070
     0
1070
     1
  0
ATTDEF
  5
11F4
  8
DEFPOINTS
 10
116.0074961637625
 20
12.547350383801881
 30
0.0
 40
0.001
  1
KITCHEN SINK
  3

  2
PRODUCT
 70
     0
1001
AcDbAttr
1070
     0
1070
     1
  0
ATTDEF
  5
11F5
  8
DEFPOINTS
 10
116.0074961637625
 20
12.54568371713521
 30
0.0
 40
0.001
  1
NEOROC
  3

  2
MATERIAL
 70
     0
1001
AcDbAttr
1070
     0
1070
     1
  0
ENDSEC
  0
EOF
