  0
SECTION
  2
HEADER
  9
$ACADVER
  1
AC1009
  9
$INSBASE
 10
116.0133436086103
 20
36.519175312599998
 30
0.0
  9
$EXTMIN
 10
99.263343608610313
 20
27.369175312599999
 30
0.0
  9
$EXTMAX
 10
132.76334360861031
 20
45.669175312599997
 30
0.0
  9
$LIMMIN
 10
0.0
 20
0.0
  9
$LIMMAX
 10
11.692913385800001
 20
8.2677165353999982
  9
$ORTHOMODE
 70
     0
  9
$REGENMODE
 70
     1
  9
$FILLMODE
 70
     1
  9
$QTEXTMODE
 70
     0
  9
$MIRRTEXT
 70
     0
  9
$DRAGMODE
 70
     2
  9
$LTSCALE
 40
0.6431102362
  9
$OSMODE
 70
  3071
  9
$ATTMODE
 70
     1
  9
$TEXTSIZE
 40
0.2
  9
$TRACEWID
 40
0.05
  9
$TEXTSTYLE
  7
STANDARD
  9
$CLAYER
  8
0
  9
$CELTYPE
  6
BYLAYER
  9
$CECOLOR
 62
   256
  9
$DIMSCALE
 40
1.0
  9
$DIMASZ
 40
0.1875
  9
$DIMEXO
 40
0.0625
  9
$DIMDLI
 40
0.4443307087
  9
$DIMRND
 40
0.0
  9
$DIMDLE
 40
0.0
  9
$DIMEXE
 40
0.125
  9
$DIMTP
 40
0.01
  9
$DIMTM
 40
0.01
  9
$DIMTXT
 40
1.0
  9
$DIMCEN
 40
0.1052362205
  9
$DIMTSZ
 40
0.0
  9
$DIMTOL
 70
     1
  9
$DIMLIM
 70
     0
  9
$DIMTIH
 70
     1
  9
$DIMTOH
 70
     1
  9
$DIMSE1
 70
     0
  9
$DIMSE2
 70
     0
  9
$DIMTAD
 70
     0
  9
$DIMZIN
 70
     0
  9
$DIMBLK
  1

  9
$DIMASO
 70
     1
  9
$DIMSHO
 70
     1
  9
$DIMPOST
  1
\X
  9
$DIMAPOST
  1

  9
$DIMALT
 70
     1
  9
$DIMALTD
 70
     2
  9
$DIMALTF
 40
25.399999999999999
  9
$DIMLFAC
 40
1.0
  9
$DIMTOFL
 70
     0
  9
$DIMTVP
 40
0.0
  9
$DIMTIX
 70
     0
  9
$DIMSOXD
 70
     0
  9
$DIMSAH
 70
     0
  9
$DIMBLK1
  1

  9
$DIMBLK2
  1

  9
$DIMSTYLE
  2
STANDARD
  9
$DIMCLRD
 70
     0
  9
$DIMCLRE
 70
     0
  9
$DIMCLRT
 70
     0
  9
$DIMTFAC
 40
1.0
  9
$DIMGAP
 40
0.09
  9
$LUNITS
 70
     2
  9
$LUPREC
 70
     4
  9
$SKETCHINC
 40
0.1
  9
$FILLETRAD
 40
0.0
  9
$AUNITS
 70
     0
  9
$AUPREC
 70
     0
  9
$MENU
  1
.
  9
$ELEVATION
 40
0.0
  9
$PELEVATION
 40
0.0
  9
$THICKNESS
 40
0.0
  9
$LIMCHECK
 70
     0
  9
$BLIPMODE
 70
     0
  9
$CHAMFERA
 40
0.0
  9
$CHAMFERB
 40
0.0
  9
$SKPOLY
 70
     0
  9
$TDCREATE
 40
2458249.5889512729
  9
$TDUPDATE
 40
2458249.6730884612
  9
$TDINDWG
 40
0.076065787
  9
$TDUSRTIMER
 40
0.076065787
  9
$USRTIMER
 70
     1
  9
$ANGBASE
 50
0.0
  9
$ANGDIR
 70
     0
  9
$PDMODE
 70
     0
  9
$PDSIZE
 40
0.3125
  9
$PLINEWID
 40
0.0
  9
$COORDS
 70
     1
  9
$SPLFRAME
 70
     0
  9
$SPLINETYPE
 70
     6
  9
$SPLINESEGS
 70
     8
  9
$ATTDIA
 70
     1
  9
$ATTREQ
 70
     1
  9
$HANDLING
 70
     1
  9
$HANDSEED
  5
1301
  9
$SURFTAB1
 70
     6
  9
$SURFTAB2
 70
     6
  9
$SURFTYPE
 70
     6
  9
$SURFU
 70
     6
  9
$SURFV
 70
     6
  9
$UCSNAME
  2

  9
$UCSORG
 10
0.0
 20
0.0
 30
0.0
  9
$UCSXDIR
 10
1.0
 20
0.0
 30
0.0
  9
$UCSYDIR
 10
0.0
 20
1.0
 30
0.0
  9
$PUCSNAME
  2

  9
$PUCSORG
 10
0.0
 20
0.0
 30
0.0
  9
$PUCSXDIR
 10
1.0
 20
0.0
 30
0.0
  9
$PUCSYDIR
 10
0.0
 20
1.0
 30
0.0
  9
$USERI1
 70
     0
  9
$USERI2
 70
     0
  9
$USERI3
 70
     0
  9
$USERI4
 70
     0
  9
$USERI5
 70
     0
  9
$USERR1
 40
0.0
  9
$USERR2
 40
0.0
  9
$USERR3
 40
0.0
  9
$USERR4
 40
0.0
  9
$USERR5
 40
0.0
  9
$WORLDVIEW
 70
     1
  9
$SHADEDGE
 70
     3
  9
$SHADEDIF
 70
    70
  9
$TILEMODE
 70
     1
  9
$MAXACTVP
 70
    64
  9
$PLIMCHECK
 70
     0
  9
$PEXTMIN
 10
1.0000000000000000E+020
 20
1.0000000000000000E+020
 30
1.0000000000000000E+020
  9
$PEXTMAX
 10
-1.0000000000000000E+020
 20
-1.0000000000000000E+020
 30
-1.0000000000000000E+020
  9
$PLIMMIN
 10
0.0
 20
0.0
  9
$PLIMMAX
 10
12.0
 20
9.0
  9
$UNITMODE
 70
     0
  9
$VISRETAIN
 70
     1
  9
$PLINEGEN
 70
     0
  9
$PSLTSCALE
 70
     1
  0
ENDSEC
  0
SECTION
  2
TABLES
  0
TABLE
  2
VPORT
 70
     1
  0
VPORT
  2
*ACTIVE
 70
     0
 10
0.0
 20
0.0
 11
1.0
 21
1.0
 12
0.0
 22
0.0
 13
0.0
 23
0.0
 14
1.0
 24
1.0
 15
0.0
 25
0.0
 16
-0.0000000000000284
 26
0.0
 36
106.7395003355275
 17
116.0133436086103
 27
36.519175312599998
 37
0.0
 40
38.18908340314934
 41
2.0834248079034019
 42
50.0
 43
0.0
 44
0.0
 50
0.0
 51
0.0
 71
     0
 72
   100
 73
     1
 74
     1
 75
     0
 76
     0
 77
     0
 78
     0
  0
ENDTAB
  0
TABLE
  2
LTYPE
 70
     2
  0
LTYPE
  2
CONTINUOUS
 70
     0
  3
Solid line
 72
    65
 73
     0
 40
0.0
  0
LTYPE
  2
PHANTOM2
 70
     0
  3
___ _ _ ___ _ _ ___ _ _ ___ _ _
 72
    65
 73
     6
 40
1.25
 49
0.625
 49
-0.125
 49
0.125
 49
-0.125
 49
0.125
 49
-0.125
  0
ENDTAB
  0
TABLE
  2
LAYER
 70
     2
  0
LAYER
  2
0
 70
     0
 62
   255
  6
CONTINUOUS
  0
LAYER
  2
DEFPOINTS
 70
     0
 62
     7
  6
CONTINUOUS
  0
ENDTAB
  0
TABLE
  2
STYLE
 70
     1
  0
STYLE
  2
STANDARD
 70
     0
 40
0.0
 41
0.8
 50
0.0
 71
     0
 42
0.2
  3
txt
  4

  0
ENDTAB
  0
TABLE
  2
VIEW
 70
     0
  0
ENDTAB
  0
TABLE
  2
UCS
 70
     0
  0
ENDTAB
  0
TABLE
  2
APPID
 70
     9
  0
APPID
  2
ACAD
 70
     0
  0
APPID
  2
ACAD_MLEADERVER
 70
     0
  0
APPID
  2
ACAD_EXEMPT_FROM_CAD_STANDARDS
 70
     0
  0
APPID
  2
ACAD_DSTYLE_DIMJAG
 70
     0
  0
APPID
  2
ACAD_DSTYLE_DIMTALN
 70
     0
  0
APPID
  2
ACAD_NAV_VCDISPLAY
 70
     0
  0
APPID
  2
ACAECLAYERSTANDARD
 70
     0
  0
APPID
  2
ACCMTRANSPARENCY
 70
     0
  0
APPID
  2
AcDbAttr
 70
     0
  0
ENDTAB
  0
TABLE
  2
DIMSTYLE
 70
     1
  0
DIMSTYLE
  2
STANDARD
 70
     0
  3

  4

  5

  6

  7

 40
1.0
 41
0.1875
 42
0.0625
 43
0.38
 44
0.125
 45
0.0
 46
0.0
 47
0.01
 48
0.01
140
0.15625
141
0.09
142
0.0
143
25.399999999999999
144
1.0
145
0.0
146
1.0
147
0.09
 71
     1
 72
     0
 73
     1
 74
     1
 75
     0
 76
     0
 77
     0
 78
     4
170
     0
171
     2
172
     0
173
     0
174
     0
175
     0
176
     0
177
     0
178
     0
  0
ENDTAB
  0
ENDSEC
  0
SECTION
  2
BLOCKS
  0
BLOCK
  8
0
  2
$MODEL_SPACE
 70
     0
 10
0.0
 20
0.0
 30
0.0
  3
$MODEL_SPACE
  1

  0
ENDBLK
  5
21
  8
0
  0
BLOCK
 67
     1
  8
0
  2
$PAPER_SPACE
 70
     0
 10
0.0
 20
0.0
 30
0.0
  3
$PAPER_SPACE
  1

  0
ENDBLK
  5
1D
 67
     1
  8
0
  0
ENDSEC
  0
SECTION
  2
ENTITIES
  0
LINE
  5
F7C
  8
0
 10
99.263343608610313
 20
29.9226453126
 30
0.0
 11
99.263343608610313
 21
43.115705312599999
 31
0.0
  0
LINE
  5
F7D
  8
0
 10
100.8168136086103
 20
43.117075777899998
 30
0.0
 11
100.8168136086103
 21
29.921274847399999
 31
0.0
  0
LINE
  5
F7E
  8
0
 10
130.20987360861031
 20
27.369175312599999
 30
0.0
 11
101.8168136086103
 21
27.369175312599999
 31
0.0
  0
LINE
  5
F7F
  8
0
 10
130.21019015027349
 20
28.163823925971741
 30
0.0
 11
101.8164596030299
 21
28.16361617255988
 31
0.0
  0
LINE
  5
F80
  8
0
 10
101.81544314341031
 20
28.9226453126
 30
0.0
 11
130.21124407381029
 21
28.9226453126
 31
0.0
  0
LINE
  5
F81
  8
0
 10
130.21124407381029
 20
44.115705312599992
 30
0.0
 11
101.8154431433103
 21
44.115705312599992
 31
0.0
  0
LINE
  5
F82
  8
0
 10
101.81645960592169
 20
44.874734432042317
 30
0.0
 11
130.2102296058024
 21
44.874734451246248
 31
0.0
  0
LINE
  5
F83
  8
0
 10
101.8168136086103
 20
45.669175312599997
 30
0.0
 11
130.20987360861031
 21
45.669175312599997
 31
0.0
  0
LINE
  5
F84
  8
0
 10
131.20987360861031
 20
29.921274847399999
 30
0.0
 11
131.20987360861031
 21
43.117075777899998
 31
0.0
  0
LINE
  5
F85
  8
0
 10
132.76334360861031
 20
43.115705312599999
 30
0.0
 11
132.76334360861031
 21
29.9226453126
 31
0.0
  0
ARC
  5
F86
  8
0
 10
101.8168136086103
 20
29.9226453126
 30
0.0
 40
2.553469999999999
 50
180.0
 51
270.0
  0
ARC
  5
F87
  8
0
 10
101.8168136086103
 20
43.115705312599999
 30
0.0
 40
2.553469999999999
 50
90.0
 51
180.0
  0
ARC
  5
F88
  8
0
 10
130.20987360861031
 20
29.9226453126
 30
0.0
 40
2.553469999999999
 50
270.0
 51
0.0
  0
ARC
  5
F89
  8
0
 10
130.20987360861031
 20
43.115705312599999
 30
0.0
 40
2.553469999999999
 50
0.0
 51
90.0
  0
ARC
  5
F8A
  8
0
 10
130.2089881213617
 20
43.115077233527032
 30
0.0
 40
1.7596576556691259
 50
0.0311130121555369
 51
89.959576327555141
  0
ARC
  5
F8B
  8
0
 10
130.20934319559379
 20
29.923126230490389
 30
0.0
 40
1.7593025083870231
 50
270.02758305079988
 51
359.97420557085712
  0
ARC
  5
F8C
  8
0
 10
101.8176811224848
 20
29.923230060835831
 30
0.0
 40
1.759614312263738
 50
180.02954633126089
 51
269.9602254229851
  0
ARC
  5
F8D
  8
0
 10
101.8176810934095
 20
43.115120572820459
 30
0.0
 40
1.759614283187477
 50
90.039773536774405
 51
179.97045373534971
  0
ARC
  5
F8E
  8
0
 10
101.81487772112619
 20
43.117641200084108
 30
0.0
 40
0.9980642726770554
 50
89.967540861433307
 51
180.03245913856671
  0
ARC
  5
F8F
  8
0
 10
130.2118117198556
 20
43.117643423845372
 30
0.0
 40
0.9980620501784807
 50
359.96741312959858
 51
90.032586876137984
  0
ARC
  5
F90
  8
0
 10
130.2118094986221
 20
29.920709422588178
 30
0.0
 40
0.9980642701508418
 50
269.96754071050259
 51
0.0324592894974274
  0
ARC
  5
F91
  8
0
 10
101.8148740178238
 20
29.920705721813551
 30
0.0
 40
0.998060571480244
 50
179.96732813937831
 51
270.03267186062169
  0
CIRCLE
  5
F92
  8
0
 10
125.91384360861031
 20
36.519175312599998
 30
0.0
 40
0.31
  0
CIRCLE
  5
F93
  8
0
 10
125.91384360861031
 20
36.519175312599998
 30
0.0
 40
0.2760925586
  0
CIRCLE
  5
F94
  8
0
 10
125.91384360861031
 20
36.519175312599998
 30
0.0
 40
2.25
  0
CIRCLE
  5
F95
  8
0
 10
125.91384360861031
 20
36.519175312599998
 30
0.0
 40
1.6780895467000001
  0
LINE
  5
F96
  8
0
 10
131.96864552569491
 20
29.922334196543979
 30
0.0
 11
131.96864551759069
 21
43.116032770702823
 31
0.0
  0
LINE
  5
F97
  8
0
 10
100.05806704418519
 20
29.922322661625991
 30
0.0
 11
100.05806704418509
 21
43.116027969969622
 31
0.0
  0
ATTDEF
  5
11F2
  8
DEFPOINTS
 10
116.0098177810633
 20
36.519674906713313
 30
0.0
 40
0.001
  1
NEOROC
  3

  2
MATERIAL
 70
     0
1001
AcDbAttr
1070
     0
1070
     1
  0
ATTDEF
  5
11F3
  8
DEFPOINTS
 10
116.0098177810633
 20
36.521341573379971
 30
0.0
 40
0.001
  1
KITCHEN SINK
  3

  2
PRODUCT
 70
     0
1001
AcDbAttr
1070
     0
1070
     1
  0
ATTDEF
  5
11F4
  8
DEFPOINTS
 10
116.0098177810633
 20
36.523008240046643
 30
0.0
 40
0.001
  1
CAIRN
  3

  2
TRADENAME
 70
     0
1001
AcDbAttr
1070
     0
1070
     1
  0
ATTDEF
  5
11F5
  8
DEFPOINTS
 10
116.0098177810633
 20
36.524674906713301
 30
0.0
 40
0.001
  1
K-8206
  3

  2
MODELNUMBER
 70
     0
1001
AcDbAttr
1070
     0
1070
     1
  0
ENDSEC
  0
EOF
