  0
SECTION
  2
HEADER
  9
$ACADVER
  1
AC1009
  9
$INSBASE
 10
157.06959999981029
 20
12.5524862762
 30
0.0
  9
$EXTMIN
 10
147.91959999981029
 20
2.412486276169497
 30
0.0
  9
$EXTMAX
 10
166.2195999998103
 20
12.56590992508487
 30
0.0
  9
$LIMMIN
 10
0.0
 20
0.0
  9
$LIMMAX
 10
11.692913385800001
 20
8.2677165353999982
  9
$ORTHOMODE
 70
     0
  9
$REGENMODE
 70
     1
  9
$FILLMODE
 70
     1
  9
$QTEXTMODE
 70
     0
  9
$MIRRTEXT
 70
     0
  9
$DRAGMODE
 70
     2
  9
$LTSCALE
 40
0.6431102362
  9
$OSMODE
 70
  3071
  9
$ATTMODE
 70
     1
  9
$TEXTSIZE
 40
0.2
  9
$TRACEWID
 40
0.05
  9
$TEXTSTYLE
  7
STANDARD
  9
$CLAYER
  8
0
  9
$CELTYPE
  6
BYLAYER
  9
$CECOLOR
 62
   256
  9
$DIMSCALE
 40
1.0
  9
$DIMASZ
 40
0.1875
  9
$DIMEXO
 40
0.0625
  9
$DIMDLI
 40
0.4443307087
  9
$DIMRND
 40
0.0
  9
$DIMDLE
 40
0.0
  9
$DIMEXE
 40
0.125
  9
$DIMTP
 40
0.01
  9
$DIMTM
 40
0.01
  9
$DIMTXT
 40
1.0
  9
$DIMCEN
 40
0.1052362205
  9
$DIMTSZ
 40
0.0
  9
$DIMTOL
 70
     1
  9
$DIMLIM
 70
     0
  9
$DIMTIH
 70
     1
  9
$DIMTOH
 70
     1
  9
$DIMSE1
 70
     0
  9
$DIMSE2
 70
     0
  9
$DIMTAD
 70
     0
  9
$DIMZIN
 70
     0
  9
$DIMBLK
  1

  9
$DIMASO
 70
     1
  9
$DIMSHO
 70
     1
  9
$DIMPOST
  1
\X
  9
$DIMAPOST
  1

  9
$DIMALT
 70
     1
  9
$DIMALTD
 70
     2
  9
$DIMALTF
 40
25.399999999999999
  9
$DIMLFAC
 40
1.0
  9
$DIMTOFL
 70
     0
  9
$DIMTVP
 40
0.0
  9
$DIMTIX
 70
     0
  9
$DIMSOXD
 70
     0
  9
$DIMSAH
 70
     0
  9
$DIMBLK1
  1

  9
$DIMBLK2
  1

  9
$DIMSTYLE
  2
STANDARD
  9
$DIMCLRD
 70
     0
  9
$DIMCLRE
 70
     0
  9
$DIMCLRT
 70
     0
  9
$DIMTFAC
 40
1.0
  9
$DIMGAP
 40
0.09
  9
$LUNITS
 70
     2
  9
$LUPREC
 70
     4
  9
$SKETCHINC
 40
0.1
  9
$FILLETRAD
 40
0.0
  9
$AUNITS
 70
     0
  9
$AUPREC
 70
     0
  9
$MENU
  1
.
  9
$ELEVATION
 40
0.0
  9
$PELEVATION
 40
0.0
  9
$THICKNESS
 40
0.0
  9
$LIMCHECK
 70
     0
  9
$BLIPMODE
 70
     0
  9
$CHAMFERA
 40
0.0
  9
$CHAMFERB
 40
0.0
  9
$SKPOLY
 70
     0
  9
$TDCREATE
 40
2458249.5889512729
  9
$TDUPDATE
 40
2458249.6732315049
  9
$TDINDWG
 40
0.0762032292
  9
$TDUSRTIMER
 40
0.0762032292
  9
$USRTIMER
 70
     1
  9
$ANGBASE
 50
0.0
  9
$ANGDIR
 70
     0
  9
$PDMODE
 70
     0
  9
$PDSIZE
 40
0.3125
  9
$PLINEWID
 40
0.0
  9
$COORDS
 70
     1
  9
$SPLFRAME
 70
     0
  9
$SPLINETYPE
 70
     6
  9
$SPLINESEGS
 70
     8
  9
$ATTDIA
 70
     1
  9
$ATTREQ
 70
     1
  9
$HANDLING
 70
     1
  9
$HANDSEED
  5
1510
  9
$SURFTAB1
 70
     6
  9
$SURFTAB2
 70
     6
  9
$SURFTYPE
 70
     6
  9
$SURFU
 70
     6
  9
$SURFV
 70
     6
  9
$UCSNAME
  2

  9
$UCSORG
 10
0.0
 20
0.0
 30
0.0
  9
$UCSXDIR
 10
1.0
 20
0.0
 30
0.0
  9
$UCSYDIR
 10
0.0
 20
1.0
 30
0.0
  9
$PUCSNAME
  2

  9
$PUCSORG
 10
0.0
 20
0.0
 30
0.0
  9
$PUCSXDIR
 10
1.0
 20
0.0
 30
0.0
  9
$PUCSYDIR
 10
0.0
 20
1.0
 30
0.0
  9
$USERI1
 70
     0
  9
$USERI2
 70
     0
  9
$USERI3
 70
     0
  9
$USERI4
 70
     0
  9
$USERI5
 70
     0
  9
$USERR1
 40
0.0
  9
$USERR2
 40
0.0
  9
$USERR3
 40
0.0
  9
$USERR4
 40
0.0
  9
$USERR5
 40
0.0
  9
$WORLDVIEW
 70
     1
  9
$SHADEDGE
 70
     3
  9
$SHADEDIF
 70
    70
  9
$TILEMODE
 70
     1
  9
$MAXACTVP
 70
    64
  9
$PLIMCHECK
 70
     0
  9
$PEXTMIN
 10
1.0000000000000000E+020
 20
1.0000000000000000E+020
 30
1.0000000000000000E+020
  9
$PEXTMAX
 10
-1.0000000000000000E+020
 20
-1.0000000000000000E+020
 30
-1.0000000000000000E+020
  9
$PLIMMIN
 10
0.0
 20
0.0
  9
$PLIMMAX
 10
12.0
 20
9.0
  9
$UNITMODE
 70
     0
  9
$VISRETAIN
 70
     1
  9
$PLINEGEN
 70
     0
  9
$PSLTSCALE
 70
     1
  0
ENDSEC
  0
SECTION
  2
TABLES
  0
TABLE
  2
VPORT
 70
     1
  0
VPORT
  2
*ACTIVE
 70
     0
 10
0.0
 20
0.0
 11
1.0
 21
1.0
 12
0.0
 22
0.0
 13
0.0
 23
0.0
 14
1.0
 24
1.0
 15
0.0
 25
0.0
 16
0.0
 26
0.0
 36
58.51977699103827
 17
157.06959999981029
 27
7.4891981006271813
 37
0.0
 40
20.9383395898572
 41
2.0834248079034019
 42
50.0
 43
0.0
 44
0.0
 50
0.0
 51
0.0
 71
     0
 72
   100
 73
     1
 74
     1
 75
     0
 76
     0
 77
     0
 78
     0
  0
ENDTAB
  0
TABLE
  2
LTYPE
 70
     2
  0
LTYPE
  2
CONTINUOUS
 70
     0
  3
Solid line
 72
    65
 73
     0
 40
0.0
  0
LTYPE
  2
PHANTOM2
 70
     0
  3
___ _ _ ___ _ _ ___ _ _ ___ _ _
 72
    65
 73
     6
 40
1.25
 49
0.625
 49
-0.125
 49
0.125
 49
-0.125
 49
0.125
 49
-0.125
  0
ENDTAB
  0
TABLE
  2
LAYER
 70
     2
  0
LAYER
  2
0
 70
     0
 62
   255
  6
CONTINUOUS
  0
LAYER
  2
DEFPOINTS
 70
     0
 62
     7
  6
CONTINUOUS
  0
ENDTAB
  0
TABLE
  2
STYLE
 70
     1
  0
STYLE
  2
STANDARD
 70
     0
 40
0.0
 41
0.8
 50
0.0
 71
     0
 42
0.2
  3
txt
  4

  0
ENDTAB
  0
TABLE
  2
VIEW
 70
     0
  0
ENDTAB
  0
TABLE
  2
UCS
 70
     0
  0
ENDTAB
  0
TABLE
  2
APPID
 70
     9
  0
APPID
  2
ACAD
 70
     0
  0
APPID
  2
ACAD_MLEADERVER
 70
     0
  0
APPID
  2
ACAD_EXEMPT_FROM_CAD_STANDARDS
 70
     0
  0
APPID
  2
ACAD_DSTYLE_DIMJAG
 70
     0
  0
APPID
  2
ACAD_DSTYLE_DIMTALN
 70
     0
  0
APPID
  2
ACAD_NAV_VCDISPLAY
 70
     0
  0
APPID
  2
ACAECLAYERSTANDARD
 70
     0
  0
APPID
  2
ACCMTRANSPARENCY
 70
     0
  0
APPID
  2
AcDbAttr
 70
     0
  0
ENDTAB
  0
TABLE
  2
DIMSTYLE
 70
     1
  0
DIMSTYLE
  2
STANDARD
 70
     0
  3

  4

  5

  6

  7

 40
1.0
 41
0.1875
 42
0.0625
 43
0.38
 44
0.125
 45
0.0
 46
0.0
 47
0.01
 48
0.01
140
0.15625
141
0.09
142
0.0
143
25.399999999999999
144
1.0
145
0.0
146
1.0
147
0.09
 71
     1
 72
     0
 73
     1
 74
     1
 75
     0
 76
     0
 77
     0
 78
     4
170
     0
171
     2
172
     0
173
     0
174
     0
175
     0
176
     0
177
     0
178
     0
  0
ENDTAB
  0
ENDSEC
  0
SECTION
  2
BLOCKS
  0
BLOCK
  8
0
  2
$MODEL_SPACE
 70
     0
 10
0.0
 20
0.0
 30
0.0
  3
$MODEL_SPACE
  1

  0
ENDBLK
  5
21
  8
0
  0
BLOCK
 67
     1
  8
0
  2
$PAPER_SPACE
 70
     0
 10
0.0
 20
0.0
 30
0.0
  3
$PAPER_SPACE
  1

  0
ENDBLK
  5
1D
 67
     1
  8
0
  0
ENDSEC
  0
SECTION
  2
ENTITIES
  0
LINE
  5
F69
  8
0
 10
149.22341263931031
 20
10.7394018436
 30
0.0
 11
149.60270408821029
 21
3.502089883
 31
0.0
  0
LINE
  5
F6A
  8
0
 10
150.5102487162103
 20
2.4124862762000001
 30
0.0
 11
150.50489121601029
 21
2.514713471299999
 31
0.0
  0
LINE
  5
F6B
  8
0
 10
160.07581349601031
 20
2.5243008400999991
 30
0.0
 11
162.46757720521029
 21
2.6078230693000002
 31
0.0
  0
LINE
  5
F6C
  8
0
 10
150.5102487162103
 20
2.4124862762000001
 30
0.0
 11
151.5223410574103
 21
2.4124862762000019
 31
0.0
  0
LINE
  5
F6D
  8
0
 10
154.62064896304059
 20
2.4124862761695032
 30
0.0
 11
159.51855103648001
 21
2.4124862761695032
 31
0.0
  0
LINE
  5
F6E
  8
0
 10
162.61693307251031
 20
2.4124862762000001
 30
0.0
 11
163.62895128341029
 21
2.4124862762000001
 31
0.0
  0
LINE
  5
F6F
  8
0
 10
154.0633865036103
 20
2.5243008400999991
 30
0.0
 11
160.07581349601031
 21
2.5243008400999991
 31
0.0
  0
LINE
  5
F70
  8
0
 10
154.0633865036103
 20
2.5243008400999991
 30
0.0
 11
151.67184222421031
 21
2.607815406599999
 31
0.0
  0
LINE
  5
F71
  8
0
 10
163.62895128341029
 20
2.4124862762000001
 30
0.0
 11
163.6343390126103
 21
2.5152902737999989
 31
0.0
  0
LINE
  5
F72
  8
0
 10
164.53649803311029
 20
3.5021303487999988
 30
0.0
 11
164.91578738351029
 21
10.739402287100001
 31
0.0
  0
ARC
  5
F78
  8
0
 10
148.66620293103981
 20
11.86444608298976
 30
0.0
 40
0.1880401935251599
 50
33.514745307635899
 51
90.003316083330546
  0
ARC
  5
F79
  8
0
 10
154.0023123843103
 20
0.7753668928000002
 30
0.0
 40
1.75
 50
69.308553659699854
 51
87.999999999999616
  0
ARC
  5
F7A
  8
0
 10
160.1368876152103
 20
0.7753668928000002
 30
0.0
 40
1.75
 50
92.000000000000398
 51
110.6914463403001
  0
ARC
  5
F7B
  8
0
 10
165.47298949008709
 20
11.86447621703355
 30
0.0
 40
0.1880100600726033
 50
89.994374642604271
 51
146.48372485659229
  0
LINE
  5
FA5
  8
0
 10
147.91959999981029
 20
12.0524862762
 30
0.0
 11
147.95855252011029
 21
12.497715620799999
 31
0.0
  0
LINE
  5
FA6
  8
0
 10
147.91959999981029
 20
12.0524862762
 30
0.0
 11
166.2195999998103
 21
12.0524862762
 31
0.0
  0
LINE
  5
FA7
  8
0
 10
166.1208757976103
 20
12.5524862762
 30
0.0
 11
148.01832420201029
 21
12.5524862762
 31
0.0
  0
LINE
  5
FA8
  8
0
 10
166.1806474795103
 20
12.497715620799999
 30
0.0
 11
166.2195999998103
 21
12.0524862762
 31
0.0
  0
ARC
  5
FA9
  8
0
 10
148.01873338533261
 20
12.49203973096191
 30
0.0
 40
0.060447930173123
 50
90.38784879191688
 51
174.6121512117858
  0
ARC
  5
FAA
  8
0
 10
166.1208757976103
 20
12.492486276199999
 30
0.0
 40
0.06
 50
4.9999999999997708
 51
90.0
  0
ARC
  5
FAB
  8
0
 10
146.79922180338011
 20
10.629146516727049
 30
0.0
 40
2.426696817921782
 50
2.6040914013224929
 51
33.492710273070003
  0
ARC
  5
FAC
  8
0
 10
150.5025696514756
 20
3.551167188210326
 30
0.0
 40
0.9012028705222178
 50
183.1217323645364
 51
263.6061050445208
  0
ARC
  5
FAD
  8
0
 10
150.2222625390948
 20
2.416536625519659
 30
0.0
 40
0.2991950234585847
 50
19.155715291669011
 51
53.027244384626051
  0
ARC
  5
FAE
  8
0
 10
151.8151260093868
 20
2.3432715211575919
 30
0.0
 40
0.3008549657550683
 50
118.44111685354579
 51
166.6993837188123
  0
ARC
  5
FAF
  8
0
 10
162.32460416935851
 20
2.343737231314674
 30
0.0
 40
0.300304210410987
 50
13.234163357393239
 51
61.569395154206923
  0
ARC
  5
FB0
  8
0
 10
163.90374375641881
 20
2.4234253959471288
 30
0.0
 40
0.2846367365071225
 50
125.60856843162679
 51
161.17103140276379
  0
ARC
  5
FB1
  8
0
 10
163.63497953202821
 20
3.5518278258616411
 30
0.0
 40
0.902887283673693
 50
276.55277709464269
 51
356.84468312628718
  0
ARC
  5
FB2
  8
0
 10
167.37723439833439
 20
10.61699180857417
 30
0.0
 40
2.464488939321793
 50
146.7489979748143
 51
177.15296314091901
  0
ATTDEF
  5
1233
  8
DEFPOINTS
 10
157.06630755481021
 20
12.55990992508487
 30
0.0
 40
0.001
  1
NEOROC
  3

  2
MATERIAL
 70
     0
1001
AcDbAttr
1070
     0
1070
     1
  0
ATTDEF
  5
1234
  8
DEFPOINTS
 10
157.06630755481021
 20
12.56157659175153
 30
0.0
 40
0.001
  1
KITCHEN SINK
  3

  2
PRODUCT
 70
     0
1001
AcDbAttr
1070
     0
1070
     1
  0
ATTDEF
  5
1235
  8
DEFPOINTS
 10
157.06630755481021
 20
12.563243258418201
 30
0.0
 40
0.001
  1
CAIRN
  3

  2
TRADENAME
 70
     0
1001
AcDbAttr
1070
     0
1070
     1
  0
ATTDEF
  5
1236
  8
DEFPOINTS
 10
157.06630755481021
 20
12.56490992508486
 30
0.0
 40
0.001
  1
K-8206
  3

  2
MODELNUMBER
 70
     0
1001
AcDbAttr
1070
     0
1070
     1
  0
ENDSEC
  0
EOF
