  0
SECTION
  2
HEADER
  9
$ACADVER
  1
AC1009
  9
$INSBASE
 10
9.1388214224999995
 20
11.845895862300001
 30
0.0
  9
$EXTMIN
 10
1.38851779744472
 20
1.7056517060810841
 30
-0.0000000349181948
  9
$EXTMAX
 10
16.889509453922159
 20
11.85489428482169
 30
0.0000000814935746
  9
$LIMMIN
 10
0.0
 20
0.0
  9
$LIMMAX
 10
11.692913385800001
 20
8.2677165353999982
  9
$ORTHOMODE
 70
     1
  9
$REGENMODE
 70
     1
  9
$FILLMODE
 70
     1
  9
$QTEXTMODE
 70
     0
  9
$MIRRTEXT
 70
     0
  9
$DRAGMODE
 70
     2
  9
$LTSCALE
 40
0.6431102362
  9
$OSMODE
 70
    39
  9
$ATTMODE
 70
     1
  9
$TEXTSIZE
 40
0.2
  9
$TRACEWID
 40
0.05
  9
$TEXTSTYLE
  7
STANDARD
  9
$CLAYER
  8
0
  9
$CELTYPE
  6
BYLAYER
  9
$CECOLOR
 62
   256
  9
$DIMSCALE
 40
1.0
  9
$DIMASZ
 40
0.1875
  9
$DIMEXO
 40
0.0625
  9
$DIMDLI
 40
0.4443307087
  9
$DIMRND
 40
0.0
  9
$DIMDLE
 40
0.0
  9
$DIMEXE
 40
0.125
  9
$DIMTP
 40
0.01
  9
$DIMTM
 40
0.01
  9
$DIMTXT
 40
0.15625
  9
$DIMCEN
 40
0.1052362205
  9
$DIMTSZ
 40
0.0
  9
$DIMTOL
 70
     1
  9
$DIMLIM
 70
     0
  9
$DIMTIH
 70
     1
  9
$DIMTOH
 70
     1
  9
$DIMSE1
 70
     0
  9
$DIMSE2
 70
     0
  9
$DIMTAD
 70
     0
  9
$DIMZIN
 70
     0
  9
$DIMBLK
  1

  9
$DIMASO
 70
     1
  9
$DIMSHO
 70
     1
  9
$DIMPOST
  1

  9
$DIMAPOST
  1

  9
$DIMALT
 70
     0
  9
$DIMALTD
 70
     2
  9
$DIMALTF
 40
25.399999999999999
  9
$DIMLFAC
 40
1.0
  9
$DIMTOFL
 70
     0
  9
$DIMTVP
 40
0.0
  9
$DIMTIX
 70
     0
  9
$DIMSOXD
 70
     0
  9
$DIMSAH
 70
     0
  9
$DIMBLK1
  1

  9
$DIMBLK2
  1

  9
$DIMSTYLE
  2
STANDARD
  9
$DIMCLRD
 70
     0
  9
$DIMCLRE
 70
     0
  9
$DIMCLRT
 70
     0
  9
$DIMTFAC
 40
1.0
  9
$DIMGAP
 40
0.09
  9
$LUNITS
 70
     2
  9
$LUPREC
 70
     4
  9
$SKETCHINC
 40
0.1
  9
$FILLETRAD
 40
0.0
  9
$AUNITS
 70
     0
  9
$AUPREC
 70
     0
  9
$MENU
  1
.
  9
$ELEVATION
 40
0.0
  9
$PELEVATION
 40
0.0
  9
$THICKNESS
 40
0.0
  9
$LIMCHECK
 70
     0
  9
$BLIPMODE
 70
     0
  9
$CHAMFERA
 40
0.0
  9
$CHAMFERB
 40
0.0
  9
$SKPOLY
 70
     0
  9
$TDCREATE
 40
2457966.6232523848
  9
$TDUPDATE
 40
2457966.7630318408
  9
$TDINDWG
 40
0.0927592593
  9
$TDUSRTIMER
 40
0.0927592593
  9
$USRTIMER
 70
     1
  9
$ANGBASE
 50
0.0
  9
$ANGDIR
 70
     0
  9
$PDMODE
 70
     0
  9
$PDSIZE
 40
0.3125
  9
$PLINEWID
 40
0.0
  9
$COORDS
 70
     1
  9
$SPLFRAME
 70
     0
  9
$SPLINETYPE
 70
     6
  9
$SPLINESEGS
 70
     8
  9
$ATTDIA
 70
     1
  9
$ATTREQ
 70
     1
  9
$HANDLING
 70
     1
  9
$HANDSEED
  5
15C3
  9
$SURFTAB1
 70
     6
  9
$SURFTAB2
 70
     6
  9
$SURFTYPE
 70
     6
  9
$SURFU
 70
     6
  9
$SURFV
 70
     6
  9
$UCSNAME
  2

  9
$UCSORG
 10
0.0
 20
0.0
 30
0.0
  9
$UCSXDIR
 10
1.0
 20
0.0
 30
0.0
  9
$UCSYDIR
 10
0.0
 20
1.0
 30
0.0
  9
$PUCSNAME
  2

  9
$PUCSORG
 10
0.0
 20
0.0
 30
0.0
  9
$PUCSXDIR
 10
1.0
 20
0.0
 30
0.0
  9
$PUCSYDIR
 10
0.0
 20
1.0
 30
0.0
  9
$USERI1
 70
     0
  9
$USERI2
 70
     0
  9
$USERI3
 70
     0
  9
$USERI4
 70
     0
  9
$USERI5
 70
     0
  9
$USERR1
 40
0.0
  9
$USERR2
 40
0.0
  9
$USERR3
 40
0.0
  9
$USERR4
 40
0.0
  9
$USERR5
 40
0.0
  9
$WORLDVIEW
 70
     1
  9
$SHADEDGE
 70
     3
  9
$SHADEDIF
 70
    70
  9
$TILEMODE
 70
     1
  9
$MAXACTVP
 70
    64
  9
$PLIMCHECK
 70
     0
  9
$PEXTMIN
 10
1.0000000000000000E+020
 20
1.0000000000000000E+020
 30
1.0000000000000000E+020
  9
$PEXTMAX
 10
-1.0000000000000000E+020
 20
-1.0000000000000000E+020
 30
-1.0000000000000000E+020
  9
$PLIMMIN
 10
0.0
 20
0.0
  9
$PLIMMAX
 10
12.0
 20
9.0
  9
$UNITMODE
 70
     0
  9
$VISRETAIN
 70
     1
  9
$PLINEGEN
 70
     0
  9
$PSLTSCALE
 70
     1
  0
ENDSEC
  0
SECTION
  2
TABLES
  0
TABLE
  2
VPORT
 70
     1
  0
VPORT
  2
*ACTIVE
 70
     0
 10
0.0
 20
0.0
 11
1.0
 21
1.0
 12
-10.734375530266551
 22
-7.409841560948613
 13
0.0
 23
0.0
 14
1.0
 24
1.0
 15
0.0
 25
0.0
 16
-0.000000000000032
 26
0.0
 36
151.34066030956109
 17
19.873389155950001
 27
14.190114556399999
 37
0.0
 40
10.219837030124671
 41
2.0329087048832268
 42
50.0
 43
0.0
 44
0.0
 50
0.0
 51
0.0
 71
     0
 72
   100
 73
     1
 74
     1
 75
     0
 76
     0
 77
     0
 78
     0
  0
ENDTAB
  0
TABLE
  2
LTYPE
 70
     2
  0
LTYPE
  2
CONTINUOUS
 70
     0
  3
Solid line
 72
    65
 73
     0
 40
0.0
  0
LTYPE
  2
PHANTOM2
 70
     0
  3
___ _ _ ___ _ _ ___ _ _ ___ _ _
 72
    65
 73
     6
 40
1.25
 49
0.625
 49
-0.125
 49
0.125
 49
-0.125
 49
0.125
 49
-0.125
  0
ENDTAB
  0
TABLE
  2
LAYER
 70
     2
  0
LAYER
  2
0
 70
     0
 62
     7
  6
CONTINUOUS
  0
LAYER
  2
DEFPOINTS
 70
     0
 62
     7
  6
CONTINUOUS
  0
ENDTAB
  0
TABLE
  2
STYLE
 70
     1
  0
STYLE
  2
STANDARD
 70
     0
 40
0.0
 41
0.8
 50
0.0
 71
     0
 42
0.2
  3
txt
  4

  0
ENDTAB
  0
TABLE
  2
VIEW
 70
     0
  0
ENDTAB
  0
TABLE
  2
UCS
 70
     0
  0
ENDTAB
  0
TABLE
  2
APPID
 70
     6
  0
APPID
  2
ACAD
 70
     0
  0
APPID
  2
ACAD_EXEMPT_FROM_CAD_STANDARDS
 70
     0
  0
APPID
  2
ACAD_NAV_VCDISPLAY
 70
     0
  0
APPID
  2
ACAD_DSTYLE_DIMRADIAL_EXTENSION
 70
     0
  0
APPID
  2
ACAD_MLEADERVER
 70
     0
  0
APPID
  2
AcDbAttr
 70
     0
  0
ENDTAB
  0
TABLE
  2
DIMSTYLE
 70
     2
  0
DIMSTYLE
  2
STANDARD
 70
     0
  3

  4

  5

  6

  7

 40
1.0
 41
0.1875
 42
0.0625
 43
0.38
 44
0.125
 45
0.0
 46
0.0
 47
0.01
 48
0.01
140
0.15625
141
0.09
142
0.0
143
25.399999999999999
144
1.0
145
0.0
146
1.0
147
0.09
 71
     1
 72
     0
 73
     1
 74
     1
 75
     0
 76
     0
 77
     0
 78
     4
170
     0
171
     2
172
     0
173
     0
174
     0
175
     0
176
     0
177
     0
178
     0
  0
ENDTAB
  0
ENDSEC
  0
SECTION
  2
BLOCKS
  0
BLOCK
  8
0
  2
$MODEL_SPACE
 70
     0
 10
0.0
 20
0.0
 30
0.0
  3
$MODEL_SPACE
  1

  0
ENDBLK
  5
21
  8
0
  0
BLOCK
 67
     1
  8
0
  2
$PAPER_SPACE
 70
     0
 10
0.0
 20
0.0
 30
0.0
  3
$PAPER_SPACE
  1

  0
ENDBLK
  5
1D
 67
     1
  8
0
  0
ENDSEC
  0
SECTION
  2
ENTITIES
  0
LINE
  5
231
  8
0
 10
1.427798144999999
 20
11.4006665178
 30
0.0
 11
1.3888456247000001
 21
11.845895862300001
 31
0.0
  0
LINE
  5
234
  8
0
 10
2.6926340388000001
 20
10.0328118733
 30
0.0
 11
3.0739191900578811
 21
2.7574577855889228
 31
0.0
  0
LINE
  5
321
  8
0
 10
12.1450349187
 20
1.8177104261999999
 30
0.0
 11
13.2735521201
 21
1.8571191152999991
 31
0.0
  0
LINE
  5
32D
  8
0
 10
14.240099127900001
 20
1.7058958622999989
 30
0.0
 11
13.440046627299999
 21
1.7058958622999989
 31
0.0
  0
LINE
  5
32E
  8
0
 10
4.8375962176999989
 20
1.7058958622999989
 30
0.0
 11
4.0250435799155238
 21
1.7065866290918821
 31
0.0
  0
LINE
  5
32F
  8
0
 10
6.6898703864999991
 20
1.7058958622999989
 30
0.0
 11
11.5877724585
 21
1.7058958622999989
 31
0.0
  0
LINE
  5
33B
  8
0
 10
6.1326079262999986
 20
1.8177104261999999
 30
0.0
 11
5.0040940824999991
 21
1.8571189979999989
 31
0.0
  0
LINE
  5
4B4
  8
0
 10
15.20372365515866
 20
2.7574577840641701
 30
0.0
 11
15.585008806199999
 21
10.0328118733
 31
0.0
  0
LINE
  5
4C5
  8
0
 10
16.888797220299999
 20
11.845895862300001
 30
0.0
 11
16.849844699999998
 21
11.4006665178
 31
0.0
  0
LINE
  5
4C9
  8
0
 10
1.4875698268999991
 20
11.345895862300001
 30
0.0
 11
16.790073018099999
 21
11.345895862300001
 31
0.0
  0
LINE
  5
4CB
  8
0
 10
16.888797220299999
 20
11.845895862300001
 30
0.0
 11
1.3888456247000001
 21
11.845895862300001
 31
0.0
  0
ARC
  5
9A5
  8
0
 10
6.0715338069999998
 20
0.0687764789
 30
0.0
 40
1.75
 50
69.308553659699996
 51
88.0
  0
ARC
  5
9D3
  8
0
 10
-0.6416681848
 20
9.8579340213000002
 30
0.0
 40
3.3388871125999988
 50
3.0023044826999992
 51
4.086905753099999
  0
ARC
  5
9E8
  8
0
 10
1.4875698268999991
 20
11.4058958623
 30
0.0
 40
0.06
 50
184.9999999998
 51
270.00000000189999
  0
ARC
  5
A02
  8
0
 10
12.206109037999999
 20
0.0687764789
 30
0.0
 40
1.75
 50
92.0
 51
110.6914463403
  0
ARC
  5
A17
  8
0
 10
18.919311032
 20
9.8579340210000002
 30
0.0
 40
3.3388871147999999
 50
175.91309550369999
 51
176.99769551439999
  0
ARC
  5
A32
  8
0
 10
16.790073018099999
 20
11.4058958623
 30
0.0
 40
0.06
 50
270.0
 51
355.0
  0
ARC
  5
133C
  8
0
 10
2.1354031989587501
 20
11.1577348599962
 30
0.0
 40
0.1881610081066951
 50
33.515323085289268
 51
89.98577031494942
  0
ARC
  5
133D
  8
0
 10
0.2739092363775454
 20
9.9254282547561452
 30
0.0
 40
2.4205900278631951
 50
4.0402796530113161
 51
33.505348561993742
  0
ARC
  5
133E
  8
0
 10
16.123787435624521
 20
11.19206572020223
 30
0.0
 40
0.1549282914279003
 50
83.174084070277047
 51
153.3150380326185
  0
ARC
  5
133F
  8
0
 10
18.00373394505851
 20
9.9254435039350017
 30
0.0
 40
2.4205900278631951
 50
146.4947499966332
 51
175.95981890561561
  0
ARC
  5
1345
  8
0
 10
3.9180533721587749
 20
2.7398364826674202
 30
0.0
 40
0.8443180844372555
 50
178.80412416277761
 51
265.7360484184228
  0
ARC
  5
1346
  8
0
 10
14.359568528393989
 20
2.7398443998148432
 30
0.0
 40
0.8443388593140724
 50
274.30203410158771
 51
1.1953089403349531
  0
ARC
  5
1348
  8
0
 10
3.63082773915934
 20
1.6871788595431181
 30
0.0
 40
0.3078346303526606
 50
19.253146736141868
 51
43.187034078138659
  0
ARC
  5
1349
  8
0
 10
4.0378121922596577
 20
1.8291123499858171
 30
0.0
 40
0.1231892436061965
 50
199.16119828086079
 51
264.05058507455652
  0
ARC
  5
134A
  8
0
 10
5.1759008848261443
 20
1.689917059019781
 30
0.0
 40
0.2397374933636363
 50
135.77821890093401
 51
156.8231885360232
  0
ARC
  5
134B
  8
0
 10
4.8374811700842564
 20
1.833958477212875
 30
0.0
 40
0.1280626665905309
 50
270.05147279755528
 51
337.1700619596009
  0
ARC
  5
134C
  8
0
 10
14.632996667800249
 20
1.6945674581091981
 30
0.0
 40
0.2923627160580909
 50
135.93871798617721
 51
161.22088693602109
  0
ARC
  5
134D
  8
0
 10
14.239788922831019
 20
1.829129309895799
 30
0.0
 40
0.1232338064031019
 50
270.13826219340569
 51
340.8381874491634
  0
ARC
  5
134E
  8
0
 10
13.10131092593433
 20
1.6896378110760011
 30
0.0
 40
0.2402436601228986
 50
23.197576416565369
 51
44.197274948105182
  0
ARC
  5
134F
  8
0
 10
13.44022997578656
 20
1.83405838613549
 30
0.0
 40
0.1281626549840082
 50
202.86474774370259
 51
269.9180330803477
  0
ATTDEF
  5
1493
  8
DEFPOINTS
 10
9.1388214261626324
 20
11.848326307486211
 30
0.0
 40
0.001
  1
PREMIUM MATERIALS
  3

  2
MATERIAL
 70
     0
1001
AcDbAttr
1070
     0
1070
     1
  0
ATTDEF
  5
1494
  8
DEFPOINTS
 10
9.1388214261626324
 20
11.849992974152871
 30
0.0
 40
0.001
  1
BAR SINK
  3

  2
PRODUCT
 70
     0
1001
AcDbAttr
1070
     0
1070
     1
  0
ATTDEF
  5
1495
  8
DEFPOINTS
 10
9.1388214261626324
 20
11.851659640819539
 30
0.0
 40
0.001
  1
CAIRN
  3

  2
TRADENAME
 70
     0
1001
AcDbAttr
1070
     0
1070
     1
  0
ATTDEF
  5
1496
  8
DEFPOINTS
 10
9.1388214261626324
 20
11.853326307486199
 30
0.0
 40
0.001
  1
K-8223
  3

  2
MODELNUMBER
 70
     0
1001
AcDbAttr
1070
     0
1070
     1
  0
ENDSEC
  0
EOF
