  0
SECTION
  2
HEADER
  9
$ACADVER
  1
AC1009
  9
$INSBASE
 10
9.1388214224999995
 20
25.5726589619
 30
0.0
  9
$EXTMIN
 10
1.3887600831860349
 20
17.82195970157326
 30
-0.0000000349181948
  9
$EXTMAX
 10
16.889879038563041
 20
33.323627065684953
 30
0.0000000814935746
  9
$LIMMIN
 10
0.0
 20
0.0
  9
$LIMMAX
 10
11.692913385800001
 20
8.2677165353999982
  9
$ORTHOMODE
 70
     0
  9
$REGENMODE
 70
     1
  9
$FILLMODE
 70
     1
  9
$QTEXTMODE
 70
     0
  9
$MIRRTEXT
 70
     0
  9
$DRAGMODE
 70
     2
  9
$LTSCALE
 40
0.6431102362
  9
$OSMODE
 70
    39
  9
$ATTMODE
 70
     1
  9
$TEXTSIZE
 40
0.2
  9
$TRACEWID
 40
0.05
  9
$TEXTSTYLE
  7
STANDARD
  9
$CLAYER
  8
0
  9
$CELTYPE
  6
BYLAYER
  9
$CECOLOR
 62
   256
  9
$DIMSCALE
 40
1.0
  9
$DIMASZ
 40
0.1875
  9
$DIMEXO
 40
0.0625
  9
$DIMDLI
 40
0.4443307087
  9
$DIMRND
 40
0.0
  9
$DIMDLE
 40
0.0
  9
$DIMEXE
 40
0.125
  9
$DIMTP
 40
0.01
  9
$DIMTM
 40
0.01
  9
$DIMTXT
 40
0.15625
  9
$DIMCEN
 40
0.1052362205
  9
$DIMTSZ
 40
0.0
  9
$DIMTOL
 70
     1
  9
$DIMLIM
 70
     0
  9
$DIMTIH
 70
     1
  9
$DIMTOH
 70
     1
  9
$DIMSE1
 70
     0
  9
$DIMSE2
 70
     0
  9
$DIMTAD
 70
     0
  9
$DIMZIN
 70
     0
  9
$DIMBLK
  1

  9
$DIMASO
 70
     1
  9
$DIMSHO
 70
     1
  9
$DIMPOST
  1

  9
$DIMAPOST
  1

  9
$DIMALT
 70
     0
  9
$DIMALTD
 70
     2
  9
$DIMALTF
 40
25.399999999999999
  9
$DIMLFAC
 40
1.0
  9
$DIMTOFL
 70
     0
  9
$DIMTVP
 40
0.0
  9
$DIMTIX
 70
     0
  9
$DIMSOXD
 70
     0
  9
$DIMSAH
 70
     0
  9
$DIMBLK1
  1

  9
$DIMBLK2
  1

  9
$DIMSTYLE
  2
STANDARD
  9
$DIMCLRD
 70
     0
  9
$DIMCLRE
 70
     0
  9
$DIMCLRT
 70
     0
  9
$DIMTFAC
 40
1.0
  9
$DIMGAP
 40
0.09
  9
$LUNITS
 70
     2
  9
$LUPREC
 70
     4
  9
$SKETCHINC
 40
0.1
  9
$FILLETRAD
 40
0.0
  9
$AUNITS
 70
     0
  9
$AUPREC
 70
     0
  9
$MENU
  1
.
  9
$ELEVATION
 40
0.0
  9
$PELEVATION
 40
0.0
  9
$THICKNESS
 40
0.0
  9
$LIMCHECK
 70
     0
  9
$BLIPMODE
 70
     0
  9
$CHAMFERA
 40
0.0
  9
$CHAMFERB
 40
0.0
  9
$SKPOLY
 70
     0
  9
$TDCREATE
 40
2457966.6232523848
  9
$TDUPDATE
 40
2457966.7633622801
  9
$TDINDWG
 40
0.0962303356
  9
$TDUSRTIMER
 40
0.0962303356
  9
$USRTIMER
 70
     1
  9
$ANGBASE
 50
0.0
  9
$ANGDIR
 70
     0
  9
$PDMODE
 70
     0
  9
$PDSIZE
 40
0.3125
  9
$PLINEWID
 40
0.0
  9
$COORDS
 70
     1
  9
$SPLFRAME
 70
     0
  9
$SPLINETYPE
 70
     6
  9
$SPLINESEGS
 70
     8
  9
$ATTDIA
 70
     1
  9
$ATTREQ
 70
     1
  9
$HANDLING
 70
     1
  9
$HANDSEED
  5
173F
  9
$SURFTAB1
 70
     6
  9
$SURFTAB2
 70
     6
  9
$SURFTYPE
 70
     6
  9
$SURFU
 70
     6
  9
$SURFV
 70
     6
  9
$UCSNAME
  2

  9
$UCSORG
 10
0.0
 20
0.0
 30
0.0
  9
$UCSXDIR
 10
1.0
 20
0.0
 30
0.0
  9
$UCSYDIR
 10
0.0
 20
1.0
 30
0.0
  9
$PUCSNAME
  2

  9
$PUCSORG
 10
0.0
 20
0.0
 30
0.0
  9
$PUCSXDIR
 10
1.0
 20
0.0
 30
0.0
  9
$PUCSYDIR
 10
0.0
 20
1.0
 30
0.0
  9
$USERI1
 70
     0
  9
$USERI2
 70
     0
  9
$USERI3
 70
     0
  9
$USERI4
 70
     0
  9
$USERI5
 70
     0
  9
$USERR1
 40
0.0
  9
$USERR2
 40
0.0
  9
$USERR3
 40
0.0
  9
$USERR4
 40
0.0
  9
$USERR5
 40
0.0
  9
$WORLDVIEW
 70
     1
  9
$SHADEDGE
 70
     3
  9
$SHADEDIF
 70
    70
  9
$TILEMODE
 70
     1
  9
$MAXACTVP
 70
    64
  9
$PLIMCHECK
 70
     0
  9
$PEXTMIN
 10
1.0000000000000000E+020
 20
1.0000000000000000E+020
 30
1.0000000000000000E+020
  9
$PEXTMAX
 10
-1.0000000000000000E+020
 20
-1.0000000000000000E+020
 30
-1.0000000000000000E+020
  9
$PLIMMIN
 10
0.0
 20
0.0
  9
$PLIMMAX
 10
12.0
 20
9.0
  9
$UNITMODE
 70
     0
  9
$VISRETAIN
 70
     1
  9
$PLINEGEN
 70
     0
  9
$PSLTSCALE
 70
     1
  0
ENDSEC
  0
SECTION
  2
TABLES
  0
TABLE
  2
VPORT
 70
     1
  0
VPORT
  2
*ACTIVE
 70
     0
 10
0.0
 20
0.0
 11
1.0
 21
1.0
 12
-10.734069595075461
 22
11.3826788272291
 13
0.0
 23
0.0
 14
1.0
 24
1.0
 15
0.0
 25
0.0
 16
-0.000000000000032
 26
0.0
 36
151.34066030956109
 17
19.873389155950001
 27
14.190114556399999
 37
0.0
 40
15.610572963751039
 41
2.0329087048832268
 42
50.0
 43
0.0
 44
0.0
 50
0.0
 51
0.0
 71
     0
 72
   100
 73
     1
 74
     1
 75
     0
 76
     0
 77
     0
 78
     0
  0
ENDTAB
  0
TABLE
  2
LTYPE
 70
     2
  0
LTYPE
  2
CONTINUOUS
 70
     0
  3
Solid line
 72
    65
 73
     0
 40
0.0
  0
LTYPE
  2
PHANTOM2
 70
     0
  3
___ _ _ ___ _ _ ___ _ _ ___ _ _
 72
    65
 73
     6
 40
1.25
 49
0.625
 49
-0.125
 49
0.125
 49
-0.125
 49
0.125
 49
-0.125
  0
ENDTAB
  0
TABLE
  2
LAYER
 70
     2
  0
LAYER
  2
0
 70
     0
 62
     7
  6
CONTINUOUS
  0
LAYER
  2
DEFPOINTS
 70
     0
 62
     7
  6
CONTINUOUS
  0
ENDTAB
  0
TABLE
  2
STYLE
 70
     1
  0
STYLE
  2
STANDARD
 70
     0
 40
0.0
 41
0.8
 50
0.0
 71
     0
 42
0.2
  3
txt
  4

  0
ENDTAB
  0
TABLE
  2
VIEW
 70
     0
  0
ENDTAB
  0
TABLE
  2
UCS
 70
     0
  0
ENDTAB
  0
TABLE
  2
APPID
 70
     6
  0
APPID
  2
ACAD
 70
     0
  0
APPID
  2
ACAD_EXEMPT_FROM_CAD_STANDARDS
 70
     0
  0
APPID
  2
ACAD_NAV_VCDISPLAY
 70
     0
  0
APPID
  2
ACAD_DSTYLE_DIMRADIAL_EXTENSION
 70
     0
  0
APPID
  2
ACAD_MLEADERVER
 70
     0
  0
APPID
  2
ACDBATTR
 70
     0
  0
ENDTAB
  0
TABLE
  2
DIMSTYLE
 70
     2
  0
DIMSTYLE
  2
STANDARD
 70
     0
  3

  4

  5

  6

  7

 40
1.0
 41
0.1875
 42
0.0625
 43
0.38
 44
0.125
 45
0.0
 46
0.0
 47
0.01
 48
0.01
140
0.15625
141
0.09
142
0.0
143
25.399999999999999
144
1.0
145
0.0
146
1.0
147
0.09
 71
     1
 72
     0
 73
     1
 74
     1
 75
     0
 76
     0
 77
     0
 78
     4
170
     0
171
     2
172
     0
173
     0
174
     0
175
     0
176
     0
177
     0
178
     0
  0
ENDTAB
  0
ENDSEC
  0
SECTION
  2
BLOCKS
  0
BLOCK
  8
0
  2
$MODEL_SPACE
 70
     0
 10
0.0
 20
0.0
 30
0.0
  3
$MODEL_SPACE
  1

  0
ENDBLK
  5
21
  8
0
  0
BLOCK
 67
     1
  8
0
  2
$PAPER_SPACE
 70
     0
 10
0.0
 20
0.0
 30
0.0
  3
$PAPER_SPACE
  1

  0
ENDBLK
  5
1D
 67
     1
  8
0
  0
BLOCK
  8
0
 62
     3
  2
A$C4A701039
 70
     2
 10
0.0
 20
0.0
 30
0.0
  3
A$C4A701039
  1

  0
ATTDEF
  5
14D9
  8
DEFPOINTS
 10
-0.0000001088057147
 20
0.0049999582388285
 30
0.0
 40
0.001
  1
K-8223
  3

  2
MODELNUMBER
 70
     0
1001
ACDBATTR
1070
     0
1070
     1
  0
ATTDEF
  5
14DA
  8
DEFPOINTS
 10
-0.0000001088057147
 20
0.0033332915721633
 30
0.0
 40
0.001
  1
CAIRN
  3

  2
TRADENAME
 70
     0
1001
ACDBATTR
1070
     0
1070
     1
  0
ATTDEF
  5
14DB
  8
DEFPOINTS
 10
-0.0000001088057147
 20
0.0016666249054982
 30
0.0
 40
0.001
  1
BAR SINK
  3

  2
PRODUCT
 70
     0
1001
ACDBATTR
1070
     0
1070
     1
  0
ATTDEF
  5
14DC
  8
DEFPOINTS
 10
-0.0000001088057147
 20
-0.000000041761167
 30
0.0
 40
0.001
  1
PREMIUM MATERIALS
  3

  2
MATERIAL
 70
     0
1001
ACDBATTR
1070
     0
1070
     1
  0
ENDBLK
  5
14DE
  8
0
 62
     3
  0
ENDSEC
  0
SECTION
  2
ENTITIES
  0
LINE
  5
4CD
  8
0
 10
1.3888456247000001
 20
20.376128961900001
 30
0.0
 11
1.3888456247000001
 21
30.769188961800001
 31
0.0
  0
LINE
  5
4CE
  8
0
 10
14.3353514225
 20
17.822683164099999
 30
0.0
 11
3.942291422499999
 21
17.822683164099999
 31
0.0
  0
LINE
  5
4CF
  8
0
 10
2.1832654109999989
 20
20.3761763919
 30
0.0
 11
2.1832654109999989
 21
30.769139343599999
 31
0.0
  0
LINE
  5
4D3
  8
0
 10
14.3355827073
 20
18.616686286
 30
0.0
 11
3.9420601377
 21
18.616686286
 31
0.0
  0
LINE
  5
70D
  8
0
 10
16.094377433999998
 20
30.769141428400001
 30
0.0
 11
16.094377433999998
 21
20.376178684500001
 31
0.0
  0
LINE
  5
70F
  8
0
 10
3.9420601377
 20
32.528631637800011
 30
0.0
 11
14.3355827073
 21
32.528631637800011
 31
0.0
  0
LINE
  5
711
  8
0
 10
16.888797220299999
 20
30.769188961899999
 30
0.0
 11
16.888797220299999
 21
20.376128961900001
 31
0.0
  0
LINE
  5
712
  8
0
 10
3.942291422599999
 20
33.322634759700001
 30
0.0
 11
14.3353514225
 21
33.322634759700001
 31
0.0
  0
ARC
  5
A3B
  8
0
 10
3.942291422499999
 20
20.376128961900001
 30
0.0
 40
2.5534457977999989
 50
179.99999999900001
 51
270.0
  0
ARC
  5
AB9
  8
0
 10
3.942291422499999
 20
30.769188961899999
 30
0.0
 40
2.5534457977999989
 50
89.999999998999996
 51
180.00000000099999
  0
ARC
  5
B23
  8
0
 10
9.1388206105999998
 20
25.572660236600001
 30
0.0
 40
2.1874981929000001
 50
359.99996661159997
 51
180.00003338830001
  0
ARC
  5
C48
  8
0
 10
9.1388222343999992
 20
25.572657687100001
 30
0.0
 40
2.1874981929000001
 50
179.9999666116
 51
0.0000333883
  0
ARC
  5
CCE
  8
0
 10
14.3353514225
 20
20.376128961900001
 30
0.0
 40
2.5534457977999989
 50
270.0
 51
360.0
  0
ARC
  5
D5E
  8
0
 10
14.3353514225
 20
30.769188961899999
 30
0.0
 40
2.5534457977999989
 50
0.0
 51
90.000000001000004
  0
ARC
  5
1355
  8
0
 10
3.9419657956966541
 20
30.76948706736054
 30
0.0
 40
1.7587004190719839
 50
89.996925194450526
 51
180.01132831028451
  0
ARC
  5
1356
  8
0
 10
14.335658444750161
 20
30.769491059755701
 30
0.0
 40
1.758696415576803
 50
359.99769192518391
 51
90.002468699920087
  0
ARC
  5
1357
  8
0
 10
3.9419843829368362
 20
20.375826836431671
 30
0.0
 40
1.758696398264916
 50
179.99769102883951
 51
270.00246926723469
  0
ARC
  5
1358
  8
0
 10
14.33567703180033
 20
20.375830884058601
 30
0.0
 40
1.758700436590162
 50
269.99692576796048
 51
0.0113308083177352
  0
CIRCLE
  5
135E
  8
0
 10
9.1325204361000001
 20
25.567234948900001
 30
0.0
 40
1.9699999999999991
  0
CIRCLE
  5
1412
  8
0
 10
9.1371303926568928
 20
25.56612282917504
 30
0.0
 40
0.3
  0
CIRCLE
  5
1415
  8
0
 10
9.1371303926568928
 20
25.56612282917504
 30
0.0
 40
0.27
  0
ATTDEF
  5
14E5
  8
DEFPOINTS
 10
9.13016719938887
 20
25.578966526540359
 30
0.0
 40
0.001
  1
K-8223
  3

  2
MODELNUMBER
 70
     0
1001
ACDBATTR
1070
     0
1070
     1
  0
ATTDEF
  5
14E6
  8
DEFPOINTS
 10
9.13016719938887
 20
25.57729985987369
 30
0.0
 40
0.001
  1
CAIRN
  3

  2
TRADENAME
 70
     0
1001
ACDBATTR
1070
     0
1070
     1
  0
ATTDEF
  5
14E7
  8
DEFPOINTS
 10
9.13016719938887
 20
25.575633193207029
 30
0.0
 40
0.001
  1
BAR SINK
  3

  2
PRODUCT
 70
     0
1001
ACDBATTR
1070
     0
1070
     1
  0
ATTDEF
  5
14E8
  8
DEFPOINTS
 10
9.13016719938887
 20
25.57396652654036
 30
0.0
 40
0.001
  1
PREMIUM MATERIALS
  3

  2
MATERIAL
 70
     0
1001
ACDBATTR
1070
     0
1070
     1
  0
ENDSEC
  0
EOF
