  0
SECTION
  2
HEADER
  9
$ACADVER
  1
AC1009
  9
$INSBASE
 10
32.826206716420103
 20
11.96033989906376
 30
0.0
  9
$EXTMIN
 10
25.074835197925669
 20
1.8198324873753751
 30
-0.0000000349181948
  9
$EXTMAX
 10
40.578659314605609
 20
11.970197802620239
 30
0.0000000814935746
  9
$LIMMIN
 10
0.0
 20
0.0
  9
$LIMMAX
 10
11.692913385800001
 20
8.2677165353999982
  9
$ORTHOMODE
 70
     0
  9
$REGENMODE
 70
     1
  9
$FILLMODE
 70
     1
  9
$QTEXTMODE
 70
     0
  9
$MIRRTEXT
 70
     0
  9
$DRAGMODE
 70
     2
  9
$LTSCALE
 40
0.6431102362
  9
$OSMODE
 70
    39
  9
$ATTMODE
 70
     1
  9
$TEXTSIZE
 40
0.2
  9
$TRACEWID
 40
0.05
  9
$TEXTSTYLE
  7
STANDARD
  9
$CLAYER
  8
0
  9
$CELTYPE
  6
BYLAYER
  9
$CECOLOR
 62
     3
  9
$DIMSCALE
 40
1.0
  9
$DIMASZ
 40
0.1875
  9
$DIMEXO
 40
0.0625
  9
$DIMDLI
 40
0.4443307087
  9
$DIMRND
 40
0.0
  9
$DIMDLE
 40
0.0
  9
$DIMEXE
 40
0.125
  9
$DIMTP
 40
0.01
  9
$DIMTM
 40
0.01
  9
$DIMTXT
 40
0.15625
  9
$DIMCEN
 40
0.1052362205
  9
$DIMTSZ
 40
0.0
  9
$DIMTOL
 70
     1
  9
$DIMLIM
 70
     0
  9
$DIMTIH
 70
     1
  9
$DIMTOH
 70
     1
  9
$DIMSE1
 70
     0
  9
$DIMSE2
 70
     0
  9
$DIMTAD
 70
     0
  9
$DIMZIN
 70
     0
  9
$DIMBLK
  1

  9
$DIMASO
 70
     1
  9
$DIMSHO
 70
     1
  9
$DIMPOST
  1

  9
$DIMAPOST
  1

  9
$DIMALT
 70
     0
  9
$DIMALTD
 70
     2
  9
$DIMALTF
 40
25.399999999999999
  9
$DIMLFAC
 40
1.0
  9
$DIMTOFL
 70
     0
  9
$DIMTVP
 40
0.0
  9
$DIMTIX
 70
     0
  9
$DIMSOXD
 70
     0
  9
$DIMSAH
 70
     0
  9
$DIMBLK1
  1

  9
$DIMBLK2
  1

  9
$DIMSTYLE
  2
STANDARD
  9
$DIMCLRD
 70
     0
  9
$DIMCLRE
 70
     0
  9
$DIMCLRT
 70
     0
  9
$DIMTFAC
 40
1.0
  9
$DIMGAP
 40
0.09
  9
$LUNITS
 70
     2
  9
$LUPREC
 70
     4
  9
$SKETCHINC
 40
0.1
  9
$FILLETRAD
 40
0.0
  9
$AUNITS
 70
     0
  9
$AUPREC
 70
     0
  9
$MENU
  1
.
  9
$ELEVATION
 40
0.0
  9
$PELEVATION
 40
0.0
  9
$THICKNESS
 40
0.0
  9
$LIMCHECK
 70
     0
  9
$BLIPMODE
 70
     0
  9
$CHAMFERA
 40
0.0
  9
$CHAMFERB
 40
0.0
  9
$SKPOLY
 70
     0
  9
$TDCREATE
 40
2457966.6232523848
  9
$TDUPDATE
 40
2457966.7330758451
  9
$TDINDWG
 40
0.0908519329
  9
$TDUSRTIMER
 40
0.0908519329
  9
$USRTIMER
 70
     1
  9
$ANGBASE
 50
0.0
  9
$ANGDIR
 70
     0
  9
$PDMODE
 70
     0
  9
$PDSIZE
 40
0.3125
  9
$PLINEWID
 40
0.0
  9
$COORDS
 70
     1
  9
$SPLFRAME
 70
     0
  9
$SPLINETYPE
 70
     6
  9
$SPLINESEGS
 70
     8
  9
$ATTDIA
 70
     1
  9
$ATTREQ
 70
     1
  9
$HANDLING
 70
     1
  9
$HANDSEED
  5
1590
  9
$SURFTAB1
 70
     6
  9
$SURFTAB2
 70
     6
  9
$SURFTYPE
 70
     6
  9
$SURFU
 70
     6
  9
$SURFV
 70
     6
  9
$UCSNAME
  2

  9
$UCSORG
 10
0.0
 20
0.0
 30
0.0
  9
$UCSXDIR
 10
1.0
 20
0.0
 30
0.0
  9
$UCSYDIR
 10
0.0
 20
1.0
 30
0.0
  9
$PUCSNAME
  2

  9
$PUCSORG
 10
0.0
 20
0.0
 30
0.0
  9
$PUCSXDIR
 10
1.0
 20
0.0
 30
0.0
  9
$PUCSYDIR
 10
0.0
 20
1.0
 30
0.0
  9
$USERI1
 70
     0
  9
$USERI2
 70
     0
  9
$USERI3
 70
     0
  9
$USERI4
 70
     0
  9
$USERI5
 70
     0
  9
$USERR1
 40
0.0
  9
$USERR2
 40
0.0
  9
$USERR3
 40
0.0
  9
$USERR4
 40
0.0
  9
$USERR5
 40
0.0
  9
$WORLDVIEW
 70
     1
  9
$SHADEDGE
 70
     3
  9
$SHADEDIF
 70
    70
  9
$TILEMODE
 70
     1
  9
$MAXACTVP
 70
    64
  9
$PLIMCHECK
 70
     0
  9
$PEXTMIN
 10
1.0000000000000000E+020
 20
1.0000000000000000E+020
 30
1.0000000000000000E+020
  9
$PEXTMAX
 10
-1.0000000000000000E+020
 20
-1.0000000000000000E+020
 30
-1.0000000000000000E+020
  9
$PLIMMIN
 10
0.0
 20
0.0
  9
$PLIMMAX
 10
12.0
 20
9.0
  9
$UNITMODE
 70
     0
  9
$VISRETAIN
 70
     1
  9
$PLINEGEN
 70
     0
  9
$PSLTSCALE
 70
     1
  0
ENDSEC
  0
SECTION
  2
TABLES
  0
TABLE
  2
VPORT
 70
     1
  0
VPORT
  2
*ACTIVE
 70
     0
 10
0.0
 20
0.0
 11
1.0
 21
1.0
 12
12.95335810031564
 22
-7.2950994114021919
 13
0.0
 23
0.0
 14
1.0
 24
1.0
 15
0.0
 25
0.0
 16
-0.000000000000032
 26
0.0
 36
151.34066030956109
 17
19.873389155950001
 27
14.190114556399999
 37
0.0
 40
10.214948763698169
 41
2.0329087048832268
 42
50.0
 43
0.0
 44
0.0
 50
0.0
 51
0.0
 71
     0
 72
   100
 73
     1
 74
     1
 75
     0
 76
     0
 77
     0
 78
     0
  0
ENDTAB
  0
TABLE
  2
LTYPE
 70
     2
  0
LTYPE
  2
CONTINUOUS
 70
     0
  3
Solid line
 72
    65
 73
     0
 40
0.0
  0
LTYPE
  2
PHANTOM2
 70
     0
  3
___ _ _ ___ _ _ ___ _ _ ___ _ _
 72
    65
 73
     6
 40
1.25
 49
0.625
 49
-0.125
 49
0.125
 49
-0.125
 49
0.125
 49
-0.125
  0
ENDTAB
  0
TABLE
  2
LAYER
 70
     2
  0
LAYER
  2
0
 70
     0
 62
     7
  6
CONTINUOUS
  0
LAYER
  2
DEFPOINTS
 70
     0
 62
     7
  6
CONTINUOUS
  0
ENDTAB
  0
TABLE
  2
STYLE
 70
     1
  0
STYLE
  2
STANDARD
 70
     0
 40
0.0
 41
0.8
 50
0.0
 71
     0
 42
0.2
  3
txt
  4

  0
ENDTAB
  0
TABLE
  2
VIEW
 70
     0
  0
ENDTAB
  0
TABLE
  2
UCS
 70
     0
  0
ENDTAB
  0
TABLE
  2
APPID
 70
     6
  0
APPID
  2
ACAD
 70
     0
  0
APPID
  2
ACAD_EXEMPT_FROM_CAD_STANDARDS
 70
     0
  0
APPID
  2
ACAD_NAV_VCDISPLAY
 70
     0
  0
APPID
  2
ACAD_DSTYLE_DIMRADIAL_EXTENSION
 70
     0
  0
APPID
  2
ACAD_MLEADERVER
 70
     0
  0
APPID
  2
AcDbAttr
 70
     0
  0
ENDTAB
  0
TABLE
  2
DIMSTYLE
 70
     1
  0
DIMSTYLE
  2
STANDARD
 70
     0
  3

  4

  5

  6

  7

 40
1.0
 41
0.1875
 42
0.0625
 43
0.38
 44
0.125
 45
0.0
 46
0.0
 47
0.01
 48
0.01
140
0.15625
141
0.09
142
0.0
143
25.399999999999999
144
1.0
145
0.0
146
1.0
147
0.09
 71
     1
 72
     0
 73
     1
 74
     1
 75
     0
 76
     0
 77
     0
 78
     4
170
     0
171
     2
172
     0
173
     0
174
     0
175
     0
176
     0
177
     0
178
     0
  0
ENDTAB
  0
ENDSEC
  0
SECTION
  2
BLOCKS
  0
BLOCK
  8
0
  2
$MODEL_SPACE
 70
     0
 10
0.0
 20
0.0
 30
0.0
  3
$MODEL_SPACE
  1

  0
ENDBLK
  5
21
  8
0
  0
BLOCK
 67
     1
  8
0
  2
$PAPER_SPACE
 70
     0
 10
0.0
 20
0.0
 30
0.0
  3
$PAPER_SPACE
  1

  0
ENDBLK
  5
1D
 67
     1
  8
0
  0
ENDSEC
  0
SECTION
  2
ENTITIES
  0
LINE
  5
13DC
  8
0
 10
25.115183438920109
 20
11.51511055456375
 30
0.0
 11
25.076230918620102
 21
11.96033989906376
 31
0.0
  0
LINE
  5
13DD
  8
0
 10
26.380019332720099
 20
10.14725591006375
 30
0.0
 11
26.761304483977991
 21
2.87190182235268
 31
0.0
  0
LINE
  5
13DE
  8
0
 10
35.8324202126201
 20
1.932154462963757
 30
0.0
 11
36.960937414020101
 21
1.9715631520637571
 31
0.0
  0
LINE
  5
13DF
  8
0
 10
37.927484421820097
 20
1.8203398990637569
 30
0.0
 11
37.127431921220101
 21
1.8203398990637569
 31
0.0
  0
LINE
  5
13E0
  8
0
 10
28.524981511620101
 20
1.8203398990637569
 30
0.0
 11
27.712428873835631
 21
1.821030665855639
 31
0.0
  0
LINE
  5
13E1
  8
0
 10
30.377255680420099
 20
1.8203398990637569
 30
0.0
 11
35.2751577524201
 21
1.8203398990637569
 31
0.0
  0
LINE
  5
13E2
  8
0
 10
29.819993220220098
 20
1.932154462963757
 30
0.0
 11
28.691479376420101
 21
1.9715630347637569
 31
0.0
  0
LINE
  5
13E3
  8
0
 10
38.891108949078763
 20
2.8719018208279272
 30
0.0
 11
39.272394100120103
 21
10.14725591006375
 31
0.0
  0
LINE
  5
13E4
  8
0
 10
40.5761825142201
 20
11.96033989906376
 30
0.0
 11
40.5372299939201
 21
11.51511055456375
 31
0.0
  0
LINE
  5
13E5
  8
0
 10
25.174955120820101
 20
11.46033989906376
 30
0.0
 11
40.477458312020097
 21
11.46033989906376
 31
0.0
  0
LINE
  5
13E6
  8
0
 10
40.5761825142201
 20
11.96033989906376
 30
0.0
 11
25.076230918620102
 21
11.96033989906376
 31
0.0
  0
ARC
  5
13E7
  8
0
 10
29.75891910092011
 20
0.1832205156637572
 30
0.0
 40
1.75
 50
69.308553659700053
 51
88.000000000000014
  0
ARC
  5
13E8
  8
0
 10
23.045717109120101
 20
9.9723780580637573
 30
0.0
 40
3.3388871125999988
 50
3.0023044826999978
 51
4.086905753099999
  0
ARC
  5
13E9
  8
0
 10
25.174955120820101
 20
11.52033989906375
 30
0.0
 40
0.06
 50
184.9999999998
 51
270.00000000189999
  0
ARC
  5
13EA
  8
0
 10
35.89349433192011
 20
0.1832205156637572
 30
0.0
 40
1.75
 50
91.999999999999972
 51
110.6914463402999
  0
ARC
  5
13EB
  8
0
 10
42.60669632592009
 20
9.9723780577637573
 30
0.0
 40
3.3388871147999999
 50
175.91309550369999
 51
176.99769551439999
  0
ARC
  5
13EC
  8
0
 10
40.477458312020097
 20
11.52033989906375
 30
0.0
 40
0.06
 50
270.0
 51
355.0
  0
ARC
  5
13ED
  8
0
 10
25.82278849287885
 20
11.272178896759961
 30
0.0
 40
0.1881610081066951
 50
33.515323085289289
 51
89.985770314949349
  0
ARC
  5
13EE
  8
0
 10
23.961294530297639
 20
10.039872291519901
 30
0.0
 40
2.4205900278631951
 50
4.0402796530113232
 51
33.505348561993763
  0
ARC
  5
13EF
  8
0
 10
39.811172729544623
 20
11.30650975696599
 30
0.0
 40
0.1549282914279003
 50
83.174084070277047
 51
153.3150380326185
  0
ARC
  5
13F0
  8
0
 10
41.691119238978608
 20
10.039887540698761
 30
0.0
 40
2.4205900278631951
 50
146.4947499966332
 51
175.95981890561561
  0
ARC
  5
13F1
  8
0
 10
27.605438666078879
 20
2.8542805194311769
 30
0.0
 40
0.8443180844372527
 50
178.80412416277761
 51
265.73604841842291
  0
ARC
  5
13F2
  8
0
 10
38.046953822314102
 20
2.8542884365785999
 30
0.0
 40
0.8443388593140724
 50
274.30203410158771
 51
1.1953089403349539
  0
ARC
  5
13F3
  8
0
 10
27.318213033079441
 20
1.8016228963068761
 30
0.0
 40
0.3078346303526606
 50
19.253146736141868
 51
43.187034078138687
  0
ARC
  5
13F4
  8
0
 10
27.725197486179759
 20
1.943556386749574
 30
0.0
 40
0.1231892436061965
 50
199.16119828086079
 51
264.05058507455652
  0
ARC
  5
13F5
  8
0
 10
28.863286178746161
 20
1.8043610957835829
 30
0.0
 40
0.2397374933635392
 50
135.7782189009265
 51
156.82318853602459
  0
ARC
  5
13F6
  8
0
 10
28.524866464004361
 20
1.948402513976633
 30
0.0
 40
0.1280626665905309
 50
270.05147279755522
 51
337.1700619596009
  0
ARC
  5
13F7
  8
0
 10
38.320381961720358
 20
1.809011494872955
 30
0.0
 40
0.2923627160580909
 50
135.93871798617729
 51
161.22088693602109
  0
ARC
  5
13F8
  8
0
 10
37.927174216751119
 20
1.9435733466595559
 30
0.0
 40
0.1232338064031019
 50
270.13826219340581
 51
340.83818744916329
  0
ARC
  5
13F9
  8
0
 10
36.78869621985443
 20
1.804081847839758
 30
0.0
 40
0.2402436601228986
 50
23.197576416565411
 51
44.197274948105218
  0
ARC
  5
13FA
  8
0
 10
37.127615269706673
 20
1.9485024228992469
 30
0.0
 40
0.1281626549840082
 50
202.86474774370259
 51
269.91803308034758
  0
ATTDEF
  5
14E9
  8
DEFPOINTS
 10
32.822113689366148
 20
11.963666353040891
 30
0.0
 40
0.001
  1
PREMIUM MATERIALS
  3

  2
MATERIAL
 70
     0
1001
AcDbAttr
1070
     0
1070
     1
  0
ATTDEF
  5
14EA
  8
DEFPOINTS
 10
32.822113689366148
 20
11.96533301970755
 30
0.0
 40
0.001
  1
BAR SINK
  3

  2
PRODUCT
 70
     0
1001
AcDbAttr
1070
     0
1070
     1
  0
ATTDEF
  5
14EB
  8
DEFPOINTS
 10
32.822113689366148
 20
11.966999686374219
 30
0.0
 40
0.001
  1
CAIRN
  3

  2
TRADENAME
 70
     0
1001
AcDbAttr
1070
     0
1070
     1
  0
ATTDEF
  5
14EC
  8
DEFPOINTS
 10
32.822113689366148
 20
11.968666353040881
 30
0.0
 40
0.001
  1
K-8223
  3

  2
MODELNUMBER
 70
     0
1001
AcDbAttr
1070
     0
1070
     1
  0
ENDSEC
  0
EOF
