  0
SECTION
  2
HEADER
  9
$ACADVER
  1
AC1009
  9
$INSBASE
 10
528.30833783864318
 20
67.968922992096637
 30
0.0
  9
$EXTMIN
 10
511.80833783864318
 20
57.828922993496633
 30
0.0
  9
$EXTMAX
 10
544.80833783864318
 20
67.968922992096637
 30
0.0
  9
$LIMMIN
 10
0.0
 20
0.0
  9
$LIMMAX
 10
11.692913385800001
 20
8.2677165353999982
  9
$ORTHOMODE
 70
     0
  9
$REGENMODE
 70
     1
  9
$FILLMODE
 70
     1
  9
$QTEXTMODE
 70
     0
  9
$MIRRTEXT
 70
     0
  9
$DRAGMODE
 70
     2
  9
$LTSCALE
 40
0.6431102362
  9
$OSMODE
 70
  3071
  9
$ATTMODE
 70
     1
  9
$TEXTSIZE
 40
0.2
  9
$TRACEWID
 40
0.05
  9
$TEXTSTYLE
  7
STANDARD
  9
$CLAYER
  8
0
  9
$CELTYPE
  6
BYLAYER
  9
$CECOLOR
 62
   256
  9
$DIMSCALE
 40
1.0
  9
$DIMASZ
 40
0.1875
  9
$DIMEXO
 40
0.0625
  9
$DIMDLI
 40
0.4443307087
  9
$DIMRND
 40
0.0
  9
$DIMDLE
 40
0.0
  9
$DIMEXE
 40
0.125
  9
$DIMTP
 40
0.01
  9
$DIMTM
 40
0.01
  9
$DIMTXT
 40
1.0
  9
$DIMCEN
 40
0.1052362205
  9
$DIMTSZ
 40
0.0
  9
$DIMTOL
 70
     1
  9
$DIMLIM
 70
     0
  9
$DIMTIH
 70
     1
  9
$DIMTOH
 70
     1
  9
$DIMSE1
 70
     0
  9
$DIMSE2
 70
     0
  9
$DIMTAD
 70
     0
  9
$DIMZIN
 70
     0
  9
$DIMBLK
  1

  9
$DIMASO
 70
     1
  9
$DIMSHO
 70
     1
  9
$DIMPOST
  1
\X
  9
$DIMAPOST
  1

  9
$DIMALT
 70
     1
  9
$DIMALTD
 70
     2
  9
$DIMALTF
 40
25.399999999999999
  9
$DIMLFAC
 40
1.0
  9
$DIMTOFL
 70
     0
  9
$DIMTVP
 40
0.0
  9
$DIMTIX
 70
     0
  9
$DIMSOXD
 70
     0
  9
$DIMSAH
 70
     0
  9
$DIMBLK1
  1

  9
$DIMBLK2
  1

  9
$DIMSTYLE
  2
STANDARD
  9
$DIMCLRD
 70
     0
  9
$DIMCLRE
 70
     0
  9
$DIMCLRT
 70
     0
  9
$DIMTFAC
 40
1.0
  9
$DIMGAP
 40
0.09
  9
$LUNITS
 70
     2
  9
$LUPREC
 70
     4
  9
$SKETCHINC
 40
0.1
  9
$FILLETRAD
 40
0.0
  9
$AUNITS
 70
     0
  9
$AUPREC
 70
     0
  9
$MENU
  1
.
  9
$ELEVATION
 40
0.0
  9
$PELEVATION
 40
0.0
  9
$THICKNESS
 40
0.0
  9
$LIMCHECK
 70
     0
  9
$BLIPMODE
 70
     0
  9
$CHAMFERA
 40
0.0
  9
$CHAMFERB
 40
0.0
  9
$SKPOLY
 70
     0
  9
$TDCREATE
 40
2458268.4589819559
  9
$TDUPDATE
 40
2458318.5951815979
  9
$TDINDWG
 40
0.2257933912
  9
$TDUSRTIMER
 40
0.2257933912
  9
$USRTIMER
 70
     1
  9
$ANGBASE
 50
0.0
  9
$ANGDIR
 70
     0
  9
$PDMODE
 70
     0
  9
$PDSIZE
 40
0.3125
  9
$PLINEWID
 40
0.0
  9
$COORDS
 70
     1
  9
$SPLFRAME
 70
     0
  9
$SPLINETYPE
 70
     6
  9
$SPLINESEGS
 70
     8
  9
$ATTDIA
 70
     1
  9
$ATTREQ
 70
     1
  9
$HANDLING
 70
     1
  9
$HANDSEED
  5
194F
  9
$SURFTAB1
 70
     6
  9
$SURFTAB2
 70
     6
  9
$SURFTYPE
 70
     6
  9
$SURFU
 70
     6
  9
$SURFV
 70
     6
  9
$UCSNAME
  2

  9
$UCSORG
 10
0.0
 20
0.0
 30
0.0
  9
$UCSXDIR
 10
1.0
 20
0.0
 30
0.0
  9
$UCSYDIR
 10
0.0
 20
1.0
 30
0.0
  9
$PUCSNAME
  2

  9
$PUCSORG
 10
0.0
 20
0.0
 30
0.0
  9
$PUCSXDIR
 10
1.0
 20
0.0
 30
0.0
  9
$PUCSYDIR
 10
0.0
 20
1.0
 30
0.0
  9
$USERI1
 70
     0
  9
$USERI2
 70
     0
  9
$USERI3
 70
     0
  9
$USERI4
 70
     0
  9
$USERI5
 70
     0
  9
$USERR1
 40
0.0
  9
$USERR2
 40
0.0
  9
$USERR3
 40
0.0
  9
$USERR4
 40
0.0
  9
$USERR5
 40
0.0
  9
$WORLDVIEW
 70
     1
  9
$SHADEDGE
 70
     3
  9
$SHADEDIF
 70
    70
  9
$TILEMODE
 70
     1
  9
$MAXACTVP
 70
    64
  9
$PLIMCHECK
 70
     0
  9
$PEXTMIN
 10
1.0000000000000000E+020
 20
1.0000000000000000E+020
 30
1.0000000000000000E+020
  9
$PEXTMAX
 10
-1.0000000000000000E+020
 20
-1.0000000000000000E+020
 30
-1.0000000000000000E+020
  9
$PLIMMIN
 10
0.0
 20
0.0
  9
$PLIMMAX
 10
12.0
 20
9.0
  9
$UNITMODE
 70
     0
  9
$VISRETAIN
 70
     1
  9
$PLINEGEN
 70
     0
  9
$PSLTSCALE
 70
     1
  0
ENDSEC
  0
SECTION
  2
TABLES
  0
TABLE
  2
VPORT
 70
     1
  0
VPORT
  2
*ACTIVE
 70
     0
 10
0.0
 20
0.0
 11
1.0
 21
1.0
 12
0.0
 22
0.0
 13
0.0
 23
0.0
 14
1.0
 24
1.0
 15
0.0
 25
0.0
 16
0.0
 26
0.0
 36
97.163141568029715
 17
528.30833783864318
 27
62.898922992796642
 37
0.0
 40
34.524594878616732
 41
2.1006711409395971
 42
50.0
 43
0.0
 44
0.0
 50
0.0
 51
0.0
 71
     0
 72
   100
 73
     1
 74
     1
 75
     0
 76
     0
 77
     0
 78
     0
  0
ENDTAB
  0
TABLE
  2
LTYPE
 70
     2
  0
LTYPE
  2
CONTINUOUS
 70
     0
  3
Solid line
 72
    65
 73
     0
 40
0.0
  0
LTYPE
  2
PHANTOM2
 70
     0
  3
___ _ _ ___ _ _ ___ _ _ ___ _ _
 72
    65
 73
     6
 40
1.25
 49
0.625
 49
-0.125
 49
0.125
 49
-0.125
 49
0.125
 49
-0.125
  0
ENDTAB
  0
TABLE
  2
LAYER
 70
     2
  0
LAYER
  2
0
 70
     0
 62
   255
  6
CONTINUOUS
  0
LAYER
  2
DEFPOINTS
 70
     0
 62
     7
  6
CONTINUOUS
  0
ENDTAB
  0
TABLE
  2
STYLE
 70
     1
  0
STYLE
  2
STANDARD
 70
     0
 40
0.0
 41
0.8
 50
0.0
 71
     0
 42
0.2
  3
txt
  4

  0
ENDTAB
  0
TABLE
  2
VIEW
 70
     0
  0
ENDTAB
  0
TABLE
  2
UCS
 70
     0
  0
ENDTAB
  0
TABLE
  2
APPID
 70
     9
  0
APPID
  2
ACAD
 70
     0
  0
APPID
  2
ACAD_MLEADERVER
 70
     0
  0
APPID
  2
ACAD_EXEMPT_FROM_CAD_STANDARDS
 70
     0
  0
APPID
  2
ACAD_NAV_VCDISPLAY
 70
     0
  0
APPID
  2
ACAD_DSTYLE_DIMJAG
 70
     0
  0
APPID
  2
ACAD_DSTYLE_DIMTALN
 70
     0
  0
APPID
  2
ACAECLAYERSTANDARD
 70
     0
  0
APPID
  2
ACCMTRANSPARENCY
 70
     0
  0
APPID
  2
ACDBATTR
 70
     0
  0
ENDTAB
  0
TABLE
  2
DIMSTYLE
 70
     1
  0
DIMSTYLE
  2
STANDARD
 70
     0
  3

  4

  5

  6

  7

 40
1.0
 41
0.1875
 42
0.0625
 43
0.38
 44
0.125
 45
0.0
 46
0.0
 47
0.01
 48
0.01
140
0.15625
141
0.09
142
0.0
143
25.399999999999999
144
1.0
145
0.0
146
1.0
147
0.09
 71
     1
 72
     0
 73
     1
 74
     1
 75
     0
 76
     0
 77
     0
 78
     4
170
     0
171
     2
172
     0
173
     0
174
     0
175
     0
176
     0
177
     0
178
     0
  0
ENDTAB
  0
ENDSEC
  0
SECTION
  2
BLOCKS
  0
BLOCK
  8
0
  2
$MODEL_SPACE
 70
     0
 10
0.0
 20
0.0
 30
0.0
  3
$MODEL_SPACE
  1

  0
ENDBLK
  5
21
  8
0
  0
BLOCK
 67
     1
  8
0
  2
$PAPER_SPACE
 70
     0
 10
0.0
 20
0.0
 30
0.0
  3
$PAPER_SPACE
  1

  0
ENDBLK
  5
1D
 67
     1
  8
0
  0
ENDSEC
  0
SECTION
  2
ENTITIES
  0
ATTDEF
  5
FA1
  8
DEFPOINTS
 10
528.30321426231512
 20
67.967326074044777
 30
0.0
 40
0.001
  1
K-8437-1
  3

  2
MODELNUMBER
 70
     0
1001
ACDBATTR
1070
     0
1070
     1
  0
ATTDEF
  5
FA2
  8
DEFPOINTS
 10
528.30321426231512
 20
67.965659407378112
 30
0.0
 40
0.001
  1
KENNON
  3

  2
TRADENAME
 70
     0
1001
ACDBATTR
1070
     0
1070
     1
  0
ATTDEF
  5
FA3
  8
DEFPOINTS
 10
528.30321426231512
 20
67.963992740711447
 30
0.0
 40
0.001
  1
KITCHEN SINK
  3

  2
PRODUCT
 70
     0
1001
ACDBATTR
1070
     0
1070
     1
  0
ATTDEF
  5
FA4
  8
DEFPOINTS
 10
528.30321426231512
 20
67.962326074044782
 30
0.0
 40
0.001
  1
NEOROC
  3

  2
MATERIAL
 70
     0
1001
ACDBATTR
1070
     0
1070
     1
  0
LINE
  5
16DB
  8
0
 10
511.81738154894322
 20
67.742293073196635
 30
0.0
 11
511.80833783864318
 21
67.638922992096639
 31
0.0
  0
LINE
  5
16DC
  8
0
 10
513.08849752690503
 20
66.432838543870091
 30
0.0
 11
513.39654640514323
 21
60.554915790596638
 31
0.0
  0
LINE
  5
16DD
  8
0
 10
515.60475103874319
 20
58.483927054296643
 30
0.0
 11
515.85375660094326
 21
57.897951760196641
 31
0.0
  0
LINE
  5
16DE
  8
0
 10
516.9134949787433
 20
57.897454074396641
 30
0.0
 11
517.14627535424324
 21
58.420950394696639
 31
0.0
  0
LINE
  5
16DF
  8
0
 10
541.2015722814433
 20
57.969093952296639
 30
0.0
 11
540.85243305191284
 21
57.939140743996639
 31
0.0
  0
LINE
  5
16E0
  8
0
 10
515.95798162061351
 20
57.828923002276639
 30
0.0
 11
516.80800839554331
 21
57.82892299349664
 31
0.0
  0
LINE
  5
16E1
  8
0
 10
534.93710954054325
 20
57.828923002276639
 30
0.0
 11
540.59788984321108
 21
57.828923002276639
 31
0.0
  0
LINE
  5
16E2
  8
0
 10
534.42285105414328
 20
57.939140743996639
 30
0.0
 11
540.85243305191284
 21
57.939140743996639
 31
0.0
  0
LINE
  5
16E3
  8
0
 10
515.38182390398333
 20
58.60401323967033
 30
0.0
 11
534.42285105414328
 21
57.939140743996639
 31
0.0
  0
LINE
  5
16E4
  8
0
 10
511.80833783864318
 20
67.638922992096639
 30
0.0
 11
544.80833783864318
 21
67.638922992096639
 31
0.0
  0
LINE
  5
16E5
  8
0
 10
544.3164017557433
 20
67.968922992096637
 30
0.0
 11
512.30027392154329
 21
67.968922992096637
 31
0.0
  0
LINE
  5
16E6
  8
0
 10
543.18685624144985
 20
59.92002854588852
 30
0.0
 11
543.52817817444316
 21
66.432839002996644
 31
0.0
  0
LINE
  5
16E7
  8
0
 10
544.80833783864318
 20
67.638922992096639
 30
0.0
 11
544.79929412844319
 21
67.742293073196635
 31
0.0
  0
ARC
  5
16E8
  8
0
 10
512.30027392154329
 20
67.302127870096641
 30
0.0
 40
0.666795122
 50
90.0
 51
134.21110506620099
  0
ARC
  5
16E9
  8
0
 10
512.64686540599985
 20
67.513927942338157
 30
0.0
 40
0.1249950497782653
 50
41.613814643137509
 51
90.001019426962074
  0
ARC
  5
16EA
  8
0
 10
511.8771532307432
 20
67.737063728596624
 30
0.0
 40
0.06
 50
134.2111050654006
 51
174.9999999999998
  0
ARC
  5
16EB
  8
0
 10
515.45372000655072
 20
60.662756495749449
 30
0.0
 40
2.0599982631098679
 50
183.00080007301409
 51
267.99991094316232
  0
ARC
  5
16EC
  8
0
 10
534.37050177155641
 20
56.440054200309817
 30
0.0
 40
1.500000304310398
 50
67.806333643723249
 51
87.999998973151463
  0
ARC
  5
16ED
  8
0
 10
544.3164017557433
 20
67.302127870096641
 30
0.0
 40
0.666795122
 50
45.788894933899194
 51
90.0
  0
ARC
  5
16EE
  8
0
 10
543.96981250100953
 20
67.513922978333994
 30
0.0
 40
0.1250000148824933
 50
90.007669428442355
 51
138.38517141779141
  0
ARC
  5
16EF
  8
0
 10
544.73952244654322
 20
67.737063728596624
 30
0.0
 40
0.06
 50
5.0000000000001483
 51
45.788894933899194
  0
ARC
  5
16F0
  8
0
 10
541.12967784267312
 20
60.027840557366467
 30
0.0
 40
2.0600015519927779
 50
272.00003955809728
 51
357.00000388829773
  0
ARC
  5
16F1
  8
0
 10
539.75036246402055
 20
58.129743482303219
 30
0.0
 40
0.3008303829244442
 50
241.57172816751941
 51
269.53510045265818
  0
LINE
  5
16F2
  8
0
 10
539.47268114284248
 20
57.939140743996639
 30
0.0
 11
539.60714969284322
 21
57.865189099496639
 31
0.0
  0
ARC
  5
16F3
  8
0
 10
540.59112692639451
 20
58.118085459915122
 30
0.0
 40
0.2892415322034388
 50
271.33978651966299
 51
300.26846883072551
  0
LINE
  5
16F4
  8
0
 10
540.73691981524325
 20
57.868275336996639
 30
0.0
 11
540.85243305191284
 21
57.939140743996639
 31
0.0
  0
ARC
  5
16F5
  8
0
 10
511.03519489367562
 20
66.452817635080578
 30
0.0
 40
2.0533998314289632
 50
359.44251691778641
 51
33.86123509538956
  0
ARC
  5
16F6
  8
0
 10
545.45496843910303
 20
66.49065743017654
 30
0.0
 40
1.927657566713832
 50
144.9774433038157
 51
181.718795304991
  0
ARC
  5
16F7
  8
0
 10
515.38176961312774
 20
58.390068044432297
 30
0.0
 40
0.2419302170093228
 50
22.82756312866405
 51
60.103794344434391
  0
ARC
  5
16F8
  8
0
 10
515.95808376399793
 20
57.942275150057398
 30
0.0
 40
0.1133521938022493
 50
203.01820961435519
 51
269.94836989541852
  0
ARC
  5
16F9
  8
0
 10
516.80301230182454
 20
57.952063981310822
 30
0.0
 40
0.1232422972534094
 50
272.32333828170061
 51
333.69751309838182
  0
ARC
  5
16FA
  8
0
 10
517.37544755842021
 20
58.318341338512312
 30
0.0
 40
0.2510946386890778
 50
118.68993791193191
 51
155.8801339032519
  0
ENDSEC
  0
EOF
