  0
SECTION
  2
HEADER
  9
$ACADVER
  1
AC1009
  9
$INSBASE
 10
587.76465714347125
 20
53.792504405453762
 30
0.0
  9
$EXTMIN
 10
571.26465714347125
 20
42.792504405444802
 30
0.0
  9
$EXTMAX
 10
604.26465714347137
 20
64.792504405462694
 30
0.0
  9
$LIMMIN
 10
0.0
 20
0.0
  9
$LIMMAX
 10
11.692913385800001
 20
8.2677165353999982
  9
$ORTHOMODE
 70
     0
  9
$REGENMODE
 70
     1
  9
$FILLMODE
 70
     1
  9
$QTEXTMODE
 70
     0
  9
$MIRRTEXT
 70
     0
  9
$DRAGMODE
 70
     2
  9
$LTSCALE
 40
0.6431102362
  9
$OSMODE
 70
  3071
  9
$ATTMODE
 70
     1
  9
$TEXTSIZE
 40
0.2
  9
$TRACEWID
 40
0.05
  9
$TEXTSTYLE
  7
STANDARD
  9
$CLAYER
  8
0
  9
$CELTYPE
  6
BYLAYER
  9
$CECOLOR
 62
   256
  9
$DIMSCALE
 40
1.0
  9
$DIMASZ
 40
0.1875
  9
$DIMEXO
 40
0.0625
  9
$DIMDLI
 40
0.4443307087
  9
$DIMRND
 40
0.0
  9
$DIMDLE
 40
0.0
  9
$DIMEXE
 40
0.125
  9
$DIMTP
 40
0.01
  9
$DIMTM
 40
0.01
  9
$DIMTXT
 40
1.0
  9
$DIMCEN
 40
0.1052362205
  9
$DIMTSZ
 40
0.0
  9
$DIMTOL
 70
     1
  9
$DIMLIM
 70
     0
  9
$DIMTIH
 70
     1
  9
$DIMTOH
 70
     1
  9
$DIMSE1
 70
     0
  9
$DIMSE2
 70
     0
  9
$DIMTAD
 70
     0
  9
$DIMZIN
 70
     0
  9
$DIMBLK
  1

  9
$DIMASO
 70
     1
  9
$DIMSHO
 70
     1
  9
$DIMPOST
  1
\X
  9
$DIMAPOST
  1

  9
$DIMALT
 70
     1
  9
$DIMALTD
 70
     2
  9
$DIMALTF
 40
25.399999999999999
  9
$DIMLFAC
 40
1.0
  9
$DIMTOFL
 70
     0
  9
$DIMTVP
 40
0.0
  9
$DIMTIX
 70
     0
  9
$DIMSOXD
 70
     0
  9
$DIMSAH
 70
     0
  9
$DIMBLK1
  1

  9
$DIMBLK2
  1

  9
$DIMSTYLE
  2
STANDARD
  9
$DIMCLRD
 70
     0
  9
$DIMCLRE
 70
     0
  9
$DIMCLRT
 70
     0
  9
$DIMTFAC
 40
1.0
  9
$DIMGAP
 40
0.09
  9
$LUNITS
 70
     2
  9
$LUPREC
 70
     4
  9
$SKETCHINC
 40
0.1
  9
$FILLETRAD
 40
0.0
  9
$AUNITS
 70
     0
  9
$AUPREC
 70
     0
  9
$MENU
  1
.
  9
$ELEVATION
 40
0.0
  9
$PELEVATION
 40
0.0
  9
$THICKNESS
 40
0.0
  9
$LIMCHECK
 70
     0
  9
$BLIPMODE
 70
     0
  9
$CHAMFERA
 40
0.0
  9
$CHAMFERB
 40
0.0
  9
$SKPOLY
 70
     0
  9
$TDCREATE
 40
2458268.4589819559
  9
$TDUPDATE
 40
2458318.5949808219
  9
$TDINDWG
 40
0.2273156713
  9
$TDUSRTIMER
 40
0.2273156713
  9
$USRTIMER
 70
     1
  9
$ANGBASE
 50
0.0
  9
$ANGDIR
 70
     0
  9
$PDMODE
 70
     0
  9
$PDSIZE
 40
0.3125
  9
$PLINEWID
 40
0.0
  9
$COORDS
 70
     1
  9
$SPLFRAME
 70
     0
  9
$SPLINETYPE
 70
     6
  9
$SPLINESEGS
 70
     8
  9
$ATTDIA
 70
     1
  9
$ATTREQ
 70
     1
  9
$HANDLING
 70
     1
  9
$HANDSEED
  5
1A15
  9
$SURFTAB1
 70
     6
  9
$SURFTAB2
 70
     6
  9
$SURFTYPE
 70
     6
  9
$SURFU
 70
     6
  9
$SURFV
 70
     6
  9
$UCSNAME
  2

  9
$UCSORG
 10
0.0
 20
0.0
 30
0.0
  9
$UCSXDIR
 10
1.0
 20
0.0
 30
0.0
  9
$UCSYDIR
 10
0.0
 20
1.0
 30
0.0
  9
$PUCSNAME
  2

  9
$PUCSORG
 10
0.0
 20
0.0
 30
0.0
  9
$PUCSXDIR
 10
1.0
 20
0.0
 30
0.0
  9
$PUCSYDIR
 10
0.0
 20
1.0
 30
0.0
  9
$USERI1
 70
     0
  9
$USERI2
 70
     0
  9
$USERI3
 70
     0
  9
$USERI4
 70
     0
  9
$USERI5
 70
     0
  9
$USERR1
 40
0.0
  9
$USERR2
 40
0.0
  9
$USERR3
 40
0.0
  9
$USERR4
 40
0.0
  9
$USERR5
 40
0.0
  9
$WORLDVIEW
 70
     1
  9
$SHADEDGE
 70
     3
  9
$SHADEDIF
 70
    70
  9
$TILEMODE
 70
     1
  9
$MAXACTVP
 70
    64
  9
$PLIMCHECK
 70
     0
  9
$PEXTMIN
 10
1.0000000000000000E+020
 20
1.0000000000000000E+020
 30
1.0000000000000000E+020
  9
$PEXTMAX
 10
-1.0000000000000000E+020
 20
-1.0000000000000000E+020
 30
-1.0000000000000000E+020
  9
$PLIMMIN
 10
0.0
 20
0.0
  9
$PLIMMAX
 10
12.0
 20
9.0
  9
$UNITMODE
 70
     0
  9
$VISRETAIN
 70
     1
  9
$PLINEGEN
 70
     0
  9
$PSLTSCALE
 70
     1
  0
ENDSEC
  0
SECTION
  2
TABLES
  0
TABLE
  2
VPORT
 70
     1
  0
VPORT
  2
*ACTIVE
 70
     0
 10
0.0
 20
0.0
 11
1.0
 21
1.0
 12
0.0
 22
0.0
 13
0.0
 23
0.0
 14
1.0
 24
1.0
 15
0.0
 25
0.0
 16
0.0
 26
0.0
 36
111.6247882448712
 17
587.76465714347137
 27
53.792504405453762
 37
0.0
 40
39.666718618874462
 41
2.1006711409395971
 42
50.0
 43
0.0
 44
0.0
 50
0.0
 51
0.0
 71
     0
 72
   100
 73
     1
 74
     1
 75
     0
 76
     0
 77
     0
 78
     0
  0
ENDTAB
  0
TABLE
  2
LTYPE
 70
     2
  0
LTYPE
  2
CONTINUOUS
 70
     0
  3
Solid line
 72
    65
 73
     0
 40
0.0
  0
LTYPE
  2
PHANTOM2
 70
     0
  3
___ _ _ ___ _ _ ___ _ _ ___ _ _
 72
    65
 73
     6
 40
1.25
 49
0.625
 49
-0.125
 49
0.125
 49
-0.125
 49
0.125
 49
-0.125
  0
ENDTAB
  0
TABLE
  2
LAYER
 70
     2
  0
LAYER
  2
0
 70
     0
 62
   255
  6
CONTINUOUS
  0
LAYER
  2
DEFPOINTS
 70
     0
 62
     7
  6
CONTINUOUS
  0
ENDTAB
  0
TABLE
  2
STYLE
 70
     1
  0
STYLE
  2
STANDARD
 70
     0
 40
0.0
 41
0.8
 50
0.0
 71
     0
 42
0.2
  3
txt
  4

  0
ENDTAB
  0
TABLE
  2
VIEW
 70
     0
  0
ENDTAB
  0
TABLE
  2
UCS
 70
     0
  0
ENDTAB
  0
TABLE
  2
APPID
 70
     9
  0
APPID
  2
ACAD
 70
     0
  0
APPID
  2
ACAD_MLEADERVER
 70
     0
  0
APPID
  2
ACAD_EXEMPT_FROM_CAD_STANDARDS
 70
     0
  0
APPID
  2
ACAD_NAV_VCDISPLAY
 70
     0
  0
APPID
  2
ACAD_DSTYLE_DIMJAG
 70
     0
  0
APPID
  2
ACAD_DSTYLE_DIMTALN
 70
     0
  0
APPID
  2
ACAECLAYERSTANDARD
 70
     0
  0
APPID
  2
ACCMTRANSPARENCY
 70
     0
  0
APPID
  2
ACDBATTR
 70
     0
  0
ENDTAB
  0
TABLE
  2
DIMSTYLE
 70
     1
  0
DIMSTYLE
  2
STANDARD
 70
     0
  3

  4

  5

  6

  7

 40
1.0
 41
0.1875
 42
0.0625
 43
0.38
 44
0.125
 45
0.0
 46
0.0
 47
0.01
 48
0.01
140
0.15625
141
0.09
142
0.0
143
25.399999999999999
144
1.0
145
0.0
146
1.0
147
0.09
 71
     1
 72
     0
 73
     1
 74
     1
 75
     0
 76
     0
 77
     0
 78
     4
170
     0
171
     2
172
     0
173
     0
174
     0
175
     0
176
     0
177
     0
178
     0
  0
ENDTAB
  0
ENDSEC
  0
SECTION
  2
BLOCKS
  0
BLOCK
  8
0
  2
$MODEL_SPACE
 70
     0
 10
0.0
 20
0.0
 30
0.0
  3
$MODEL_SPACE
  1

  0
ENDBLK
  5
21
  8
0
  0
BLOCK
 67
     1
  8
0
  2
$PAPER_SPACE
 70
     0
 10
0.0
 20
0.0
 30
0.0
  3
$PAPER_SPACE
  1

  0
ENDBLK
  5
1D
 67
     1
  8
0
  0
ENDSEC
  0
SECTION
  2
ENTITIES
  0
ATTDEF
  5
FA1
  8
DEFPOINTS
 10
587.76126321088816
 20
53.797908770836173
 30
0.0
 40
0.001
  1
K-8437-1
  3

  2
MODELNUMBER
 70
     0
1001
ACDBATTR
1070
     0
1070
     1
  0
ATTDEF
  5
FA2
  8
DEFPOINTS
 10
587.76126321088816
 20
53.796242104169501
 30
0.0
 40
0.001
  1
KENNON
  3

  2
TRADENAME
 70
     0
1001
ACDBATTR
1070
     0
1070
     1
  0
ATTDEF
  5
FA3
  8
DEFPOINTS
 10
587.76126321088816
 20
53.794575437502843
 30
0.0
 40
0.001
  1
KITCHEN SINK
  3

  2
PRODUCT
 70
     0
1001
ACDBATTR
1070
     0
1070
     1
  0
ATTDEF
  5
FA4
  8
DEFPOINTS
 10
587.76126321088816
 20
53.792908770836171
 30
0.0
 40
0.001
  1
NEOROC
  3

  2
MATERIAL
 70
     0
1001
ACDBATTR
1070
     0
1070
     1
  0
LINE
  5
18AC
  8
0
 10
571.26465714347125
 20
64.045358381944794
 30
0.0
 11
571.26465714347125
 21
44.286796452644801
 31
0.0
  0
LINE
  5
18AD
  8
0
 10
572.2117431747713
 20
44.440239716344799
 30
0.0
 11
572.21168635637355
 21
60.198203894720741
 31
0.0
  0
LINE
  5
18AE
  8
0
 10
572.75894919057134
 20
42.792504405444802
 30
0.0
 11
602.77036509637117
 21
42.792504405444802
 31
0.0
  0
LINE
  5
18AF
  8
0
 10
572.92443558417119
 20
43.877403895944809
 30
0.0
 11
602.60487870277132
 21
43.877403895944809
 31
0.0
  0
LINE
  5
18B0
  8
0
 10
602.60487875257115
 20
60.757604914044798
 30
0.0
 11
572.92443553627129
 21
60.757604914044798
 31
0.0
  0
LINE
  5
18B1
  8
0
 10
572.01180316707132
 20
64.792504405444802
 30
0.0
 11
603.5175111198713
 21
64.792504405462694
 31
0.0
  0
LINE
  5
18B2
  8
0
 10
603.31757111217132
 20
60.194769238844799
 30
0.0
 11
603.31757111217132
 21
44.440246420644797
 31
0.0
  0
LINE
  5
18B3
  8
0
 10
604.26465714347137
 20
64.045358381944794
 30
0.0
 11
604.26465714347137
 21
44.286796452608883
 31
0.0
  0
CIRCLE
  5
18B4
  8
0
 10
587.76465714347125
 20
62.7325044054448
 30
0.0
 40
0.6875
  0
ARC
  5
18B5
  8
0
 10
572.01780841944037
 20
64.039353129493094
 30
0.0
 40
0.7531752170318834
 50
90.456838269887143
 51
179.54316172604729
  0
ARC
  5
18B6
  8
0
 10
603.48363482484069
 20
64.011482086828323
 30
0.0
 40
0.7817566536781375
 50
2.4836075241676459
 51
87.516392482130655
  0
ARC
  5
18B7
  8
0
 10
602.77006861352004
 20
44.287092935396068
 30
0.0
 40
1.494588559358047
 50
270.01136581441119
 51
359.9886341880453
  0
ARC
  5
18B8
  8
0
 10
572.78919301503981
 20
44.317040277011273
 30
0.0
 40
1.5248358313639501
 50
181.1364876742237
 51
268.8635123219421
  0
LINE
  5
18B9
  8
0
 10
573.09562906747124
 20
59.792354760644812
 30
0.0
 11
573.09562339267131
 21
44.84264837554479
 31
0.0
  0
LINE
  5
18BA
  8
0
 10
602.4063530815713
 20
44.869982694244811
 30
0.0
 11
602.40635307587115
 21
59.765022617044821
 31
0.0
  0
ARC
  5
18BB
  8
0
 10
573.69545023850321
 20
59.791710960857458
 30
0.0
 40
0.5998215165333017
 50
90.081453812627885
 51
179.93850334352501
  0
LINE
  5
18BC
  8
0
 10
573.69459751019804
 20
60.391531871255509
 30
0.0
 11
601.80717535497115
 21
60.364200337844807
 31
0.0
  0
LINE
  5
18BD
  8
0
 10
573.69475135297125
 20
44.243420894144798
 30
0.0
 11
601.80717535507563
 21
44.270808473040432
 31
0.0
  0
ARC
  5
18BE
  8
0
 10
601.80515103392929
 20
44.872010532535342
 30
0.0
 40
0.60120546755417
 50
270.192921194978
 51
359.8067436140218
  0
ARC
  5
18BF
  8
0
 10
573.69689258387359
 20
44.844689737990777
 30
0.0
 40
0.6012726564959228
 50
180.19452352612669
 51
269.7959598667112
  0
ARC
  5
18C0
  8
0
 10
601.80519042587468
 20
59.763037687848062
 30
0.0
 40
0.6011659269242031
 50
0.1891795046185812
 51
89.810820504943706
  0
ARC
  5
18C1
  8
0
 10
572.85374156600005
 20
60.113910381572452
 30
0.0
 40
0.6475648913950768
 50
83.732589392383886
 51
172.52058470921369
  0
ARC
  5
18C2
  8
0
 10
572.85261461447567
 20
44.519102669363818
 30
0.0
 40
0.6457054805309344
 50
187.01531000549201
 51
276.38614860970068
  0
ARC
  5
18C3
  8
0
 10
602.67719233197397
 20
44.518477906374699
 30
0.0
 40
0.6451396340998205
 50
263.56419761691029
 51
353.0350078174589
  0
ARC
  5
18C4
  8
0
 10
602.6772761138742
 20
60.116636034502761
 30
0.0
 40
0.6450445585112727
 50
6.957229231341449
 51
96.444239817700876
  0
CIRCLE
  5
18C5
  8
0
 10
596.8396571434713
 20
52.317504405444801
 30
0.0
 40
0.31
  0
CIRCLE
  5
18C6
  8
0
 10
596.8396571434713
 20
52.317504405444801
 30
0.0
 40
0.2760925586
  0
CIRCLE
  5
18C7
  8
0
 10
596.8396571434713
 20
52.317504405444801
 30
0.0
 40
2.25
  0
CIRCLE
  5
18C8
  8
0
 10
596.8396571434713
 20
52.317504405444801
 30
0.0
 40
1.6780895467000001
  0
POINT
  5
18CA
  8
DEFPOINTS
 10
587.76465714347125
 20
62.7325044054448
 30
0.0
  0
ENDSEC
  0
EOF
