  0
SECTION
  2
HEADER
  9
$ACADVER
  1
AC1009
  9
$INSBASE
 10
579.15803179993054
 20
62.421427809575967
 30
0.0
  9
$EXTMIN
 10
568.15803179993054
 20
52.281427819755947
 30
0.0
  9
$EXTMAX
 10
590.15803179993054
 20
62.434464070425598
 30
0.0
  9
$LIMMIN
 10
0.0
 20
0.0
  9
$LIMMAX
 10
11.692913385800001
 20
8.2677165353999982
  9
$ORTHOMODE
 70
     0
  9
$REGENMODE
 70
     1
  9
$FILLMODE
 70
     1
  9
$QTEXTMODE
 70
     0
  9
$MIRRTEXT
 70
     0
  9
$DRAGMODE
 70
     2
  9
$LTSCALE
 40
0.6431102362
  9
$OSMODE
 70
  3071
  9
$ATTMODE
 70
     1
  9
$TEXTSIZE
 40
0.2
  9
$TRACEWID
 40
0.05
  9
$TEXTSTYLE
  7
STANDARD
  9
$CLAYER
  8
0
  9
$CELTYPE
  6
BYLAYER
  9
$CECOLOR
 62
   256
  9
$DIMSCALE
 40
1.0
  9
$DIMASZ
 40
0.1875
  9
$DIMEXO
 40
0.0625
  9
$DIMDLI
 40
0.4443307087
  9
$DIMRND
 40
0.0
  9
$DIMDLE
 40
0.0
  9
$DIMEXE
 40
0.125
  9
$DIMTP
 40
0.01
  9
$DIMTM
 40
0.01
  9
$DIMTXT
 40
1.0
  9
$DIMCEN
 40
0.1052362205
  9
$DIMTSZ
 40
0.0
  9
$DIMTOL
 70
     1
  9
$DIMLIM
 70
     0
  9
$DIMTIH
 70
     1
  9
$DIMTOH
 70
     1
  9
$DIMSE1
 70
     0
  9
$DIMSE2
 70
     0
  9
$DIMTAD
 70
     0
  9
$DIMZIN
 70
     0
  9
$DIMBLK
  1

  9
$DIMASO
 70
     1
  9
$DIMSHO
 70
     1
  9
$DIMPOST
  1
\X
  9
$DIMAPOST
  1

  9
$DIMALT
 70
     1
  9
$DIMALTD
 70
     2
  9
$DIMALTF
 40
25.399999999999999
  9
$DIMLFAC
 40
1.0
  9
$DIMTOFL
 70
     0
  9
$DIMTVP
 40
0.0
  9
$DIMTIX
 70
     0
  9
$DIMSOXD
 70
     0
  9
$DIMSAH
 70
     0
  9
$DIMBLK1
  1

  9
$DIMBLK2
  1

  9
$DIMSTYLE
  2
STANDARD
  9
$DIMCLRD
 70
     0
  9
$DIMCLRE
 70
     0
  9
$DIMCLRT
 70
     0
  9
$DIMTFAC
 40
1.0
  9
$DIMGAP
 40
0.09
  9
$LUNITS
 70
     2
  9
$LUPREC
 70
     4
  9
$SKETCHINC
 40
0.1
  9
$FILLETRAD
 40
0.0
  9
$AUNITS
 70
     0
  9
$AUPREC
 70
     0
  9
$MENU
  1
.
  9
$ELEVATION
 40
0.0
  9
$PELEVATION
 40
0.0
  9
$THICKNESS
 40
0.0
  9
$LIMCHECK
 70
     0
  9
$BLIPMODE
 70
     0
  9
$CHAMFERA
 40
0.0
  9
$CHAMFERB
 40
0.0
  9
$SKPOLY
 70
     0
  9
$TDCREATE
 40
2458268.4589819559
  9
$TDUPDATE
 40
2458318.595078507
  9
$TDINDWG
 40
0.2274043287
  9
$TDUSRTIMER
 40
0.2274043287
  9
$USRTIMER
 70
     1
  9
$ANGBASE
 50
0.0
  9
$ANGDIR
 70
     0
  9
$PDMODE
 70
     0
  9
$PDSIZE
 40
0.3125
  9
$PLINEWID
 40
0.0
  9
$COORDS
 70
     1
  9
$SPLFRAME
 70
     0
  9
$SPLINETYPE
 70
     6
  9
$SPLINESEGS
 70
     8
  9
$ATTDIA
 70
     1
  9
$ATTREQ
 70
     1
  9
$HANDLING
 70
     1
  9
$HANDSEED
  5
1ADE
  9
$SURFTAB1
 70
     6
  9
$SURFTAB2
 70
     6
  9
$SURFTYPE
 70
     6
  9
$SURFU
 70
     6
  9
$SURFV
 70
     6
  9
$UCSNAME
  2

  9
$UCSORG
 10
0.0
 20
0.0
 30
0.0
  9
$UCSXDIR
 10
1.0
 20
0.0
 30
0.0
  9
$UCSYDIR
 10
0.0
 20
1.0
 30
0.0
  9
$PUCSNAME
  2

  9
$PUCSORG
 10
0.0
 20
0.0
 30
0.0
  9
$PUCSXDIR
 10
1.0
 20
0.0
 30
0.0
  9
$PUCSYDIR
 10
0.0
 20
1.0
 30
0.0
  9
$USERI1
 70
     0
  9
$USERI2
 70
     0
  9
$USERI3
 70
     0
  9
$USERI4
 70
     0
  9
$USERI5
 70
     0
  9
$USERR1
 40
0.0
  9
$USERR2
 40
0.0
  9
$USERR3
 40
0.0
  9
$USERR4
 40
0.0
  9
$USERR5
 40
0.0
  9
$WORLDVIEW
 70
     1
  9
$SHADEDGE
 70
     3
  9
$SHADEDIF
 70
    70
  9
$TILEMODE
 70
     1
  9
$MAXACTVP
 70
    64
  9
$PLIMCHECK
 70
     0
  9
$PEXTMIN
 10
1.0000000000000000E+020
 20
1.0000000000000000E+020
 30
1.0000000000000000E+020
  9
$PEXTMAX
 10
-1.0000000000000000E+020
 20
-1.0000000000000000E+020
 30
-1.0000000000000000E+020
  9
$PLIMMIN
 10
0.0
 20
0.0
  9
$PLIMMAX
 10
12.0
 20
9.0
  9
$UNITMODE
 70
     0
  9
$VISRETAIN
 70
     1
  9
$PLINEGEN
 70
     0
  9
$PSLTSCALE
 70
     1
  0
ENDSEC
  0
SECTION
  2
TABLES
  0
TABLE
  2
VPORT
 70
     1
  0
VPORT
  2
*ACTIVE
 70
     0
 10
0.0
 20
0.0
 11
1.0
 21
1.0
 12
0.0
 22
0.0
 13
0.0
 23
0.0
 14
1.0
 24
1.0
 15
0.0
 25
0.0
 16
0.0
 26
0.0
 36
68.194046701802222
 17
579.15803179993054
 27
57.357945945090769
 37
0.0
 40
24.23412118508875
 41
2.1006711409395971
 42
50.0
 43
0.0
 44
0.0
 50
0.0
 51
0.0
 71
     0
 72
   100
 73
     1
 74
     1
 75
     0
 76
     0
 77
     0
 78
     0
  0
ENDTAB
  0
TABLE
  2
LTYPE
 70
     2
  0
LTYPE
  2
CONTINUOUS
 70
     0
  3
Solid line
 72
    65
 73
     0
 40
0.0
  0
LTYPE
  2
PHANTOM2
 70
     0
  3
___ _ _ ___ _ _ ___ _ _ ___ _ _
 72
    65
 73
     6
 40
1.25
 49
0.625
 49
-0.125
 49
0.125
 49
-0.125
 49
0.125
 49
-0.125
  0
ENDTAB
  0
TABLE
  2
LAYER
 70
     2
  0
LAYER
  2
0
 70
     0
 62
   255
  6
CONTINUOUS
  0
LAYER
  2
DEFPOINTS
 70
     0
 62
     7
  6
CONTINUOUS
  0
ENDTAB
  0
TABLE
  2
STYLE
 70
     1
  0
STYLE
  2
STANDARD
 70
     0
 40
0.0
 41
0.8
 50
0.0
 71
     0
 42
0.2
  3
txt
  4

  0
ENDTAB
  0
TABLE
  2
VIEW
 70
     0
  0
ENDTAB
  0
TABLE
  2
UCS
 70
     0
  0
ENDTAB
  0
TABLE
  2
APPID
 70
     9
  0
APPID
  2
ACAD
 70
     0
  0
APPID
  2
ACAD_MLEADERVER
 70
     0
  0
APPID
  2
ACAD_EXEMPT_FROM_CAD_STANDARDS
 70
     0
  0
APPID
  2
ACAD_NAV_VCDISPLAY
 70
     0
  0
APPID
  2
ACAD_DSTYLE_DIMJAG
 70
     0
  0
APPID
  2
ACAD_DSTYLE_DIMTALN
 70
     0
  0
APPID
  2
ACAECLAYERSTANDARD
 70
     0
  0
APPID
  2
ACCMTRANSPARENCY
 70
     0
  0
APPID
  2
ACDBATTR
 70
     0
  0
ENDTAB
  0
TABLE
  2
DIMSTYLE
 70
     1
  0
DIMSTYLE
  2
STANDARD
 70
     0
  3

  4

  5

  6

  7

 40
1.0
 41
0.1875
 42
0.0625
 43
0.38
 44
0.125
 45
0.0
 46
0.0
 47
0.01
 48
0.01
140
0.15625
141
0.09
142
0.0
143
25.399999999999999
144
1.0
145
0.0
146
1.0
147
0.09
 71
     1
 72
     0
 73
     1
 74
     1
 75
     0
 76
     0
 77
     0
 78
     4
170
     0
171
     2
172
     0
173
     0
174
     0
175
     0
176
     0
177
     0
178
     0
  0
ENDTAB
  0
ENDSEC
  0
SECTION
  2
BLOCKS
  0
BLOCK
  8
0
  2
$MODEL_SPACE
 70
     0
 10
0.0
 20
0.0
 30
0.0
  3
$MODEL_SPACE
  1

  0
ENDBLK
  5
21
  8
0
  0
BLOCK
 67
     1
  8
0
  2
$PAPER_SPACE
 70
     0
 10
0.0
 20
0.0
 30
0.0
  3
$PAPER_SPACE
  1

  0
ENDBLK
  5
1D
 67
     1
  8
0
  0
ENDSEC
  0
SECTION
  2
ENTITIES
  0
ATTDEF
  5
FA1
  8
DEFPOINTS
 10
579.15427945924216
 20
62.4334640704256
 30
0.0
 40
0.001
  1
K-8437-1
  3

  2
MODELNUMBER
 70
     0
1001
ACDBATTR
1070
     0
1070
     1
  0
ATTDEF
  5
FA2
  8
DEFPOINTS
 10
579.15427945924216
 20
62.431797403758928
 30
0.0
 40
0.001
  1
KENNON
  3

  2
TRADENAME
 70
     0
1001
ACDBATTR
1070
     0
1070
     1
  0
ATTDEF
  5
FA3
  8
DEFPOINTS
 10
579.15427945924216
 20
62.43013073709227
 30
0.0
 40
0.001
  1
KITCHEN SINK
  3

  2
PRODUCT
 70
     0
1001
ACDBATTR
1070
     0
1070
     1
  0
ATTDEF
  5
FA4
  8
DEFPOINTS
 10
579.15427945924216
 20
62.428464070425598
 30
0.0
 40
0.001
  1
NEOROC
  3

  2
MATERIAL
 70
     0
1001
ACDBATTR
1070
     0
1070
     1
  0
LINE
  5
18AF
  8
0
 10
569.00119140173047
 20
61.972969802575967
 30
0.0
 11
569.45132862953051
 21
53.383839830375969
 31
0.0
  0
LINE
  5
18B0
  8
0
 10
580.6435185845304
 20
52.391645561475968
 30
0.0
 11
585.09400556713058
 21
52.547082929375961
 31
0.0
  0
LINE
  5
18B1
  8
0
 10
584.52631141903055
 20
52.281427819755969
 30
0.0
 11
583.6679284524306
 21
52.281427819755962
 31
0.0
  0
LINE
  5
18B2
  8
0
 10
571.69813514803047
 20
52.281427819755969
 30
0.0
 11
570.83975218323053
 21
52.281427819755969
 31
0.0
  0
LINE
  5
18B3
  8
0
 10
575.23680350187863
 20
52.281427819755969
 30
0.0
 11
580.12926009798252
 21
52.281427819755969
 31
0.0
  0
LINE
  5
18B4
  8
0
 10
574.72254501543057
 20
52.391645561475968
 30
0.0
 11
580.6435185845304
 21
52.391645561475968
 31
0.0
  0
LINE
  5
18B5
  8
0
 10
574.72254501543057
 20
52.391645561475968
 30
0.0
 11
570.27216522354865
 21
52.547056248414037
 31
0.0
  0
LINE
  5
18B6
  8
0
 10
584.65571400243061
 20
52.32246991527596
 30
0.0
 11
584.99424990393925
 21
52.543598870714483
 31
0.0
  0
LINE
  5
18B7
  8
0
 10
585.91306926343054
 20
53.352056248875961
 30
0.0
 11
586.30976327193059
 21
60.921428829975959
 31
0.0
  0
ARC
  5
18B8
  8
0
 10
574.67019573274285
 20
50.892559016973131
 30
0.0
 40
1.500000305129439
 50
67.806333652323715
 51
87.999998970387935
  0
ARC
  5
18B9
  8
0
 10
568.87636270973053
 20
61.966427809575968
 30
0.0
 40
0.125
 50
2.9999992918000609
 51
90.0
  0
ARC
  5
18BA
  8
0
 10
580.69586786711818
 20
50.892559016973131
 30
0.0
 40
1.5000003051294399
 50
92.000001029612051
 51
112.1936663476762
  0
LINE
  5
18BB
  8
0
 10
568.16707551023046
 20
62.194797890675972
 30
0.0
 11
568.15803179993054
 21
62.091427809575968
 31
0.0
  0
LINE
  5
18BC
  8
0
 10
568.15803179993054
 20
62.091427809575968
 30
0.0
 11
590.15803179993054
 21
62.091427809575968
 31
0.0
  0
LINE
  5
18BD
  8
0
 10
589.66609571703054
 20
62.421427809575967
 30
0.0
 11
568.64996788283054
 21
62.421427809575967
 31
0.0
  0
LINE
  5
18BE
  8
0
 10
590.15803179993054
 20
62.091427809575968
 30
0.0
 11
590.14898808973055
 21
62.194797890675972
 31
0.0
  0
ARC
  5
18BF
  8
0
 10
568.64996788283054
 20
61.75463268757597
 30
0.0
 40
0.666795122
 50
90.0
 51
134.2111050662007
  0
ARC
  5
18C0
  8
0
 10
568.22684719203062
 20
62.189568546075968
 30
0.0
 40
0.06
 50
134.2111050654006
 51
174.9999999999996
  0
ARC
  5
18C1
  8
0
 10
589.66609571703054
 20
61.75463268757597
 30
0.0
 40
0.666795122
 50
45.788894933899471
 51
90.0
  0
ARC
  5
18C2
  8
0
 10
590.08921640783058
 20
62.189568546075968
 30
0.0
 40
0.06
 50
5.0000000000000258
 51
45.788894933899471
  0
ARC
  5
18C3
  8
0
 10
570.30450223932519
 20
53.399765550833671
 30
0.0
 40
0.8533222351622533
 50
181.0693844718495
 51
267.8282316020742
  0
ARC
  5
18C4
  8
0
 10
570.2627120473943
 20
52.307975108762257
 30
0.0
 40
0.2569379039677333
 50
57.203264974671193
 51
66.625609080347118
  0
LINE
  5
18C5
  8
0
 10
570.40188511213046
 20
52.523956461075969
 30
0.0
 11
570.71034152813058
 21
52.322457722675971
 31
0.0
  0
ARC
  5
18C6
  8
0
 10
570.85025124263746
 20
52.539141699067677
 30
0.0
 40
0.25792765233359
 50
237.1502532026779
 51
267.66710535586452
  0
ARC
  5
18C7
  8
0
 10
571.69500533856785
 20
52.607935704251688
 30
0.0
 40
0.3265228848720178
 50
270.54920383008522
 51
296.37043864479648
  0
LINE
  5
18C8
  8
0
 10
571.84003798263052
 20
52.315390448775958
 30
0.0
 11
572.16819042644386
 21
52.48084558932122
 31
0.0
  0
ARC
  5
18C9
  8
0
 10
585.063353751362
 20
53.397458295603862
 30
0.0
 40
0.8509276099041166
 50
272.06433506126911
 51
356.94147717287871
  0
LINE
  5
18CA
  8
0
 10
583.19789990805145
 20
52.480859688175663
 30
0.0
 11
583.5260289138306
 21
52.31538889017596
 31
0.0
  0
ARC
  5
18CB
  8
0
 10
583.67131309375213
 20
52.608999818629023
 30
0.0
 40
0.3275894843284199
 50
243.67293367073449
 51
269.408011787384
  0
ARC
  5
18CC
  8
0
 10
584.51497654875675
 20
52.541685061942111
 30
0.0
 40
0.2605039565812075
 50
272.49380214844967
 51
302.70070900560938
  0
ARC
  5
18CD
  8
0
 10
589.36307530184729
 20
60.941597311306772
 30
0.0
 40
3.0533786400761742
 50
167.11037016647541
 51
180.37845855320711
  0
ARC
  5
18CE
  8
0
 10
586.87977198135684
 20
61.519163300036148
 30
0.0
 40
0.5038921759559996
 50
108.023311387658
 51
168.13976594616221
  0
ARC
  5
18CF
  8
0
 10
587.57053273390932
 20
58.20918526192613
 30
0.0
 40
3.8825843998256371
 50
90.760325468880083
 51
102.59557583652369
  0
ENDSEC
  0
EOF
