  0
SECTION
  2
HEADER
  9
$ACADVER
  1
AC1009
  9
$LUNITS
 70
2
  9
$LUPREC
 70
4
  9
$LTSCALE
 40
1.0
  9
$EXTMIN
 10
-30.3177
 20
33.3285
 30
0
  9
$EXTMAX
 10
251.6749
 20
230.337
 30
0
  0
ENDSEC
  0
SECTION
  2
TABLES
  0
TABLE
  2
LTYPE
 70
256
  0
LTYPE
  2
AIGENLINE001
 70
64
  3
generate AI->DXF Converter
 72
65
 73
4
 40
5.8561
 49
3.5278
 49
-0.7761
 49
0.7761
 49
-0.7761
  0
LTYPE
  2
AIGENLINE002
 70
64
  3
generate AI->DXF Converter
 72
65
 73
2
 40
0.7056
 49
0.3528
 49
-0.3528
  0
ENDTAB
  0
TABLE
  2
LAYER
 70
1
  0
LAYER
  2
LAYER_1
 70
64
 62
7
  6
CONTINUOUS
  0
ENDTAB
  0
TABLE
  2
STYLE
 70
6
  0
STYLE
  2
STANDARD
 70
0
 40
0
 50
0
 71
0
 41
0
 42
0
  3
TXT
  4
BIGFONT
  0
ENDTAB
  0
ENDSEC
  0
SECTION
  2
BLOCKS
  0
BLOCK
  8
LAYER_1
  2
AIGNBL01040006
 70
64
 10
0
 20
0
 30
0
  3
AIGNBL01040006
  0
POLYLINE
  8
LAYER_1
 40
0.05
 41
0.05
 66
1
 10
0
 20
0
 30
0
 70
1
  0
VERTEX
  8
LAYER_1
 10
105.4311
 20
39.1418
  0
VERTEX
  8
LAYER_1
 10
104.9422
 20
37.9567
  0
VERTEX
  8
LAYER_1
 10
104.3142
 20
37.9567
  0
VERTEX
  8
LAYER_1
 10
105.9137
 20
41.7225
  0
VERTEX
  8
LAYER_1
 10
106.6468
 20
41.7225
  0
VERTEX
  8
LAYER_1
 10
108.2533
 20
37.9567
  0
VERTEX
  8
LAYER_1
 10
107.6032
 20
37.9567
  0
VERTEX
  8
LAYER_1
 10
107.1006
 20
39.1418
  0
SEQEND
  0
POLYLINE
  8
LAYER_1
 40
0.05
 41
0.05
 66
1
 10
0
 20
0
 30
0
 70
1
  0
VERTEX
  8
LAYER_1
 10
106.9748
 20
39.5207
  0
VERTEX
  8
LAYER_1
 10
106.5138
 20
40.6056
  0
VERTEX
  8
LAYER_1
 10
106.2692
 20
41.2926
  0
VERTEX
  8
LAYER_1
 10
106.2555
 20
41.2926
  0
VERTEX
  8
LAYER_1
 10
106.0178
 20
40.6101
  0
VERTEX
  8
LAYER_1
 10
105.5571
 20
39.5207
  0
SEQEND
  0
ENDBLK
  0
BLOCK
  8
LAYER_1
  2
AIGNBL01040007
 70
64
 10
0
 20
0
 30
0
  3
AIGNBL01040007
  0
POLYLINE
  8
LAYER_1
 40
0.05
 41
0.05
 66
1
 10
0
 20
0
 30
0
 70
1
  0
VERTEX
  8
LAYER_1
 10
112.6186
 20
37.4034
 42
-0.0155848755
  0
VERTEX
  8
LAYER_1
 10
110.8164
 20
37.8395
  0
VERTEX
  8
LAYER_1
 10
110.5298
 20
37.895
 42
-0.08356944747
  0
VERTEX
  8
LAYER_1
 10
109.6658
 20
38.0612
 42
-0.0975043791
  0
VERTEX
  8
LAYER_1
 10
109.0046
 20
38.4671
 42
-0.2129077902
  0
VERTEX
  8
LAYER_1
 10
108.4559
 20
39.7998
 42
-0.0968494152
  0
VERTEX
  8
LAYER_1
 10
108.6005
 20
40.5732
 42
-0.2046438079
  0
VERTEX
  8
LAYER_1
 10
109.648
 20
41.5974
 42
-0.09824750395
  0
VERTEX
  8
LAYER_1
 10
110.649
 20
41.7838
 42
-0.08554009695
  0
VERTEX
  8
LAYER_1
 10
111.5176
 20
41.6425
 42
-0.1004336034
  0
VERTEX
  8
LAYER_1
 10
112.1827
 20
41.2483
 42
-0.2141019095
  0
VERTEX
  8
LAYER_1
 10
112.7581
 20
39.8784
 42
-0.09540850229
  0
VERTEX
  8
LAYER_1
 10
112.6192
 20
39.1106
 42
-0.2143210227
  0
VERTEX
  8
LAYER_1
 10
111.5963
 20
38.1321
 42
-0.02338900436
  0
VERTEX
  8
LAYER_1
 10
111.4172
 20
38.0738
  0
VERTEX
  8
LAYER_1
 10
111.4172
 20
38.0514
 42
0.01711211955
  0
VERTEX
  8
LAYER_1
 10
112.7936
 20
37.8113
  0
SEQEND
  0
POLYLINE
  8
LAYER_1
 40
0.05
 41
0.05
 66
1
 10
0
 20
0
 30
0
 70
1
  0
VERTEX
  8
LAYER_1
 10
112.1159
 20
39.857
 42
0.1071543648
  0
VERTEX
  8
LAYER_1
 10
111.9646
 20
40.5618
 42
0.2976507644
  0
VERTEX
  8
LAYER_1
 10
110.6276
 20
41.3873
 42
0.1072356843
  0
VERTEX
  8
LAYER_1
 10
109.9378
 20
41.2478
 42
0.2385874916
  0
VERTEX
  8
LAYER_1
 10
109.1508
 20
40.2422
 42
0.05751786988
  0
VERTEX
  8
LAYER_1
 10
109.1052
 20
39.8122
 42
0.2180663696
  0
VERTEX
  8
LAYER_1
 10
109.6358
 20
38.6168
 42
0.1772758138
  0
VERTEX
  8
LAYER_1
 10
110.5997
 20
38.2912
 42
0.1075185771
  0
VERTEX
  8
LAYER_1
 10
111.2811
 20
38.4302
 42
0.2370926009
  0
VERTEX
  8
LAYER_1
 10
112.0682
 20
39.4298
 42
0.05601310134
  0
SEQEND
  0
ENDBLK
  0
BLOCK
  8
LAYER_1
  2
AIGNBL01040008
 70
64
 10
0
 20
0
 30
0
  3
AIGNBL01040008
  0
POLYLINE
  8
LAYER_1
 40
0.05
 41
0.05
 66
1
 10
0
 20
0
 30
0
 70
1
  0
VERTEX
  8
LAYER_1
 10
114.0855
 20
41.7225
  0
VERTEX
  8
LAYER_1
 10
114.0855
 20
39.4932
 42
0.1145199457
  0
VERTEX
  8
LAYER_1
 10
114.2194
 20
38.8274
 42
0.1464896694
  0
VERTEX
  8
LAYER_1
 10
114.5697
 20
38.4422
 42
0.1362580474
  0
VERTEX
  8
LAYER_1
 10
115.1821
 20
38.2912
 42
0.1219300979
  0
VERTEX
  8
LAYER_1
 10
115.8052
 20
38.4259
 42
0.1503016186
  0
VERTEX
  8
LAYER_1
 10
116.177
 20
38.7949
 42
0.1256239276
  0
VERTEX
  8
LAYER_1
 10
116.3276
 20
39.4932
  0
VERTEX
  8
LAYER_1
 10
116.3276
 20
41.7225
  0
VERTEX
  8
LAYER_1
 10
116.9422
 20
41.7225
  0
VERTEX
  8
LAYER_1
 10
116.9422
 20
39.5266
 42
-0.09997665689
  0
VERTEX
  8
LAYER_1
 10
116.8073
 20
38.7839
 42
-0.1215019174
  0
VERTEX
  8
LAYER_1
 10
116.434
 20
38.2772
 42
-0.1106228669
  0
VERTEX
  8
LAYER_1
 10
115.8085
 20
37.9706
 42
-0.06128517916
  0
VERTEX
  8
LAYER_1
 10
115.161
 20
37.895
 42
-0.09418763513
  0
VERTEX
  8
LAYER_1
 10
114.3419
 20
38.0331
 42
-0.2431628294
  0
VERTEX
  8
LAYER_1
 10
113.5384
 20
38.9438
 42
-0.06320488118
  0
VERTEX
  8
LAYER_1
 10
113.4709
 20
39.5045
  0
VERTEX
  8
LAYER_1
 10
113.4709
 20
41.7225
  0
SEQEND
  0
ENDBLK
  0
BLOCK
  8
LAYER_1
  2
AIGNBL01040009
 70
64
 10
0
 20
0
 30
0
  3
AIGNBL01040009
  0
POLYLINE
  8
LAYER_1
 40
0.05
 41
0.05
 66
1
 10
0
 20
0
 30
0
 70
1
  0
VERTEX
  8
LAYER_1
 10
118.6885
 20
39.1418
  0
VERTEX
  8
LAYER_1
 10
118.1993
 20
37.9567
  0
VERTEX
  8
LAYER_1
 10
117.5712
 20
37.9567
  0
VERTEX
  8
LAYER_1
 10
119.1705
 20
41.7225
  0
VERTEX
  8
LAYER_1
 10
119.9036
 20
41.7225
  0
VERTEX
  8
LAYER_1
 10
121.51
 20
37.9567
  0
VERTEX
  8
LAYER_1
 10
120.8606
 20
37.9567
  0
VERTEX
  8
LAYER_1
 10
120.358
 20
39.1418
  0
SEQEND
  0
POLYLINE
  8
LAYER_1
 40
0.05
 41
0.05
 66
1
 10
0
 20
0
 30
0
 70
1
  0
VERTEX
  8
LAYER_1
 10
120.2319
 20
39.5207
  0
VERTEX
  8
LAYER_1
 10
119.7706
 20
40.6056
  0
VERTEX
  8
LAYER_1
 10
119.526
 20
41.2926
  0
VERTEX
  8
LAYER_1
 10
119.5122
 20
41.2926
  0
VERTEX
  8
LAYER_1
 10
119.2748
 20
40.6101
  0
VERTEX
  8
LAYER_1
 10
118.8139
 20
39.5207
  0
SEQEND
  0
ENDBLK
  0
BLOCK
  8
LAYER_1
  2
AIGNBL0104000A
 70
64
 10
0
 20
0
 30
0
  3
AIGNBL0104000A
  0
POLYLINE
  8
LAYER_1
 40
0.05
 41
0.05
 66
1
 10
0
 20
0
 30
0
 70
1
  0
VERTEX
  8
LAYER_1
 10
122.5508
 20
41.6777
 42
-0.03246092253
  0
VERTEX
  8
LAYER_1
 10
123.7176
 20
41.7508
 42
-0.08084549745
  0
VERTEX
  8
LAYER_1
 10
124.6741
 20
41.619
 42
-0.07819914268
  0
VERTEX
  8
LAYER_1
 10
125.0374
 20
41.4379
 42
-0.2484709269
  0
VERTEX
  8
LAYER_1
 10
125.4491
 20
40.6497
 42
-0.226147
  0
VERTEX
  8
LAYER_1
 10
125.086
 20
39.8456
 42
-0.109727648
  0
VERTEX
  8
LAYER_1
 10
124.4577
 20
39.5323
 42
-0.06565380896
  0
VERTEX
  8
LAYER_1
 10
123.6473
 20
39.4319
 42
-0.06238309955
  0
VERTEX
  8
LAYER_1
 10
123.1588
 20
39.4653
  0
VERTEX
  8
LAYER_1
 10
123.1588
 20
37.9567
  0
VERTEX
  8
LAYER_1
 10
122.5508
 20
37.9567
  0
SEQEND
  0
POLYLINE
  8
LAYER_1
 40
0.05
 41
0.05
 66
1
 10
0
 20
0
 30
0
 70
1
  0
VERTEX
  8
LAYER_1
 10
123.1588
 20
39.8622
 42
0.04203451964
  0
VERTEX
  8
LAYER_1
 10
123.6611
 20
39.8229
 42
0.1032111168
  0
VERTEX
  8
LAYER_1
 10
124.3803
 20
39.9502
 42
0.1555938032
  0
VERTEX
  8
LAYER_1
 10
124.7451
 20
40.2546
 42
0.1352673748
  0
VERTEX
  8
LAYER_1
 10
124.8421
 20
40.6273
 42
0.1737047371
  0
VERTEX
  8
LAYER_1
 10
124.7073
 20
41.0346
 42
0.1517050813
  0
VERTEX
  8
LAYER_1
 10
124.2862
 20
41.2941
 42
0.06879756253
  0
VERTEX
  8
LAYER_1
 10
123.7317
 20
41.3649
 42
0.06336983159
  0
VERTEX
  8
LAYER_1
 10
123.1588
 20
41.3257
  0
SEQEND
  0
ENDBLK
  0
BLOCK
  8
LAYER_1
  2
AIGNBL0104000B
 70
64
 10
0
 20
0
 30
0
  3
AIGNBL0104000B
  0
POLYLINE
  8
LAYER_1
 40
0.05
 41
0.05
 66
1
 10
0
 20
0
 30
0
 70
1
  0
VERTEX
  8
LAYER_1
 10
127.0011
 20
41.4207
 42
-0.2767461975
  0
VERTEX
  8
LAYER_1
 10
126.8616
 20
41.1806
 42
-0.1265294091
  0
VERTEX
  8
LAYER_1
 10
126.6094
 20
41.1189
 42
-0.2237518698
  0
VERTEX
  8
LAYER_1
 10
126.2991
 20
41.2513
 42
-0.1708341408
  0
VERTEX
  8
LAYER_1
 10
126.2391
 20
41.4207
 42
-0.2643879937
  0
VERTEX
  8
LAYER_1
 10
126.3885
 20
41.6678
 42
-0.1290073663
  0
VERTEX
  8
LAYER_1
 10
126.6232
 20
41.7277
 42
-0.225342086
  0
VERTEX
  8
LAYER_1
 10
126.94
 20
41.597
 42
-0.1691136206
  0
SEQEND
  0
POLYLINE
  8
LAYER_1
 40
0.05
 41
0.05
 66
1
 10
0
 20
0
 30
0
 70
1
  0
VERTEX
  8
LAYER_1
 10
126.3156
 20
37.9567
  0
VERTEX
  8
LAYER_1
 10
126.3156
 20
40.6607
  0
VERTEX
  8
LAYER_1
 10
126.9302
 20
40.6607
  0
VERTEX
  8
LAYER_1
 10
126.9302
 20
37.9567
  0
SEQEND
  0
ENDBLK
  0
BLOCK
  8
LAYER_1
  2
AIGNBL0104000C
 70
64
 10
0
 20
0
 30
0
  3
AIGNBL0104000C
  0
POLYLINE
  8
LAYER_1
 40
0.05
 41
0.05
 66
1
 10
0
 20
0
 30
0
 70
1
  0
VERTEX
  8
LAYER_1
 10
128.8019
 20
39.1418
  0
VERTEX
  8
LAYER_1
 10
128.3137
 20
37.9567
  0
VERTEX
  8
LAYER_1
 10
127.6846
 20
37.9567
  0
VERTEX
  8
LAYER_1
 10
129.2842
 20
41.7225
  0
VERTEX
  8
LAYER_1
 10
130.018
 20
41.7225
  0
VERTEX
  8
LAYER_1
 10
131.6245
 20
37.9567
  0
VERTEX
  8
LAYER_1
 10
130.9747
 20
37.9567
  0
VERTEX
  8
LAYER_1
 10
130.4721
 20
39.1418
  0
SEQEND
  0
POLYLINE
  8
LAYER_1
 40
0.05
 41
0.05
 66
1
 10
0
 20
0
 30
0
 70
1
  0
VERTEX
  8
LAYER_1
 10
130.346
 20
39.5207
  0
VERTEX
  8
LAYER_1
 10
129.885
 20
40.6056
  0
VERTEX
  8
LAYER_1
 10
129.6411
 20
41.2926
  0
VERTEX
  8
LAYER_1
 10
129.6263
 20
41.2926
  0
VERTEX
  8
LAYER_1
 10
129.3893
 20
40.6101
  0
VERTEX
  8
LAYER_1
 10
128.9283
 20
39.5207
  0
SEQEND
  0
ENDBLK
  0
BLOCK
  8
LAYER_1
  2
AIGNBL01030005
 70
64
 10
0
 20
0
 30
0
  3
AIGNBL01030005
  0
INSERT
  8
LAYER_1
  2
AIGNBL01040006
 10
0
 20
0
 30
0
  0
INSERT
  8
LAYER_1
  2
AIGNBL01040007
 10
0
 20
0
 30
0
  0
INSERT
  8
LAYER_1
  2
AIGNBL01040008
 10
0
 20
0
 30
0
  0
INSERT
  8
LAYER_1
  2
AIGNBL01040009
 10
0
 20
0
 30
0
  0
INSERT
  8
LAYER_1
  2
AIGNBL0104000A
 10
0
 20
0
 30
0
  0
INSERT
  8
LAYER_1
  2
AIGNBL0104000B
 10
0
 20
0
 30
0
  0
INSERT
  8
LAYER_1
  2
AIGNBL0104000C
 10
0
 20
0
 30
0
  0
ENDBLK
  0
BLOCK
  8
LAYER_1
  2
AIGNBL0103000E
 70
64
 10
0
 20
0
 30
0
  3
AIGNBL0103000E
  0
POLYLINE
  8
LAYER_1
 40
0.05
 41
0.05
 66
1
 10
0
 20
0
 30
0
 70
1
  0
VERTEX
  8
LAYER_1
 10
104.4241
 20
36.0574
  0
VERTEX
  8
LAYER_1
 10
104.9773
 20
36.0574
  0
VERTEX
  8
LAYER_1
 10
104.9773
 20
35.9637
  0
VERTEX
  8
LAYER_1
 10
104.319
 20
35.9637
  0
VERTEX
  8
LAYER_1
 10
104.319
 20
36.9969
  0
VERTEX
  8
LAYER_1
 10
104.9598
 20
36.9969
  0
VERTEX
  8
LAYER_1
 10
104.9598
 20
36.9035
  0
VERTEX
  8
LAYER_1
 10
104.4241
 20
36.9035
  0
VERTEX
  8
LAYER_1
 10
104.4241
 20
36.549
  0
VERTEX
  8
LAYER_1
 10
104.9246
 20
36.549
  0
VERTEX
  8
LAYER_1
 10
104.9246
 20
36.4557
  0
VERTEX
  8
LAYER_1
 10
104.4241
 20
36.4557
  0
SEQEND
  0
ENDBLK
  0
BLOCK
  8
LAYER_1
  2
AIGNBL0103000F
 70
64
 10
0
 20
0
 30
0
  3
AIGNBL0103000F
  0
POLYLINE
  8
LAYER_1
 40
0.05
 41
0.05
 66
1
 10
0
 20
0
 30
0
 70
1
  0
VERTEX
  8
LAYER_1
 10
106.117
 20
36.117
  0
VERTEX
  8
LAYER_1
 10
106.1197
 20
36.117
  0
VERTEX
  8
LAYER_1
 10
106.1197
 20
36.9969
  0
VERTEX
  8
LAYER_1
 10
106.2248
 20
36.9969
  0
VERTEX
  8
LAYER_1
 10
106.2248
 20
35.9637
  0
VERTEX
  8
LAYER_1
 10
106.0939
 20
35.9637
  0
VERTEX
  8
LAYER_1
 10
105.4927
 20
36.8525
  0
VERTEX
  8
LAYER_1
 10
105.4893
 20
36.8525
  0
VERTEX
  8
LAYER_1
 10
105.4893
 20
35.9637
  0
VERTEX
  8
LAYER_1
 10
105.3845
 20
35.9637
  0
VERTEX
  8
LAYER_1
 10
105.3845
 20
36.9969
  0
VERTEX
  8
LAYER_1
 10
105.5158
 20
36.9969
  0
SEQEND
  0
ENDBLK
  0
BLOCK
  8
LAYER_1
  2
AIGNBL01030010
 70
64
 10
0
 20
0
 30
0
  3
AIGNBL01030010
  0
POLYLINE
  8
LAYER_1
 40
0.05
 41
0.05
 66
1
 10
0
 20
0
 30
0
 70
1
  0
VERTEX
  8
LAYER_1
 10
106.6978
 20
36.1756
  0
VERTEX
  8
LAYER_1
 10
106.7523
 20
36.0725
 42
0.1804993832
  0
VERTEX
  8
LAYER_1
 10
106.8656
 20
36.0309
  0
VERTEX
  8
LAYER_1
 10
106.9548
 20
36.0505
  0
VERTEX
  8
LAYER_1
 10
107.011
 20
36.1039
  0
VERTEX
  8
LAYER_1
 10
107.0399
 20
36.1804
  0
VERTEX
  8
LAYER_1
 10
107.0482
 20
36.27
  0
VERTEX
  8
LAYER_1
 10
107.0482
 20
36.9969
  0
VERTEX
  8
LAYER_1
 10
107.1533
 20
36.9969
  0
VERTEX
  8
LAYER_1
 10
107.1533
 20
36.2614
  0
VERTEX
  8
LAYER_1
 10
107.1419
 20
36.1535
  0
VERTEX
  8
LAYER_1
 10
107.1006
 20
36.0485
  0
VERTEX
  8
LAYER_1
 10
107.0158
 20
35.9689
  0
VERTEX
  8
LAYER_1
 10
106.877
 20
35.9375
 42
-0.1845892347
  0
VERTEX
  8
LAYER_1
 10
106.6923
 20
35.9974
 42
-0.176191571
  0
VERTEX
  8
LAYER_1
 10
106.6
 20
36.149
  0
SEQEND
  0
ENDBLK
  0
BLOCK
  8
LAYER_1
  2
AIGNBL01030011
 70
64
 10
0
 20
0
 30
0
  3
AIGNBL01030011
  0
POLYLINE
  8
LAYER_1
 40
0.05
 41
0.05
 66
1
 10
0
 20
0
 30
0
 70
1
  0
VERTEX
  8
LAYER_1
 10
108.6416
 20
36.4805
 42
-0.10394313
  0
VERTEX
  8
LAYER_1
 10
108.6005
 20
36.2631
 42
-0.1002538824
  0
VERTEX
  8
LAYER_1
 10
108.4879
 20
36.0915
  0
VERTEX
  8
LAYER_1
 10
108.317
 20
35.9785
 42
-0.09506675375
  0
VERTEX
  8
LAYER_1
 10
108.1031
 20
35.9375
 42
-0.1010866674
  0
VERTEX
  8
LAYER_1
 10
107.8895
 20
35.9785
 42
-0.1005668876
  0
VERTEX
  8
LAYER_1
 10
107.7186
 20
36.0915
 42
-0.09506076213
  0
VERTEX
  8
LAYER_1
 10
107.6053
 20
36.2631
 42
-0.09316585798
  0
VERTEX
  8
LAYER_1
 10
107.5646
 20
36.4805
 42
-0.1029152058
  0
VERTEX
  8
LAYER_1
 10
107.6053
 20
36.6978
 42
-0.1008913794
  0
VERTEX
  8
LAYER_1
 10
107.7186
 20
36.8694
 42
-0.09625543395
  0
VERTEX
  8
LAYER_1
 10
107.8895
 20
36.9824
 42
-0.09521573462
  0
VERTEX
  8
LAYER_1
 10
108.1031
 20
37.0234
 42
-0.101175466
  0
VERTEX
  8
LAYER_1
 10
108.317
 20
36.9824
 42
-0.09853409661
  0
VERTEX
  8
LAYER_1
 10
108.4879
 20
36.8694
 42
-0.09556553869
  0
VERTEX
  8
LAYER_1
 10
108.6005
 20
36.6978
 42
-0.09420719768
  0
SEQEND
  0
POLYLINE
  8
LAYER_1
 40
0.05
 41
0.05
 66
1
 10
0
 20
0
 30
0
 70
1
  0
VERTEX
  8
LAYER_1
 10
108.5306
 20
36.4798
  0
VERTEX
  8
LAYER_1
 10
108.5017
 20
36.6517
  0
VERTEX
  8
LAYER_1
 10
108.4169
 20
36.795
  0
VERTEX
  8
LAYER_1
 10
108.2819
 20
36.8932
  0
VERTEX
  8
LAYER_1
 10
108.1031
 20
36.93
  0
VERTEX
  8
LAYER_1
 10
107.9243
 20
36.8932
  0
VERTEX
  8
LAYER_1
 10
107.7896
 20
36.795
  0
VERTEX
  8
LAYER_1
 10
107.7048
 20
36.6517
  0
VERTEX
  8
LAYER_1
 10
107.6755
 20
36.4798
  0
VERTEX
  8
LAYER_1
 10
107.7048
 20
36.3079
  0
VERTEX
  8
LAYER_1
 10
107.7896
 20
36.1649
  0
VERTEX
  8
LAYER_1
 10
107.9243
 20
36.0674
 42
0.1008280473
  0
VERTEX
  8
LAYER_1
 10
108.1031
 20
36.0309
  0
VERTEX
  8
LAYER_1
 10
108.2819
 20
36.0674
  0
VERTEX
  8
LAYER_1
 10
108.4169
 20
36.1649
  0
VERTEX
  8
LAYER_1
 10
108.5017
 20
36.3079
  0
SEQEND
  0
ENDBLK
  0
BLOCK
  8
LAYER_1
  2
AIGNBL01030012
 70
64
 10
0
 20
0
 30
0
  3
AIGNBL01030012
  0
POLYLINE
  8
LAYER_1
 40
0.05
 41
0.05
 66
1
 10
0
 20
0
 30
0
 70
1
  0
VERTEX
  8
LAYER_1
 10
109.4163
 20
35.9637
  0
VERTEX
  8
LAYER_1
 10
109.3116
 20
35.9637
  0
VERTEX
  8
LAYER_1
 10
109.3116
 20
36.4091
  0
VERTEX
  8
LAYER_1
 10
108.9247
 20
36.9969
  0
VERTEX
  8
LAYER_1
 10
109.056
 20
36.9969
  0
VERTEX
  8
LAYER_1
 10
109.3671
 20
36.4967
  0
VERTEX
  8
LAYER_1
 10
109.6806
 20
36.9969
  0
VERTEX
  8
LAYER_1
 10
109.8029
 20
36.9969
  0
VERTEX
  8
LAYER_1
 10
109.4163
 20
36.4091
  0
SEQEND
  0
ENDBLK
  0
BLOCK
  8
LAYER_1
  2
AIGNBL01030013
 70
64
 10
0
 20
0
 30
0
  3
AIGNBL01030013
  0
POLYLINE
  8
LAYER_1
 40
0.05
 41
0.05
 66
1
 10
0
 20
0
 30
0
 70
1
  0
VERTEX
  8
LAYER_1
 10
110.7079
 20
36.9969
  0
VERTEX
  8
LAYER_1
 10
111.0155
 20
36.9969
  0
VERTEX
  8
LAYER_1
 10
111.1341
 20
36.9845
  0
VERTEX
  8
LAYER_1
 10
111.2409
 20
36.9421
  0
VERTEX
  8
LAYER_1
 10
111.3187
 20
36.8611
  0
VERTEX
  8
LAYER_1
 10
111.3483
 20
36.733
 42
-0.1790346201
  0
VERTEX
  8
LAYER_1
 10
111.2984
 20
36.5907
 42
-0.1642259289
  0
VERTEX
  8
LAYER_1
 10
111.1651
 20
36.5111
  0
VERTEX
  8
LAYER_1
 10
111.1651
 20
36.5084
 42
-0.1734673322
  0
VERTEX
  8
LAYER_1
 10
111.3318
 20
36.4302
 42
-0.1921994171
  0
VERTEX
  8
LAYER_1
 10
111.3979
 20
36.2496
  0
VERTEX
  8
LAYER_1
 10
111.3708
 20
36.1325
  0
VERTEX
  8
LAYER_1
 10
111.2946
 20
36.0419
  0
VERTEX
  8
LAYER_1
 10
111.1737
 20
35.9844
  0
VERTEX
  8
LAYER_1
 10
111.0138
 20
35.9637
  0
VERTEX
  8
LAYER_1
 10
110.7079
 20
35.9637
  0
SEQEND
  0
POLYLINE
  8
LAYER_1
 40
0.05
 41
0.05
 66
1
 10
0
 20
0
 30
0
 70
1
  0
VERTEX
  8
LAYER_1
 10
110.813
 20
36.5445
  0
VERTEX
  8
LAYER_1
 10
111.0245
 20
36.5445
  0
VERTEX
  8
LAYER_1
 10
111.1013
 20
36.5535
  0
VERTEX
  8
LAYER_1
 10
111.1716
 20
36.5831
  0
VERTEX
  8
LAYER_1
 10
111.2236
 20
36.6396
  0
VERTEX
  8
LAYER_1
 10
111.2433
 20
36.7258
  0
VERTEX
  8
LAYER_1
 10
111.2236
 20
36.8095
  0
VERTEX
  8
LAYER_1
 10
111.1706
 20
36.8656
  0
VERTEX
  8
LAYER_1
 10
111.0917
 20
36.897
  0
VERTEX
  8
LAYER_1
 10
110.9952
 20
36.9066
  0
VERTEX
  8
LAYER_1
 10
110.813
 20
36.9066
  0
SEQEND
  0
POLYLINE
  8
LAYER_1
 40
0.05
 41
0.05
 66
1
 10
0
 20
0
 30
0
 70
1
  0
VERTEX
  8
LAYER_1
 10
110.813
 20
36.0543
  0
VERTEX
  8
LAYER_1
 10
111.0087
 20
36.0543
  0
VERTEX
  8
LAYER_1
 10
111.1172
 20
36.0653
  0
VERTEX
  8
LAYER_1
 10
111.2078
 20
36.1001
  0
VERTEX
  8
LAYER_1
 10
111.2695
 20
36.1632
  0
VERTEX
  8
LAYER_1
 10
111.2929
 20
36.2559
 42
0.2557371221
  0
VERTEX
  8
LAYER_1
 10
111.2236
 20
36.4081
 42
0.1381508151
  0
VERTEX
  8
LAYER_1
 10
111.0276
 20
36.4584
  0
VERTEX
  8
LAYER_1
 10
110.813
 20
36.4584
  0
SEQEND
  0
ENDBLK
  0
BLOCK
  8
LAYER_1
  2
AIGNBL01030014
 70
64
 10
0
 20
0
 30
0
  3
AIGNBL01030014
  0
POLYLINE
  8
LAYER_1
 40
0.05
 41
0.05
 66
1
 10
0
 20
0
 30
0
 70
1
  0
VERTEX
  8
LAYER_1
 10
111.83
 20
35.9637
  0
VERTEX
  8
LAYER_1
 10
111.7146
 20
35.9637
  0
VERTEX
  8
LAYER_1
 10
112.1614
 20
36.9969
  0
VERTEX
  8
LAYER_1
 10
112.2637
 20
36.9969
  0
VERTEX
  8
LAYER_1
 10
112.7071
 20
35.9637
  0
VERTEX
  8
LAYER_1
 10
112.5903
 20
35.9637
  0
VERTEX
  8
LAYER_1
 10
112.4763
 20
36.2352
  0
VERTEX
  8
LAYER_1
 10
111.9423
 20
36.2352
  0
SEQEND
  0
POLYLINE
  8
LAYER_1
 40
0.05
 41
0.05
 66
1
 10
0
 20
0
 30
0
 70
1
  0
VERTEX
  8
LAYER_1
 10
111.9815
 20
36.3316
  0
VERTEX
  8
LAYER_1
 10
112.437
 20
36.3316
  0
VERTEX
  8
LAYER_1
 10
112.2093
 20
36.8804
  0
SEQEND
  0
ENDBLK
  0
BLOCK
  8
LAYER_1
  2
AIGNBL01030015
 70
64
 10
0
 20
0
 30
0
  3
AIGNBL01030015
  0
POLYLINE
  8
LAYER_1
 40
0.05
 41
0.05
 66
1
 10
0
 20
0
 30
0
 70
1
  0
VERTEX
  8
LAYER_1
 10
113.3916
 20
35.9637
  0
VERTEX
  8
LAYER_1
 10
113.2865
 20
35.9637
  0
VERTEX
  8
LAYER_1
 10
113.2865
 20
36.9035
  0
VERTEX
  8
LAYER_1
 10
112.9403
 20
36.9035
  0
VERTEX
  8
LAYER_1
 10
112.9403
 20
36.9969
  0
VERTEX
  8
LAYER_1
 10
113.7372
 20
36.9969
  0
VERTEX
  8
LAYER_1
 10
113.7372
 20
36.9035
  0
VERTEX
  8
LAYER_1
 10
113.3916
 20
36.9035
  0
SEQEND
  0
ENDBLK
  0
BLOCK
  8
LAYER_1
  2
AIGNBL01030016
 70
64
 10
0
 20
0
 30
0
  3
AIGNBL01030016
  0
POLYLINE
  8
LAYER_1
 40
0.05
 41
0.05
 66
1
 10
0
 20
0
 30
0
 70
1
  0
VERTEX
  8
LAYER_1
 10
114.0934
 20
36.9969
  0
VERTEX
  8
LAYER_1
 10
114.1981
 20
36.9969
  0
VERTEX
  8
LAYER_1
 10
114.1981
 20
36.549
  0
VERTEX
  8
LAYER_1
 10
114.7618
 20
36.549
  0
VERTEX
  8
LAYER_1
 10
114.7618
 20
36.9969
  0
VERTEX
  8
LAYER_1
 10
114.8668
 20
36.9969
  0
VERTEX
  8
LAYER_1
 10
114.8668
 20
35.9637
  0
VERTEX
  8
LAYER_1
 10
114.7618
 20
35.9637
  0
VERTEX
  8
LAYER_1
 10
114.7618
 20
36.4529
  0
VERTEX
  8
LAYER_1
 10
114.1981
 20
36.4529
  0
VERTEX
  8
LAYER_1
 10
114.1981
 20
35.9637
  0
VERTEX
  8
LAYER_1
 10
114.0934
 20
35.9637
  0
SEQEND
  0
ENDBLK
  0
BLOCK
  8
LAYER_1
  2
AIGNBL01030017
 70
64
 10
0
 20
0
 30
0
  3
AIGNBL01030017
  0
POLYLINE
  8
LAYER_1
 40
0.05
 41
0.05
 66
1
 10
0
 20
0
 30
0
 70
1
  0
VERTEX
  8
LAYER_1
 10
115.4473
 20
35.9637
  0
VERTEX
  8
LAYER_1
 10
115.3423
 20
35.9637
  0
VERTEX
  8
LAYER_1
 10
115.3423
 20
36.9969
  0
VERTEX
  8
LAYER_1
 10
115.6461
 20
36.9969
  0
VERTEX
  8
LAYER_1
 10
115.7867
 20
36.9824
  0
VERTEX
  8
LAYER_1
 10
115.8993
 20
36.9349
  0
VERTEX
  8
LAYER_1
 10
115.9727
 20
36.8494
  0
VERTEX
  8
LAYER_1
 10
115.9989
 20
36.7213
  0
VERTEX
  8
LAYER_1
 10
115.9789
 20
36.6176
  0
VERTEX
  8
LAYER_1
 10
115.9235
 20
36.5366
  0
VERTEX
  8
LAYER_1
 10
115.8401
 20
36.4818
  0
VERTEX
  8
LAYER_1
 10
115.735
 20
36.4557
  0
VERTEX
  8
LAYER_1
 10
116.0371
 20
35.9637
  0
VERTEX
  8
LAYER_1
 10
115.9086
 20
35.9637
  0
VERTEX
  8
LAYER_1
 10
115.6227
 20
36.4467
  0
VERTEX
  8
LAYER_1
 10
115.4473
 20
36.4467
  0
SEQEND
  0
POLYLINE
  8
LAYER_1
 40
0.05
 41
0.05
 66
1
 10
0
 20
0
 30
0
 70
1
  0
VERTEX
  8
LAYER_1
 10
115.4473
 20
36.5373
  0
VERTEX
  8
LAYER_1
 10
115.6299
 20
36.5373
 42
0.1654500383
  0
VERTEX
  8
LAYER_1
 10
115.8256
 20
36.5831
 42
0.2503949893
  0
VERTEX
  8
LAYER_1
 10
115.8942
 20
36.7213
  0
VERTEX
  8
LAYER_1
 10
115.8749
 20
36.8071
  0
VERTEX
  8
LAYER_1
 10
115.8225
 20
36.8643
  0
VERTEX
  8
LAYER_1
 10
115.7409
 20
36.8963
  0
VERTEX
  8
LAYER_1
 10
115.6344
 20
36.9066
  0
VERTEX
  8
LAYER_1
 10
115.4473
 20
36.9066
  0
SEQEND
  0
ENDBLK
  0
BLOCK
  8
LAYER_1
  2
AIGNBL01030018
 70
64
 10
0
 20
0
 30
0
  3
AIGNBL01030018
  0
POLYLINE
  8
LAYER_1
 40
0.05
 41
0.05
 66
1
 10
0
 20
0
 30
0
 70
1
  0
VERTEX
  8
LAYER_1
 10
117.4393
 20
36.4805
 42
-0.1005163161
  0
VERTEX
  8
LAYER_1
 10
117.3986
 20
36.2631
 42
-0.1003846159
  0
VERTEX
  8
LAYER_1
 10
117.2853
 20
36.0915
 42
-0.09584766738
  0
VERTEX
  8
LAYER_1
 10
117.1147
 20
35.9785
 42
-0.09506713234
  0
VERTEX
  8
LAYER_1
 10
116.9008
 20
35.9375
 42
-0.101175466
  0
VERTEX
  8
LAYER_1
 10
116.6869
 20
35.9785
 42
-0.09967088569
  0
VERTEX
  8
LAYER_1
 10
116.5163
 20
36.0915
 42
-0.09574135652
  0
VERTEX
  8
LAYER_1
 10
116.4033
 20
36.2631
 42
-0.09293305267
  0
VERTEX
  8
LAYER_1
 10
116.3627
 20
36.4805
 42
-0.1024980643
  0
VERTEX
  8
LAYER_1
 10
116.4033
 20
36.6978
 42
-0.1015030268
  0
VERTEX
  8
LAYER_1
 10
116.5163
 20
36.8694
 42
-0.09577113234
  0
VERTEX
  8
LAYER_1
 10
116.6869
 20
36.9824
 42
-0.09506675375
  0
VERTEX
  8
LAYER_1
 10
116.9008
 20
37.0234
 42
-0.1014233705
  0
VERTEX
  8
LAYER_1
 10
117.1147
 20
36.9824
 42
-0.1017041996
  0
VERTEX
  8
LAYER_1
 10
117.2853
 20
36.8694
 42
-0.09506500802
  0
VERTEX
  8
LAYER_1
 10
117.3986
 20
36.6978
 42
-0.09299771213
  0
SEQEND
  0
POLYLINE
  8
LAYER_1
 40
0.05
 41
0.05
 66
1
 10
0
 20
0
 30
0
 70
1
  0
VERTEX
  8
LAYER_1
 10
117.3284
 20
36.4798
  0
VERTEX
  8
LAYER_1
 10
117.2991
 20
36.6517
  0
VERTEX
  8
LAYER_1
 10
117.2143
 20
36.795
  0
VERTEX
  8
LAYER_1
 10
117.0796
 20
36.8932
  0
VERTEX
  8
LAYER_1
 10
116.9008
 20
36.93
  0
VERTEX
  8
LAYER_1
 10
116.722
 20
36.8932
  0
VERTEX
  8
LAYER_1
 10
116.587
 20
36.795
  0
VERTEX
  8
LAYER_1
 10
116.5022
 20
36.6517
  0
VERTEX
  8
LAYER_1
 10
116.4733
 20
36.4798
  0
VERTEX
  8
LAYER_1
 10
116.5022
 20
36.3079
  0
VERTEX
  8
LAYER_1
 10
116.587
 20
36.1649
  0
VERTEX
  8
LAYER_1
 10
116.722
 20
36.0674
  0
VERTEX
  8
LAYER_1
 10
116.9008
 20
36.0309
 42
0.1157330551
  0
VERTEX
  8
LAYER_1
 10
117.0796
 20
36.0674
  0
VERTEX
  8
LAYER_1
 10
117.2143
 20
36.1649
  0
VERTEX
  8
LAYER_1
 10
117.2991
 20
36.3079
  0
SEQEND
  0
ENDBLK
  0
BLOCK
  8
LAYER_1
  2
AIGNBL01030019
 70
64
 10
0
 20
0
 30
0
  3
AIGNBL01030019
  0
POLYLINE
  8
LAYER_1
 40
0.05
 41
0.05
 66
1
 10
0
 20
0
 30
0
 70
1
  0
VERTEX
  8
LAYER_1
 10
118.881
 20
36.4805
 42
-0.1041417444
  0
VERTEX
  8
LAYER_1
 10
118.84
 20
36.2631
 42
-0.1002538824
  0
VERTEX
  8
LAYER_1
 10
118.7274
 20
36.0915
 42
-0.09536265516
  0
VERTEX
  8
LAYER_1
 10
118.5565
 20
35.9785
 42
-0.09506675375
  0
VERTEX
  8
LAYER_1
 10
118.3426
 20
35.9375
 42
-0.101822328
  0
VERTEX
  8
LAYER_1
 10
118.129
 20
35.9785
 42
-0.102112669
  0
VERTEX
  8
LAYER_1
 10
117.9581
 20
36.0915
 42
-0.09462334812
  0
VERTEX
  8
LAYER_1
 10
117.8447
 20
36.2631
 42
-0.09290316602
  0
VERTEX
  8
LAYER_1
 10
117.8041
 20
36.4805
 42
-0.1018782207
  0
VERTEX
  8
LAYER_1
 10
117.8447
 20
36.6978
 42
-0.1006850025
  0
VERTEX
  8
LAYER_1
 10
117.9581
 20
36.8694
 42
-0.09625543395
  0
VERTEX
  8
LAYER_1
 10
118.129
 20
36.9824
 42
-0.09528409444
  0
VERTEX
  8
LAYER_1
 10
118.3426
 20
37.0234
 42
-0.101175466
  0
VERTEX
  8
LAYER_1
 10
118.5565
 20
36.9824
 42
-0.09853409661
  0
VERTEX
  8
LAYER_1
 10
118.7274
 20
36.8694
 42
-0.09556553869
  0
VERTEX
  8
LAYER_1
 10
118.84
 20
36.6978
 42
-0.09400765476
  0
SEQEND
  0
POLYLINE
  8
LAYER_1
 40
0.05
 41
0.05
 66
1
 10
0
 20
0
 30
0
 70
1
  0
VERTEX
  8
LAYER_1
 10
118.7701
 20
36.4798
  0
VERTEX
  8
LAYER_1
 10
118.7412
 20
36.6517
  0
VERTEX
  8
LAYER_1
 10
118.6564
 20
36.795
  0
VERTEX
  8
LAYER_1
 10
118.5214
 20
36.8932
  0
VERTEX
  8
LAYER_1
 10
118.3426
 20
36.93
  0
VERTEX
  8
LAYER_1
 10
118.1638
 20
36.8932
  0
VERTEX
  8
LAYER_1
 10
118.0291
 20
36.795
  0
VERTEX
  8
LAYER_1
 10
117.9443
 20
36.6517
  0
VERTEX
  8
LAYER_1
 10
117.9151
 20
36.4798
  0
VERTEX
  8
LAYER_1
 10
117.9443
 20
36.3079
  0
VERTEX
  8
LAYER_1
 10
118.0291
 20
36.1649
  0
VERTEX
  8
LAYER_1
 10
118.1638
 20
36.0674
 42
0.1008280473
  0
VERTEX
  8
LAYER_1
 10
118.3426
 20
36.0309
  0
VERTEX
  8
LAYER_1
 10
118.5214
 20
36.0674
  0
VERTEX
  8
LAYER_1
 10
118.6564
 20
36.1649
  0
VERTEX
  8
LAYER_1
 10
118.7412
 20
36.3079
  0
SEQEND
  0
ENDBLK
  0
BLOCK
  8
LAYER_1
  2
AIGNBL0103001A
 70
64
 10
0
 20
0
 30
0
  3
AIGNBL0103001A
  0
POLYLINE
  8
LAYER_1
 40
0.05
 41
0.05
 66
1
 10
0
 20
0
 30
0
 70
1
  0
VERTEX
  8
LAYER_1
 10
119.8119
 20
36.1418
  0
VERTEX
  8
LAYER_1
 10
119.8136
 20
36.1418
  0
VERTEX
  8
LAYER_1
 10
120.1592
 20
36.9969
  0
VERTEX
  8
LAYER_1
 10
120.3201
 20
36.9969
  0
VERTEX
  8
LAYER_1
 10
120.3201
 20
35.9637
  0
VERTEX
  8
LAYER_1
 10
120.2146
 20
35.9637
  0
VERTEX
  8
LAYER_1
 10
120.2146
 20
36.8611
  0
VERTEX
  8
LAYER_1
 10
120.2119
 20
36.8611
  0
VERTEX
  8
LAYER_1
 10
119.8384
 20
35.9637
  0
VERTEX
  8
LAYER_1
 10
119.783
 20
35.9637
  0
VERTEX
  8
LAYER_1
 10
119.4092
 20
36.8611
  0
VERTEX
  8
LAYER_1
 10
119.4064
 20
36.8611
  0
VERTEX
  8
LAYER_1
 10
119.4064
 20
35.9637
  0
VERTEX
  8
LAYER_1
 10
119.3014
 20
35.9637
  0
VERTEX
  8
LAYER_1
 10
119.3014
 20
36.9969
  0
VERTEX
  8
LAYER_1
 10
119.4619
 20
36.9969
  0
SEQEND
  0
ENDBLK
  0
BLOCK
  8
LAYER_1
  2
AIGNBL0103001B
 70
64
 10
0
 20
0
 30
0
  3
AIGNBL0103001B
  0
POLYLINE
  8
LAYER_1
 40
0.05
 41
0.05
 66
1
 10
0
 20
0
 30
0
 70
1
  0
VERTEX
  8
LAYER_1
 10
121.4666
 20
36.0574
  0
VERTEX
  8
LAYER_1
 10
122.0199
 20
36.0574
  0
VERTEX
  8
LAYER_1
 10
122.0199
 20
35.9637
  0
VERTEX
  8
LAYER_1
 10
121.3615
 20
35.9637
  0
VERTEX
  8
LAYER_1
 10
121.3615
 20
36.9969
  0
VERTEX
  8
LAYER_1
 10
122.0023
 20
36.9969
  0
VERTEX
  8
LAYER_1
 10
122.0023
 20
36.9035
  0
VERTEX
  8
LAYER_1
 10
121.4666
 20
36.9035
  0
VERTEX
  8
LAYER_1
 10
121.4666
 20
36.549
  0
VERTEX
  8
LAYER_1
 10
121.9672
 20
36.549
  0
VERTEX
  8
LAYER_1
 10
121.9672
 20
36.4557
  0
VERTEX
  8
LAYER_1
 10
121.4666
 20
36.4557
  0
SEQEND
  0
ENDBLK
  0
BLOCK
  8
LAYER_1
  2
AIGNBL0103001C
 70
64
 10
0
 20
0
 30
0
  3
AIGNBL0103001C
  0
POLYLINE
  8
LAYER_1
 40
0.05
 41
0.05
 66
1
 10
0
 20
0
 30
0
 70
1
  0
VERTEX
  8
LAYER_1
 10
122.765
 20
36.5797
  0
VERTEX
  8
LAYER_1
 10
123.0472
 20
36.9969
  0
VERTEX
  8
LAYER_1
 10
123.1723
 20
36.9969
  0
VERTEX
  8
LAYER_1
 10
122.8298
 20
36.5053
  0
VERTEX
  8
LAYER_1
 10
123.2091
 20
35.9637
  0
VERTEX
  8
LAYER_1
 10
123.0779
 20
35.9637
  0
VERTEX
  8
LAYER_1
 10
122.7623
 20
36.4295
  0
VERTEX
  8
LAYER_1
 10
122.4488
 20
35.9637
  0
VERTEX
  8
LAYER_1
 10
122.3172
 20
35.9637
  0
VERTEX
  8
LAYER_1
 10
122.6969
 20
36.5066
  0
VERTEX
  8
LAYER_1
 10
122.351
 20
36.9969
  0
VERTEX
  8
LAYER_1
 10
122.4825
 20
36.9969
  0
SEQEND
  0
ENDBLK
  0
BLOCK
  8
LAYER_1
  2
AIGNBL0103001D
 70
64
 10
0
 20
0
 30
0
  3
AIGNBL0103001D
  0
POLYLINE
  8
LAYER_1
 40
0.05
 41
0.05
 66
1
 10
0
 20
0
 30
0
 70
1
  0
VERTEX
  8
LAYER_1
 10
123.5753
 20
36.9969
  0
VERTEX
  8
LAYER_1
 10
123.8675
 20
36.9969
  0
VERTEX
  8
LAYER_1
 10
124.0105
 20
36.9804
  0
VERTEX
  8
LAYER_1
 10
124.1203
 20
36.929
  0
VERTEX
  8
LAYER_1
 10
124.1913
 20
36.8429
  0
VERTEX
  8
LAYER_1
 10
124.2158
 20
36.7213
  0
VERTEX
  8
LAYER_1
 10
124.1906
 20
36.5993
  0
VERTEX
  8
LAYER_1
 10
124.119
 20
36.5132
  0
VERTEX
  8
LAYER_1
 10
124.0081
 20
36.4615
  0
VERTEX
  8
LAYER_1
 10
123.8644
 20
36.444
  0
VERTEX
  8
LAYER_1
 10
123.6804
 20
36.444
  0
VERTEX
  8
LAYER_1
 10
123.6804
 20
35.9637
  0
VERTEX
  8
LAYER_1
 10
123.5753
 20
35.9637
  0
SEQEND
  0
POLYLINE
  8
LAYER_1
 40
0.05
 41
0.05
 66
1
 10
0
 20
0
 30
0
 70
1
  0
VERTEX
  8
LAYER_1
 10
123.6804
 20
36.5328
  0
VERTEX
  8
LAYER_1
 10
123.8582
 20
36.5328
 42
0.1829203509
  0
VERTEX
  8
LAYER_1
 10
124.0466
 20
36.581
 42
0.2345943979
  0
VERTEX
  8
LAYER_1
 10
124.111
 20
36.7213
 42
0.2650437466
  0
VERTEX
  8
LAYER_1
 10
124.0446
 20
36.8622
 42
0.1264027561
  0
VERTEX
  8
LAYER_1
 10
123.8582
 20
36.9066
  0
VERTEX
  8
LAYER_1
 10
123.6804
 20
36.9066
  0
SEQEND
  0
ENDBLK
  0
BLOCK
  8
LAYER_1
  2
AIGNBL0103001E
 70
64
 10
0
 20
0
 30
0
  3
AIGNBL0103001E
  0
POLYLINE
  8
LAYER_1
 40
0.05
 41
0.05
 66
1
 10
0
 20
0
 30
0
 70
1
  0
VERTEX
  8
LAYER_1
 10
124.7281
 20
36.0574
  0
VERTEX
  8
LAYER_1
 10
125.2813
 20
36.0574
  0
VERTEX
  8
LAYER_1
 10
125.2813
 20
35.9637
  0
VERTEX
  8
LAYER_1
 10
124.623
 20
35.9637
  0
VERTEX
  8
LAYER_1
 10
124.623
 20
36.9969
  0
VERTEX
  8
LAYER_1
 10
125.2638
 20
36.9969
  0
VERTEX
  8
LAYER_1
 10
125.2638
 20
36.9035
  0
VERTEX
  8
LAYER_1
 10
124.7281
 20
36.9035
  0
VERTEX
  8
LAYER_1
 10
124.7281
 20
36.549
  0
VERTEX
  8
LAYER_1
 10
125.2286
 20
36.549
  0
VERTEX
  8
LAYER_1
 10
125.2286
 20
36.4557
  0
VERTEX
  8
LAYER_1
 10
124.7281
 20
36.4557
  0
SEQEND
  0
ENDBLK
  0
BLOCK
  8
LAYER_1
  2
AIGNBL0103001F
 70
64
 10
0
 20
0
 30
0
  3
AIGNBL0103001F
  0
POLYLINE
  8
LAYER_1
 40
0.05
 41
0.05
 66
1
 10
0
 20
0
 30
0
 70
1
  0
VERTEX
  8
LAYER_1
 10
125.7933
 20
35.9637
  0
VERTEX
  8
LAYER_1
 10
125.6882
 20
35.9637
  0
VERTEX
  8
LAYER_1
 10
125.6882
 20
36.9969
  0
VERTEX
  8
LAYER_1
 10
125.9921
 20
36.9969
  0
VERTEX
  8
LAYER_1
 10
126.1326
 20
36.9824
  0
VERTEX
  8
LAYER_1
 10
126.2453
 20
36.9349
  0
VERTEX
  8
LAYER_1
 10
126.319
 20
36.8494
  0
VERTEX
  8
LAYER_1
 10
126.3449
 20
36.7213
  0
VERTEX
  8
LAYER_1
 10
126.3249
 20
36.6176
  0
VERTEX
  8
LAYER_1
 10
126.2694
 20
36.5366
  0
VERTEX
  8
LAYER_1
 10
126.186
 20
36.4818
  0
VERTEX
  8
LAYER_1
 10
126.0809
 20
36.4557
  0
VERTEX
  8
LAYER_1
 10
126.3831
 20
35.9637
  0
VERTEX
  8
LAYER_1
 10
126.2546
 20
35.9637
  0
VERTEX
  8
LAYER_1
 10
125.9687
 20
36.4467
  0
VERTEX
  8
LAYER_1
 10
125.7933
 20
36.4467
  0
SEQEND
  0
POLYLINE
  8
LAYER_1
 40
0.05
 41
0.05
 66
1
 10
0
 20
0
 30
0
 70
1
  0
VERTEX
  8
LAYER_1
 10
125.7933
 20
36.5373
  0
VERTEX
  8
LAYER_1
 10
125.9759
 20
36.5373
 42
0.1663801652
  0
VERTEX
  8
LAYER_1
 10
126.1716
 20
36.5831
 42
0.2503091692
  0
VERTEX
  8
LAYER_1
 10
126.2401
 20
36.7213
  0
VERTEX
  8
LAYER_1
 10
126.2212
 20
36.8071
  0
VERTEX
  8
LAYER_1
 10
126.1685
 20
36.8643
  0
VERTEX
  8
LAYER_1
 10
126.0868
 20
36.8963
  0
VERTEX
  8
LAYER_1
 10
125.9804
 20
36.9066
  0
VERTEX
  8
LAYER_1
 10
125.7933
 20
36.9066
  0
SEQEND
  0
ENDBLK
  0
BLOCK
  8
LAYER_1
  2
AIGNBL01030020
 70
64
 10
0
 20
0
 30
0
  3
AIGNBL01030020
  0
POLYLINE
  8
LAYER_1
 40
0.05
 41
0.05
 66
1
 10
0
 20
0
 30
0
 70
1
  0
VERTEX
  8
LAYER_1
 10
126.8688
 20
35.9637
  0
VERTEX
  8
LAYER_1
 10
126.7641
 20
35.9637
  0
VERTEX
  8
LAYER_1
 10
126.7641
 20
36.9969
  0
VERTEX
  8
LAYER_1
 10
126.8688
 20
36.9969
  0
SEQEND
  0
ENDBLK
  0
BLOCK
  8
LAYER_1
  2
AIGNBL01030021
 70
64
 10
0
 20
0
 30
0
  3
AIGNBL01030021
  0
POLYLINE
  8
LAYER_1
 40
0.05
 41
0.05
 66
1
 10
0
 20
0
 30
0
 70
1
  0
VERTEX
  8
LAYER_1
 10
127.4497
 20
36.0574
  0
VERTEX
  8
LAYER_1
 10
128.0026
 20
36.0574
  0
VERTEX
  8
LAYER_1
 10
128.0026
 20
35.9637
  0
VERTEX
  8
LAYER_1
 10
127.3446
 20
35.9637
  0
VERTEX
  8
LAYER_1
 10
127.3446
 20
36.9969
  0
VERTEX
  8
LAYER_1
 10
127.9854
 20
36.9969
  0
VERTEX
  8
LAYER_1
 10
127.9854
 20
36.9035
  0
VERTEX
  8
LAYER_1
 10
127.4497
 20
36.9035
  0
VERTEX
  8
LAYER_1
 10
127.4497
 20
36.549
  0
VERTEX
  8
LAYER_1
 10
127.9503
 20
36.549
  0
VERTEX
  8
LAYER_1
 10
127.9503
 20
36.4557
  0
VERTEX
  8
LAYER_1
 10
127.4497
 20
36.4557
  0
SEQEND
  0
ENDBLK
  0
BLOCK
  8
LAYER_1
  2
AIGNBL01030022
 70
64
 10
0
 20
0
 30
0
  3
AIGNBL01030022
  0
POLYLINE
  8
LAYER_1
 40
0.05
 41
0.05
 66
1
 10
0
 20
0
 30
0
 70
1
  0
VERTEX
  8
LAYER_1
 10
129.1426
 20
36.117
  0
VERTEX
  8
LAYER_1
 10
129.1454
 20
36.117
  0
VERTEX
  8
LAYER_1
 10
129.1454
 20
36.9969
  0
VERTEX
  8
LAYER_1
 10
129.2504
 20
36.9969
  0
VERTEX
  8
LAYER_1
 10
129.2504
 20
35.9637
  0
VERTEX
  8
LAYER_1
 10
129.1192
 20
35.9637
  0
VERTEX
  8
LAYER_1
 10
128.518
 20
36.8525
  0
VERTEX
  8
LAYER_1
 10
128.5149
 20
36.8525
  0
VERTEX
  8
LAYER_1
 10
128.5149
 20
35.9637
  0
VERTEX
  8
LAYER_1
 10
128.4098
 20
35.9637
  0
VERTEX
  8
LAYER_1
 10
128.4098
 20
36.9969
  0
VERTEX
  8
LAYER_1
 10
128.5414
 20
36.9969
  0
SEQEND
  0
ENDBLK
  0
BLOCK
  8
LAYER_1
  2
AIGNBL01030023
 70
64
 10
0
 20
0
 30
0
  3
AIGNBL01030023
  0
POLYLINE
  8
LAYER_1
 40
0.05
 41
0.05
 66
1
 10
0
 20
0
 30
0
 70
1
  0
VERTEX
  8
LAYER_1
 10
130.5961
 20
36.1315
  0
VERTEX
  8
LAYER_1
 10
130.5324
 20
36.0571
  0
VERTEX
  8
LAYER_1
 10
130.4463
 20
35.9954
  0
VERTEX
  8
LAYER_1
 10
130.3381
 20
35.953
  0
VERTEX
  8
LAYER_1
 10
130.2092
 20
35.9375
 42
-0.1009408553
  0
VERTEX
  8
LAYER_1
 10
129.9932
 20
35.9785
 42
-0.1036559164
  0
VERTEX
  8
LAYER_1
 10
129.8227
 20
36.0915
 42
-0.09812017057
  0
VERTEX
  8
LAYER_1
 10
129.7111
 20
36.2631
 42
-0.09255697562
  0
VERTEX
  8
LAYER_1
 10
129.6707
 20
36.4805
 42
-0.1035456296
  0
VERTEX
  8
LAYER_1
 10
129.7117
 20
36.6978
 42
-0.1005534539
  0
VERTEX
  8
LAYER_1
 10
129.8244
 20
36.8694
 42
-0.09536265516
  0
VERTEX
  8
LAYER_1
 10
129.9953
 20
36.9824
 42
-0.09506675375
  0
VERTEX
  8
LAYER_1
 10
130.2092
 20
37.0234
  0
VERTEX
  8
LAYER_1
 10
130.3208
 20
37.0114
  0
VERTEX
  8
LAYER_1
 10
130.4239
 20
36.9779
  0
VERTEX
  8
LAYER_1
 10
130.5113
 20
36.9263
  0
VERTEX
  8
LAYER_1
 10
130.5771
 20
36.8584
  0
VERTEX
  8
LAYER_1
 10
130.4896
 20
36.794
  0
VERTEX
  8
LAYER_1
 10
130.4463
 20
36.8439
  0
VERTEX
  8
LAYER_1
 10
130.3829
 20
36.8877
  0
VERTEX
  8
LAYER_1
 10
130.3033
 20
36.9183
  0
VERTEX
  8
LAYER_1
 10
130.2106
 20
36.93
  0
VERTEX
  8
LAYER_1
 10
130.0304
 20
36.8935
  0
VERTEX
  8
LAYER_1
 10
129.8954
 20
36.7954
  0
VERTEX
  8
LAYER_1
 10
129.8106
 20
36.652
  0
VERTEX
  8
LAYER_1
 10
129.7817
 20
36.4805
  0
VERTEX
  8
LAYER_1
 10
129.8116
 20
36.3089
  0
VERTEX
  8
LAYER_1
 10
129.8971
 20
36.1656
  0
VERTEX
  8
LAYER_1
 10
130.0321
 20
36.0674
 42
0.1009931409
  0
VERTEX
  8
LAYER_1
 10
130.2106
 20
36.0309
  0
VERTEX
  8
LAYER_1
 10
130.3798
 20
36.0674
 42
0.1319081761
  0
VERTEX
  8
LAYER_1
 10
130.5141
 20
36.1842
  0
SEQEND
  0
ENDBLK
  0
BLOCK
  8
LAYER_1
  2
AIGNBL01030024
 70
64
 10
0
 20
0
 30
0
  3
AIGNBL01030024
  0
POLYLINE
  8
LAYER_1
 40
0.05
 41
0.05
 66
1
 10
0
 20
0
 30
0
 70
1
  0
VERTEX
  8
LAYER_1
 10
131.0832
 20
36.0574
  0
VERTEX
  8
LAYER_1
 10
131.6365
 20
36.0574
  0
VERTEX
  8
LAYER_1
 10
131.6365
 20
35.9637
  0
VERTEX
  8
LAYER_1
 10
130.9782
 20
35.9637
  0
VERTEX
  8
LAYER_1
 10
130.9782
 20
36.9969
  0
VERTEX
  8
LAYER_1
 10
131.619
 20
36.9969
  0
VERTEX
  8
LAYER_1
 10
131.619
 20
36.9035
  0
VERTEX
  8
LAYER_1
 10
131.0832
 20
36.9035
  0
VERTEX
  8
LAYER_1
 10
131.0832
 20
36.549
  0
VERTEX
  8
LAYER_1
 10
131.5838
 20
36.549
  0
VERTEX
  8
LAYER_1
 10
131.5838
 20
36.4557
  0
VERTEX
  8
LAYER_1
 10
131.0832
 20
36.4557
  0
SEQEND
  0
ENDBLK
  0
BLOCK
  8
LAYER_1
  2
AIGNBL01020004
 70
64
 10
0
 20
0
 30
0
  3
AIGNBL01020004
  0
INSERT
  8
LAYER_1
  2
AIGNBL01030005
 10
0
 20
0
 30
0
  0
ENDBLK
  0
BLOCK
  8
LAYER_1
  2
AIGNBL0102000D
 70
64
 10
0
 20
0
 30
0
  3
AIGNBL0102000D
  0
INSERT
  8
LAYER_1
  2
AIGNBL0103000E
 10
0
 20
0
 30
0
  0
INSERT
  8
LAYER_1
  2
AIGNBL0103000F
 10
0
 20
0
 30
0
  0
INSERT
  8
LAYER_1
  2
AIGNBL01030010
 10
0
 20
0
 30
0
  0
INSERT
  8
LAYER_1
  2
AIGNBL01030011
 10
0
 20
0
 30
0
  0
INSERT
  8
LAYER_1
  2
AIGNBL01030012
 10
0
 20
0
 30
0
  0
INSERT
  8
LAYER_1
  2
AIGNBL01030013
 10
0
 20
0
 30
0
  0
INSERT
  8
LAYER_1
  2
AIGNBL01030014
 10
0
 20
0
 30
0
  0
INSERT
  8
LAYER_1
  2
AIGNBL01030015
 10
0
 20
0
 30
0
  0
INSERT
  8
LAYER_1
  2
AIGNBL01030016
 10
0
 20
0
 30
0
  0
INSERT
  8
LAYER_1
  2
AIGNBL01030017
 10
0
 20
0
 30
0
  0
INSERT
  8
LAYER_1
  2
AIGNBL01030018
 10
0
 20
0
 30
0
  0
INSERT
  8
LAYER_1
  2
AIGNBL01030019
 10
0
 20
0
 30
0
  0
INSERT
  8
LAYER_1
  2
AIGNBL0103001A
 10
0
 20
0
 30
0
  0
INSERT
  8
LAYER_1
  2
AIGNBL0103001B
 10
0
 20
0
 30
0
  0
INSERT
  8
LAYER_1
  2
AIGNBL0103001C
 10
0
 20
0
 30
0
  0
INSERT
  8
LAYER_1
  2
AIGNBL0103001D
 10
0
 20
0
 30
0
  0
INSERT
  8
LAYER_1
  2
AIGNBL0103001E
 10
0
 20
0
 30
0
  0
INSERT
  8
LAYER_1
  2
AIGNBL0103001F
 10
0
 20
0
 30
0
  0
INSERT
  8
LAYER_1
  2
AIGNBL01030020
 10
0
 20
0
 30
0
  0
INSERT
  8
LAYER_1
  2
AIGNBL01030021
 10
0
 20
0
 30
0
  0
INSERT
  8
LAYER_1
  2
AIGNBL01030022
 10
0
 20
0
 30
0
  0
INSERT
  8
LAYER_1
  2
AIGNBL01030023
 10
0
 20
0
 30
0
  0
INSERT
  8
LAYER_1
  2
AIGNBL01030024
 10
0
 20
0
 30
0
  0
ENDBLK
  0
BLOCK
  8
LAYER_1
  2
AIGNBL01020026
 70
64
 10
0
 20
0
 30
0
  3
AIGNBL01020026
  0
POLYLINE
  8
LAYER_1
 40
0.05
 41
0.05
 66
1
 10
0
 20
0
 30
0
 70
1
  0
VERTEX
  8
LAYER_1
 10
-21.113
 20
214.9289
  0
VERTEX
  8
LAYER_1
 10
-21.113
 20
221.8538
 42
-0.4699047461
  0
VERTEX
  8
LAYER_1
 10
-20.9545
 20
221.9932
  0
VERTEX
  8
LAYER_1
 10
-20.2918
 20
221.9932
 42
-0.45033454
  0
VERTEX
  8
LAYER_1
 10
-20.1333
 20
221.8538
  0
VERTEX
  8
LAYER_1
 10
-20.1333
 20
218.6651
 42
0.9530824564
  0
VERTEX
  8
LAYER_1
 10
-20.0421
 20
218.6458
  0
VERTEX
  8
LAYER_1
 10
-17.7927
 20
221.8687
 42
-0.2712687459
  0
VERTEX
  8
LAYER_1
 10
-17.5592
 20
221.9932
  0
VERTEX
  8
LAYER_1
 10
-16.9444
 20
221.9932
 42
-0.8296933205
  0
VERTEX
  8
LAYER_1
 10
-16.8151
 20
221.7738
  0
VERTEX
  8
LAYER_1
 10
-18.7214
 20
219.006
 42
0.31937009
  0
VERTEX
  8
LAYER_1
 10
-18.7214
 20
218.8235
  0
VERTEX
  8
LAYER_1
 10
-16.4916
 20
214.9815
 42
-0.7594669532
  0
VERTEX
  8
LAYER_1
 10
-16.6227
 20
214.7896
  0
VERTEX
  8
LAYER_1
 10
-17.3239
 20
214.7896
 42
-0.2968228312
  0
VERTEX
  8
LAYER_1
 10
-17.5373
 20
214.9162
  0
VERTEX
  8
LAYER_1
 10
-19.3265
 20
217.9496
 42
0.542774448
  0
VERTEX
  8
LAYER_1
 10
-19.4657
 20
217.9543
  0
VERTEX
  8
LAYER_1
 10
-20.0564
 20
217.1284
 42
0.1816209587
  0
VERTEX
  8
LAYER_1
 10
-20.1333
 20
216.8834
  0
VERTEX
  8
LAYER_1
 10
-20.1333
 20
214.9289
 42
-0.4506384837
  0
VERTEX
  8
LAYER_1
 10
-20.2918
 20
214.7896
  0
VERTEX
  8
LAYER_1
 10
-20.9545
 20
214.7896
 42
-0.5064787523
  0
SEQEND
  0
ENDBLK
  0
BLOCK
  8
LAYER_1
  2
AIGNBL01020027
 70
64
 10
0
 20
0
 30
0
  3
AIGNBL01020027
  0
POLYLINE
  8
LAYER_1
 40
0.05
 41
0.05
 66
1
 10
0
 20
0
 30
0
 70
1
  0
VERTEX
  8
LAYER_1
 10
-14.4215
 20
221.8587
 42
-0.4075020307
  0
VERTEX
  8
LAYER_1
 10
-14.2391
 20
221.9932
  0
VERTEX
  8
LAYER_1
 10
-13.6698
 20
221.9932
 42
-0.4099114321
  0
VERTEX
  8
LAYER_1
 10
-13.4873
 20
221.8587
  0
VERTEX
  8
LAYER_1
 10
-11.4462
 20
214.9241
 42
-0.5611573205
  0
VERTEX
  8
LAYER_1
 10
-11.5664
 20
214.7896
  0
VERTEX
  8
LAYER_1
 10
-12.2579
 20
214.7896
 42
-0.3808993028
  0
VERTEX
  8
LAYER_1
 10
-12.4356
 20
214.9193
  0
VERTEX
  8
LAYER_1
 10
-12.7718
 20
216.1247
 42
0.4231231529
  0
VERTEX
  8
LAYER_1
 10
-12.9254
 20
216.2447
  0
VERTEX
  8
LAYER_1
 10
-14.9833
 20
216.2447
 42
0.4210701894
  0
VERTEX
  8
LAYER_1
 10
-15.137
 20
216.1247
  0
VERTEX
  8
LAYER_1
 10
-15.4732
 20
214.9193
 42
-0.3765490372
  0
VERTEX
  8
LAYER_1
 10
-15.6509
 20
214.7896
  0
VERTEX
  8
LAYER_1
 10
-16.3424
 20
214.7896
 42
-0.5497508078
  0
VERTEX
  8
LAYER_1
 10
-16.4626
 20
214.9241
  0
SEQEND
  0
POLYLINE
  8
LAYER_1
 40
0.05
 41
0.05
 66
1
 10
0
 20
0
 30
0
 70
1
  0
VERTEX
  8
LAYER_1
 10
-14.7193
 20
217.1187
  0
VERTEX
  8
LAYER_1
 10
-13.1895
 20
217.1187
 42
0.5674194213
  0
VERTEX
  8
LAYER_1
 10
-13.1175
 20
217.21
  0
VERTEX
  8
LAYER_1
 10
-13.905
 20
220.0914
 42
0.8999522096
  0
VERTEX
  8
LAYER_1
 10
-14.0037
 20
220.0914
  0
VERTEX
  8
LAYER_1
 10
-14.7913
 20
217.21
 42
0.5536319523
  0
SEQEND
  0
ENDBLK
  0
BLOCK
  8
LAYER_1
  2
AIGNBL01020028
 70
64
 10
0
 20
0
 30
0
  3
AIGNBL01020028
  0
POLYLINE
  8
LAYER_1
 40
0.05
 41
0.05
 66
1
 10
0
 20
0
 30
0
 70
1
  0
VERTEX
  8
LAYER_1
 10
-11.0855
 20
214.9289
  0
VERTEX
  8
LAYER_1
 10
-11.0855
 20
221.8538
 42
-0.4699047461
  0
VERTEX
  8
LAYER_1
 10
-10.927
 20
221.9932
  0
VERTEX
  8
LAYER_1
 10
-10.4563
 20
221.9932
 42
-0.3342013792
  0
VERTEX
  8
LAYER_1
 10
-10.2786
 20
221.8538
  0
VERTEX
  8
LAYER_1
 10
-8.1368
 20
216.5809
 42
0.7358134143
  0
VERTEX
  8
LAYER_1
 10
-8.0213
 20
216.5809
  0
VERTEX
  8
LAYER_1
 10
-5.8794
 20
221.8538
 42
-0.343010479
  0
VERTEX
  8
LAYER_1
 10
-5.7017
 20
221.9932
  0
VERTEX
  8
LAYER_1
 10
-5.2311
 20
221.9932
 42
-0.4641946929
  0
VERTEX
  8
LAYER_1
 10
-5.0726
 20
221.8538
  0
VERTEX
  8
LAYER_1
 10
-5.0726
 20
214.9289
 42
-0.5064758475
  0
VERTEX
  8
LAYER_1
 10
-5.2311
 20
214.7896
  0
VERTEX
  8
LAYER_1
 10
-5.8938
 20
214.7896
 42
-0.445110436
  0
VERTEX
  8
LAYER_1
 10
-6.0523
 20
214.9289
  0
VERTEX
  8
LAYER_1
 10
-6.0523
 20
218.9965
 42
0.8354673961
  0
VERTEX
  8
LAYER_1
 10
-6.1627
 20
219.006
  0
VERTEX
  8
LAYER_1
 10
-7.858
 20
214.9193
 42
-0.3478219087
  0
VERTEX
  8
LAYER_1
 10
-8.0308
 20
214.7896
  0
VERTEX
  8
LAYER_1
 10
-8.1272
 20
214.7896
 42
-0.3366993276
  0
VERTEX
  8
LAYER_1
 10
-8.3
 20
214.9193
  0
VERTEX
  8
LAYER_1
 10
-9.9953
 20
219.006
 42
0.8331559495
  0
VERTEX
  8
LAYER_1
 10
-10.1058
 20
218.9965
  0
VERTEX
  8
LAYER_1
 10
-10.1058
 20
214.9289
 42
-0.4506384837
  0
VERTEX
  8
LAYER_1
 10
-10.2643
 20
214.7896
  0
VERTEX
  8
LAYER_1
 10
-10.927
 20
214.7896
 42
-0.5064834192
  0
SEQEND
  0
ENDBLK
  0
BLOCK
  8
LAYER_1
  2
AIGNBL01020029
 70
64
 10
0
 20
0
 30
0
  3
AIGNBL01020029
  0
POLYLINE
  8
LAYER_1
 40
0.05
 41
0.05
 66
1
 10
0
 20
0
 30
0
 70
1
  0
VERTEX
  8
LAYER_1
 10
-2.665
 20
221.8587
 42
-0.4073434033
  0
VERTEX
  8
LAYER_1
 10
-2.4826
 20
221.9932
  0
VERTEX
  8
LAYER_1
 10
-1.9133
 20
221.9932
 42
-0.4099114321
  0
VERTEX
  8
LAYER_1
 10
-1.7308
 20
221.8587
  0
VERTEX
  8
LAYER_1
 10
0.3103
 20
214.9241
 42
-0.5613624021
  0
VERTEX
  8
LAYER_1
 10
0.1902
 20
214.7896
  0
VERTEX
  8
LAYER_1
 10
-0.5014
 20
214.7896
 42
-0.3807171715
  0
VERTEX
  8
LAYER_1
 10
-0.6791
 20
214.9193
  0
VERTEX
  8
LAYER_1
 10
-1.0152
 20
216.1247
 42
0.4227766896
  0
VERTEX
  8
LAYER_1
 10
-1.1689
 20
216.2447
  0
VERTEX
  8
LAYER_1
 10
-3.2268
 20
216.2447
 42
0.4210701894
  0
VERTEX
  8
LAYER_1
 10
-3.3805
 20
216.1247
  0
VERTEX
  8
LAYER_1
 10
-3.7167
 20
214.9193
 42
-0.3767209645
  0
VERTEX
  8
LAYER_1
 10
-3.8944
 20
214.7896
  0
VERTEX
  8
LAYER_1
 10
-4.5859
 20
214.7896
 42
-0.5499172951
  0
VERTEX
  8
LAYER_1
 10
-4.706
 20
214.9241
  0
SEQEND
  0
POLYLINE
  8
LAYER_1
 40
0.05
 41
0.05
 66
1
 10
0
 20
0
 30
0
 70
1
  0
VERTEX
  8
LAYER_1
 10
-2.9628
 20
217.1187
  0
VERTEX
  8
LAYER_1
 10
-1.433
 20
217.1187
 42
0.5674194213
  0
VERTEX
  8
LAYER_1
 10
-1.361
 20
217.21
  0
VERTEX
  8
LAYER_1
 10
-2.1485
 20
220.0914
 42
0.8999522537
  0
VERTEX
  8
LAYER_1
 10
-2.2472
 20
220.0914
  0
VERTEX
  8
LAYER_1
 10
-3.0348
 20
217.21
 42
0.5536319523
  0
SEQEND
  0
ENDBLK
  0
BLOCK
  8
LAYER_1
  2
AIGNBL0102002A
 70
64
 10
0
 20
0
 30
0
  3
AIGNBL0102002A
  0
POLYLINE
  8
LAYER_1
 40
0.05
 41
0.05
 66
1
 10
0
 20
0
 30
0
 70
1
  0
VERTEX
  8
LAYER_1
 10
2.3038
 20
214.9289
  0
VERTEX
  8
LAYER_1
 10
2.3038
 20
221.8538
 42
-0.4699047461
  0
VERTEX
  8
LAYER_1
 10
2.4623
 20
221.9932
  0
VERTEX
  8
LAYER_1
 10
2.9858
 20
221.9932
 42
-0.2968946159
  0
VERTEX
  8
LAYER_1
 10
3.1875
 20
221.8587
  0
VERTEX
  8
LAYER_1
 10
5.944
 20
216.9939
 42
0.6874987813
  0
VERTEX
  8
LAYER_1
 10
6.04
 20
217.0082
  0
VERTEX
  8
LAYER_1
 10
6.04
 20
221.8538
 42
-0.4695224332
  0
VERTEX
  8
LAYER_1
 10
6.1985
 20
221.9932
  0
VERTEX
  8
LAYER_1
 10
6.8517
 20
221.9932
 42
-0.5065482404
  0
VERTEX
  8
LAYER_1
 10
7.0101
 20
221.8538
  0
VERTEX
  8
LAYER_1
 10
7.0101
 20
214.9289
 42
-0.4701774764
  0
VERTEX
  8
LAYER_1
 10
6.8517
 20
214.7896
  0
VERTEX
  8
LAYER_1
 10
6.3378
 20
214.7896
 42
-0.316045306
  0
VERTEX
  8
LAYER_1
 10
6.1265
 20
214.9241
  0
VERTEX
  8
LAYER_1
 10
3.3892
 20
219.7504
 42
0.6756453445
  0
VERTEX
  8
LAYER_1
 10
3.2835
 20
219.736
  0
VERTEX
  8
LAYER_1
 10
3.2835
 20
214.9289
 42
-0.4506384837
  0
VERTEX
  8
LAYER_1
 10
3.125
 20
214.7896
  0
VERTEX
  8
LAYER_1
 10
2.4623
 20
214.7896
 42
-0.5065060636
  0
SEQEND
  0
ENDBLK
  0
BLOCK
  8
LAYER_1
  2
AIGNBL0102002B
 70
64
 10
0
 20
0
 30
0
  3
AIGNBL0102002B
  0
POLYLINE
  8
LAYER_1
 40
0.05
 41
0.05
 66
1
 10
0
 20
0
 30
0
 70
1
  0
VERTEX
  8
LAYER_1
 10
7.7067
 20
217.1331
  0
VERTEX
  8
LAYER_1
 10
7.7067
 20
219.6496
 42
-0.07459800159
  0
VERTEX
  8
LAYER_1
 10
7.8417
 20
220.6345
 42
-0.0944798936
  0
VERTEX
  8
LAYER_1
 10
8.2084
 20
221.3466
 42
-0.1029340768
  0
VERTEX
  8
LAYER_1
 10
8.7781
 20
221.8183
 42
-0.1264026838
  0
VERTEX
  8
LAYER_1
 10
9.9493
 20
222.0795
 42
-0.0844735793
  0
VERTEX
  8
LAYER_1
 10
10.84
 20
221.9406
 42
-0.2029205683
  0
VERTEX
  8
LAYER_1
 10
11.9332
 20
220.9552
 42
-0.1144072947
  0
VERTEX
  8
LAYER_1
 10
12.1921
 20
219.6496
  0
VERTEX
  8
LAYER_1
 10
12.1921
 20
217.1331
 42
-0.07488518416
  0
VERTEX
  8
LAYER_1
 10
12.0565
 20
216.1482
 42
-0.09442558241
  0
VERTEX
  8
LAYER_1
 10
11.6887
 20
215.4361
 42
-0.1026689483
  0
VERTEX
  8
LAYER_1
 10
11.1186
 20
214.9643
 42
-0.1263761263
  0
VERTEX
  8
LAYER_1
 10
9.9493
 20
214.7031
 42
-0.08457194202
  0
VERTEX
  8
LAYER_1
 10
9.0606
 20
214.842
 42
-0.2024667301
  0
VERTEX
  8
LAYER_1
 10
7.9666
 20
215.8275
 42
-0.1146895309
  0
SEQEND
  0
POLYLINE
  8
LAYER_1
 40
0.05
 41
0.05
 66
1
 10
0
 20
0
 30
0
 70
1
  0
VERTEX
  8
LAYER_1
 10
11.2172
 20
217.0947
  0
VERTEX
  8
LAYER_1
 10
11.2172
 20
219.6832
 42
0.09786930333
  0
VERTEX
  8
LAYER_1
 10
11.0815
 20
220.4596
 42
0.3169045941
  0
VERTEX
  8
LAYER_1
 10
9.9493
 20
221.1768
 42
0.1191503056
  0
VERTEX
  8
LAYER_1
 10
9.3348
 20
221.0422
 42
0.1340680112
  0
VERTEX
  8
LAYER_1
 10
8.923
 20
220.664
 42
0.1481488601
  0
VERTEX
  8
LAYER_1
 10
8.6816
 20
219.6832
  0
VERTEX
  8
LAYER_1
 10
8.6816
 20
217.0947
 42
0.09709769922
  0
VERTEX
  8
LAYER_1
 10
8.8152
 20
216.3217
 42
0.319134825
  0
VERTEX
  8
LAYER_1
 10
9.9493
 20
215.606
 42
0.1187843618
  0
VERTEX
  8
LAYER_1
 10
10.5681
 20
215.7405
 42
0.135059789
  0
VERTEX
  8
LAYER_1
 10
10.9789
 20
216.1178
 42
0.1476636852
  0
SEQEND
  0
ENDBLK
  0
BLOCK
  8
LAYER_1
  2
AIGNBL0102002C
 70
64
 10
0
 20
0
 30
0
  3
AIGNBL0102002C
  0
POLYLINE
  8
LAYER_1
 40
0.05
 41
0.05
 66
1
 10
0
 20
0
 30
0
 70
1
  0
VERTEX
  8
LAYER_1
 10
15.698
 20
214.9289
  0
VERTEX
  8
LAYER_1
 10
15.698
 20
220.9991
 42
0.4970363711
  0
VERTEX
  8
LAYER_1
 10
15.5492
 20
221.1287
  0
VERTEX
  8
LAYER_1
 10
14.2286
 20
221.1287
 42
-0.5063819452
  0
VERTEX
  8
LAYER_1
 10
14.0701
 20
221.268
  0
VERTEX
  8
LAYER_1
 10
14.0701
 20
221.8538
 42
-0.4701083805
  0
VERTEX
  8
LAYER_1
 10
14.2286
 20
221.9932
  0
VERTEX
  8
LAYER_1
 10
18.1473
 20
221.9932
 42
-0.4501431849
  0
VERTEX
  8
LAYER_1
 10
18.3058
 20
221.8538
  0
VERTEX
  8
LAYER_1
 10
18.3058
 20
221.268
 42
-0.451194873
  0
VERTEX
  8
LAYER_1
 10
18.1473
 20
221.1287
  0
VERTEX
  8
LAYER_1
 10
16.8266
 20
221.1287
 42
0.5412445858
  0
VERTEX
  8
LAYER_1
 10
16.6777
 20
220.9991
  0
VERTEX
  8
LAYER_1
 10
16.6777
 20
214.9289
 42
-0.451194873
  0
VERTEX
  8
LAYER_1
 10
16.5192
 20
214.7896
  0
VERTEX
  8
LAYER_1
 10
15.8565
 20
214.7896
 42
-0.5064378303
  0
SEQEND
  0
ENDBLK
  0
BLOCK
  8
LAYER_1
  2
AIGNBL0102002D
 70
64
 10
0
 20
0
 30
0
  3
AIGNBL0102002D
  0
POLYLINE
  8
LAYER_1
 40
0.05
 41
0.05
 66
1
 10
0
 20
0
 30
0
 70
1
  0
VERTEX
  8
LAYER_1
 10
20.8511
 20
214.7031
 42
-0.07285578449
  0
VERTEX
  8
LAYER_1
 10
19.8382
 20
214.8389
 42
-0.09367602334
  0
VERTEX
  8
LAYER_1
 10
19.1199
 20
215.1996
 42
-0.2374377758
  0
VERTEX
  8
LAYER_1
 10
18.4836
 20
216.5712
 42
-0.4742280207
  0
VERTEX
  8
LAYER_1
 10
18.5988
 20
216.6962
  0
VERTEX
  8
LAYER_1
 10
19.2472
 20
216.6962
 42
-0.4447493674
  0
VERTEX
  8
LAYER_1
 10
19.3912
 20
216.5857
 42
0.2867068166
  0
VERTEX
  8
LAYER_1
 10
19.9803
 20
215.6879
 42
0.1144678557
  0
VERTEX
  8
LAYER_1
 10
20.8319
 20
215.5196
 42
0.1035971552
  0
VERTEX
  8
LAYER_1
 10
21.5528
 20
215.652
 42
0.3078386778
  0
VERTEX
  8
LAYER_1
 10
22.1718
 20
216.6433
 42
0.2494378319
  0
VERTEX
  8
LAYER_1
 10
21.6503
 20
217.633
 42
0.06667271391
  0
VERTEX
  8
LAYER_1
 10
20.446
 20
218.2421
 42
-0.065670231
  0
VERTEX
  8
LAYER_1
 10
19.3526
 20
218.8281
 42
-0.09752572121
  0
VERTEX
  8
LAYER_1
 10
18.8692
 20
219.3608
 42
-0.1370349846
  0
VERTEX
  8
LAYER_1
 10
18.6373
 20
220.2835
 42
-0.09776469346
  0
VERTEX
  8
LAYER_1
 10
18.7739
 20
221.0281
 42
-0.2267506438
  0
VERTEX
  8
LAYER_1
 10
19.8064
 20
221.9457
 42
-0.07988012783
  0
VERTEX
  8
LAYER_1
 10
20.7263
 20
222.0795
 42
-0.08111507015
  0
VERTEX
  8
LAYER_1
 10
21.6539
 20
221.9412
 42
-0.1014489407
  0
VERTEX
  8
LAYER_1
 10
22.3035
 20
221.574
 42
-0.2186870098
  0
VERTEX
  8
LAYER_1
 10
22.8249
 20
220.3556
 42
-0.489942982
  0
VERTEX
  8
LAYER_1
 10
22.7049
 20
220.2259
  0
VERTEX
  8
LAYER_1
 10
22.0613
 20
220.2259
 42
-0.4589184238
  0
VERTEX
  8
LAYER_1
 10
21.9173
 20
220.3363
 42
0.2984719617
  0
VERTEX
  8
LAYER_1
 10
21.3314
 20
221.1479
 42
0.09949632425
  0
VERTEX
  8
LAYER_1
 10
20.7454
 20
221.2583
 42
0.1127034222
  0
VERTEX
  8
LAYER_1
 10
20.0998
 20
221.1307
 42
0.2979729125
  0
VERTEX
  8
LAYER_1
 10
19.6265
 20
220.3411
 42
0.13667909
  0
VERTEX
  8
LAYER_1
 10
19.7606
 20
219.8416
 42
0.1134043827
  0
VERTEX
  8
LAYER_1
 10
20.2413
 20
219.3725
 42
0.0279185232
  0
VERTEX
  8
LAYER_1
 10
21.8419
 20
218.5587
 42
-0.0781907502
  0
VERTEX
  8
LAYER_1
 10
22.6354
 20
217.9726
 42
-0.198548705
  0
VERTEX
  8
LAYER_1
 10
23.1562
 20
216.6145
 42
-0.09437391754
  0
VERTEX
  8
LAYER_1
 10
23.0223
 20
215.8598
 42
-0.2188640385
  0
VERTEX
  8
LAYER_1
 10
21.9912
 20
214.8879
 42
-0.09167412461
  0
SEQEND
  0
ENDBLK
  0
BLOCK
  8
LAYER_1
  2
AIGNBL0102002E
 70
64
 10
0
 20
0
 30
0
  3
AIGNBL0102002E
  0
POLYLINE
  8
LAYER_1
 40
0.05
 41
0.05
 66
1
 10
0
 20
0
 30
0
 70
1
  0
VERTEX
  8
LAYER_1
 10
23.7902
 20
216.941
  0
VERTEX
  8
LAYER_1
 10
23.7902
 20
221.8538
 42
-0.4699047461
  0
VERTEX
  8
LAYER_1
 10
23.9487
 20
221.9932
  0
VERTEX
  8
LAYER_1
 10
24.6114
 20
221.9932
 42
-0.45033454
  0
VERTEX
  8
LAYER_1
 10
24.7699
 20
221.8538
  0
VERTEX
  8
LAYER_1
 10
24.7699
 20
216.9362
 42
0.1043230093
  0
VERTEX
  8
LAYER_1
 10
24.9007
 20
216.231
 42
0.2770400414
  0
VERTEX
  8
LAYER_1
 10
25.7907
 20
215.6088
 42
0.03525716866
  0
VERTEX
  8
LAYER_1
 10
26.009
 20
215.5963
 42
0.1180953125
  0
VERTEX
  8
LAYER_1
 10
26.6512
 20
215.7314
 42
0.1407916146
  0
VERTEX
  8
LAYER_1
 10
27.0482
 20
216.099
 42
0.1414067377
  0
VERTEX
  8
LAYER_1
 10
27.2479
 20
216.9362
  0
VERTEX
  8
LAYER_1
 10
27.2479
 20
221.8538
 42
-0.4505174675
  0
VERTEX
  8
LAYER_1
 10
27.4064
 20
221.9932
  0
VERTEX
  8
LAYER_1
 10
28.0691
 20
221.9932
 42
-0.5064286955
  0
VERTEX
  8
LAYER_1
 10
28.2276
 20
221.8538
  0
VERTEX
  8
LAYER_1
 10
28.2276
 20
216.941
 42
-0.0788464345
  0
VERTEX
  8
LAYER_1
 10
28.0962
 20
216.0337
 42
-0.3091610427
  0
VERTEX
  8
LAYER_1
 10
26.3719
 20
214.7218
 42
-0.03043946074
  0
VERTEX
  8
LAYER_1
 10
26.009
 20
214.7031
 42
-0.08157623579
  0
VERTEX
  8
LAYER_1
 10
25.0948
 20
214.8398
 42
-0.3139799378
  0
VERTEX
  8
LAYER_1
 10
23.8039
 20
216.6267
 42
-0.02533702824
  0
SEQEND
  0
ENDBLK
  0
BLOCK
  8
LAYER_1
  2
AIGNBL0102002F
 70
64
 10
0
 20
0
 30
0
  3
AIGNBL0102002F
  0
POLYLINE
  8
LAYER_1
 40
0.05
 41
0.05
 66
1
 10
0
 20
0
 30
0
 70
1
  0
VERTEX
  8
LAYER_1
 10
28.9673
 20
214.9289
  0
VERTEX
  8
LAYER_1
 10
28.9673
 20
221.8538
 42
-0.4699047461
  0
VERTEX
  8
LAYER_1
 10
29.1258
 20
221.9932
  0
VERTEX
  8
LAYER_1
 10
31.2196
 20
221.9932
 42
-0.08539526272
  0
VERTEX
  8
LAYER_1
 10
32.0927
 20
221.8543
 42
-0.103902509
  0
VERTEX
  8
LAYER_1
 10
32.7064
 20
221.4886
 42
-0.2126554473
  0
VERTEX
  8
LAYER_1
 10
33.179
 20
220.3316
  0
VERTEX
  8
LAYER_1
 10
33.179
 20
220.0242
 42
-0.278884178
  0
VERTEX
  8
LAYER_1
 10
32.3386
 20
218.6507
 42
0.8212736035
  0
VERTEX
  8
LAYER_1
 10
32.3482
 20
218.4922
 42
-0.2081685285
  0
VERTEX
  8
LAYER_1
 10
33.3318
 20
217.4989
 42
-0.08674024078
  0
VERTEX
  8
LAYER_1
 10
33.4287
 20
216.941
  0
VERTEX
  8
LAYER_1
 10
33.4287
 20
216.5809
 42
-0.1002123607
  0
VERTEX
  8
LAYER_1
 10
33.288
 20
215.8431
 42
-0.2228469751
  0
VERTEX
  8
LAYER_1
 10
32.2394
 20
214.9169
 42
-0.07933682024
  0
VERTEX
  8
LAYER_1
 10
31.3829
 20
214.7896
  0
VERTEX
  8
LAYER_1
 10
29.1258
 20
214.7896
 42
-0.5065217316
  0
SEQEND
  0
POLYLINE
  8
LAYER_1
 40
0.05
 41
0.05
 66
1
 10
0
 20
0
 30
0
 70
1
  0
VERTEX
  8
LAYER_1
 10
31.0899
 20
218.982
 42
0.1095090569
  0
VERTEX
  8
LAYER_1
 10
31.7651
 20
219.1071
 42
0.3087933608
  0
VERTEX
  8
LAYER_1
 10
32.2233
 20
219.8897
  0
VERTEX
  8
LAYER_1
 10
32.2233
 20
220.2211
 42
0.1473375596
  0
VERTEX
  8
LAYER_1
 10
32.0886
 20
220.7349
 42
0.1595011867
  0
VERTEX
  8
LAYER_1
 10
31.6982
 20
221.0341
 42
0.08816813733
  0
VERTEX
  8
LAYER_1
 10
31.0899
 20
221.1287
  0
VERTEX
  8
LAYER_1
 10
30.0959
 20
221.1287
 42
0.5108794616
  0
VERTEX
  8
LAYER_1
 10
29.947
 20
220.975
  0
VERTEX
  8
LAYER_1
 10
29.947
 20
219.1117
 42
0.4965190725
  0
VERTEX
  8
LAYER_1
 10
30.0959
 20
218.982
  0
SEQEND
  0
POLYLINE
  8
LAYER_1
 40
0.05
 41
0.05
 66
1
 10
0
 20
0
 30
0
 70
1
  0
VERTEX
  8
LAYER_1
 10
31.2389
 20
215.654
 42
0.1113646619
  0
VERTEX
  8
LAYER_1
 10
31.9232
 20
215.788
 42
0.3042851881
  0
VERTEX
  8
LAYER_1
 10
32.449
 20
216.6914
  0
VERTEX
  8
LAYER_1
 10
32.449
 20
217.0804
 42
0.1314926805
  0
VERTEX
  8
LAYER_1
 10
32.3178
 20
217.632
 42
0.1516756543
  0
VERTEX
  8
LAYER_1
 10
31.9375
 20
217.9801
 42
0.1135825552
  0
VERTEX
  8
LAYER_1
 10
31.2389
 20
218.1176
  0
VERTEX
  8
LAYER_1
 10
30.0959
 20
218.1176
 42
0.4987026021
  0
VERTEX
  8
LAYER_1
 10
29.947
 20
217.9879
  0
VERTEX
  8
LAYER_1
 10
29.947
 20
215.7837
 42
0.4965190725
  0
VERTEX
  8
LAYER_1
 10
30.0959
 20
215.654
  0
SEQEND
  0
ENDBLK
  0
BLOCK
  8
LAYER_1
  2
AIGNBL01020030
 70
64
 10
0
 20
0
 30
0
  3
AIGNBL01020030
  0
POLYLINE
  8
LAYER_1
 40
0.05
 41
0.05
 66
1
 10
0
 20
0
 30
0
 70
1
  0
VERTEX
  8
LAYER_1
 10
34.034
 20
217.1331
  0
VERTEX
  8
LAYER_1
 10
34.034
 20
219.6496
 42
-0.07459800159
  0
VERTEX
  8
LAYER_1
 10
34.169
 20
220.6345
 42
-0.0944798936
  0
VERTEX
  8
LAYER_1
 10
34.5357
 20
221.3466
 42
-0.1029340768
  0
VERTEX
  8
LAYER_1
 10
35.1054
 20
221.8183
 42
-0.1264026838
  0
VERTEX
  8
LAYER_1
 10
36.2766
 20
222.0795
 42
-0.0844735793
  0
VERTEX
  8
LAYER_1
 10
37.1673
 20
221.9406
 42
-0.2029205683
  0
VERTEX
  8
LAYER_1
 10
38.2605
 20
220.9552
 42
-0.1144072947
  0
VERTEX
  8
LAYER_1
 10
38.5194
 20
219.6496
  0
VERTEX
  8
LAYER_1
 10
38.5194
 20
217.1331
 42
-0.07488518416
  0
VERTEX
  8
LAYER_1
 10
38.3838
 20
216.1482
 42
-0.09442558241
  0
VERTEX
  8
LAYER_1
 10
38.016
 20
215.4361
 42
-0.1026689483
  0
VERTEX
  8
LAYER_1
 10
37.4459
 20
214.9643
 42
-0.1263761263
  0
VERTEX
  8
LAYER_1
 10
36.2766
 20
214.7031
 42
-0.08457194202
  0
VERTEX
  8
LAYER_1
 10
35.3879
 20
214.842
 42
-0.2024667301
  0
VERTEX
  8
LAYER_1
 10
34.2939
 20
215.8275
 42
-0.1146895309
  0
SEQEND
  0
POLYLINE
  8
LAYER_1
 40
0.05
 41
0.05
 66
1
 10
0
 20
0
 30
0
 70
1
  0
VERTEX
  8
LAYER_1
 10
37.5445
 20
217.0947
  0
VERTEX
  8
LAYER_1
 10
37.5445
 20
219.6832
 42
0.09786930333
  0
VERTEX
  8
LAYER_1
 10
37.4088
 20
220.4596
 42
0.3169045941
  0
VERTEX
  8
LAYER_1
 10
36.2766
 20
221.1768
 42
0.1191503056
  0
VERTEX
  8
LAYER_1
 10
35.6621
 20
221.0422
 42
0.1340680112
  0
VERTEX
  8
LAYER_1
 10
35.2503
 20
220.664
 42
0.1481488601
  0
VERTEX
  8
LAYER_1
 10
35.0089
 20
219.6832
  0
VERTEX
  8
LAYER_1
 10
35.0089
 20
217.0947
 42
0.09710881263
  0
VERTEX
  8
LAYER_1
 10
35.1425
 20
216.3217
 42
0.3191082012
  0
VERTEX
  8
LAYER_1
 10
36.2766
 20
215.606
 42
0.1187843618
  0
VERTEX
  8
LAYER_1
 10
36.8954
 20
215.7405
 42
0.135059789
  0
VERTEX
  8
LAYER_1
 10
37.3062
 20
216.1178
 42
0.1476636852
  0
SEQEND
  0
ENDBLK
  0
BLOCK
  8
LAYER_1
  2
AIGNBL01020032
 70
64
 10
0
 20
0
 30
0
  3
AIGNBL01020032
  0
POLYLINE
  8
LAYER_1
 40
0.05
 41
0.05
 66
1
 10
0
 20
0
 30
0
 70
1
  0
VERTEX
  8
LAYER_1
 10
138.2837
 20
114.7464
  0
VERTEX
  8
LAYER_1
 10
140.7624
 20
116.1777
  0
VERTEX
  8
LAYER_1
 10
139.7149
 20
117.2252
  0
SEQEND
  0
POLYLINE
  8
LAYER_1
 40
0.05
 41
0.05
 66
1
 10
0
 20
0
 30
0
 70
1
  0
VERTEX
  8
LAYER_1
 10
130.3227
 20
106.7977
  0
VERTEX
  8
LAYER_1
 10
127.844
 20
105.3677
  0
VERTEX
  8
LAYER_1
 10
128.8915
 20
104.3202
  0
SEQEND
  0
POLYLINE
  8
LAYER_1
 40
0.2646
 41
0.2646
 66
1
 10
0
 20
0
 30
0
  0
VERTEX
  8
LAYER_1
 10
124.6753
 20
101.1502
  0
VERTEX
  8
LAYER_1
 10
148.2364
 20
124.7114
  0
SEQEND
  0
ENDBLK
  0
BLOCK
  8
LAYER_1
  2
AIGNBL01010002
 70
64
 10
0
 20
0
 30
0
  3
AIGNBL01010002
  0
POLYLINE
  8
LAYER_1
 40
0.7056
 41
0.7056
 66
1
 10
0
 20
0
 30
0
 70
1
  0
VERTEX
  8
LAYER_1
 10
251.6749
 20
230.337
  0
VERTEX
  8
LAYER_1
 10
251.6749
 20
33.3285
  0
VERTEX
  8
LAYER_1
 10
-30.3177
 20
33.3285
  0
VERTEX
  8
LAYER_1
 10
-30.3177
 20
230.337
  0
SEQEND
  0
ENDBLK
  0
BLOCK
  8
LAYER_1
  2
AIGNBL01010003
 70
64
 10
0
 20
0
 30
0
  3
AIGNBL01010003
  0
INSERT
  8
LAYER_1
  2
AIGNBL01020004
 10
0
 20
0
 30
0
  0
INSERT
  8
LAYER_1
  2
AIGNBL0102000D
 10
0
 20
0
 30
0
  0
ENDBLK
  0
BLOCK
  8
LAYER_1
  2
AIGNBL01010025
 70
64
 10
0
 20
0
 30
0
  3
AIGNBL01010025
  0
INSERT
  8
LAYER_1
  2
AIGNBL01020026
 10
0
 20
0
 30
0
  0
INSERT
  8
LAYER_1
  2
AIGNBL01020027
 10
0
 20
0
 30
0
  0
INSERT
  8
LAYER_1
  2
AIGNBL01020028
 10
0
 20
0
 30
0
  0
INSERT
  8
LAYER_1
  2
AIGNBL01020029
 10
0
 20
0
 30
0
  0
INSERT
  8
LAYER_1
  2
AIGNBL0102002A
 10
0
 20
0
 30
0
  0
INSERT
  8
LAYER_1
  2
AIGNBL0102002B
 10
0
 20
0
 30
0
  0
INSERT
  8
LAYER_1
  2
AIGNBL0102002C
 10
0
 20
0
 30
0
  0
INSERT
  8
LAYER_1
  2
AIGNBL0102002D
 10
0
 20
0
 30
0
  0
INSERT
  8
LAYER_1
  2
AIGNBL0102002E
 10
0
 20
0
 30
0
  0
INSERT
  8
LAYER_1
  2
AIGNBL0102002F
 10
0
 20
0
 30
0
  0
INSERT
  8
LAYER_1
  2
AIGNBL01020030
 10
0
 20
0
 30
0
  0
ENDBLK
  0
BLOCK
  8
LAYER_1
  2
AIGNBL01010031
 70
64
 10
0
 20
0
 30
0
  3
AIGNBL01010031
  0
INSERT
  8
LAYER_1
  2
AIGNBL01020032
 10
0
 20
0
 30
0
  0
ENDBLK
  0
BLOCK
  8
LAYER_1
  2
AIGNBL01010033
 70
64
 10
0
 20
0
 30
0
  3
AIGNBL01010033
  0
POLYLINE
  8
LAYER_1
 40
0.2646
 41
0.2646
 66
1
 10
0
 20
0
 30
0
  0
VERTEX
  8
LAYER_1
 10
94.3004
 20
210.0101
  0
VERTEX
  8
LAYER_1
 10
174.3004
 20
210.0101
  0
SEQEND
  0
POLYLINE
  8
LAYER_1
 40
0.2646
 41
0.2646
 66
1
 10
0
 20
0
 30
0
  0
VERTEX
  8
LAYER_1
 10
174.3004
 20
208.0661
  0
VERTEX
  8
LAYER_1
 10
174.3004
 20
211.5626
  0
SEQEND
  0
POLYLINE
  8
LAYER_1
 40
0.2646
 41
0.2646
 66
1
 10
0
 20
0
 30
0
  0
VERTEX
  8
LAYER_1
 10
94.3004
 20
208.0661
  0
VERTEX
  8
LAYER_1
 10
94.3004
 20
211.5626
  0
SEQEND
  0
ENDBLK
  0
BLOCK
  8
LAYER_1
  2
AIGNBL01010034
 70
64
 10
0
 20
0
 30
0
  3
AIGNBL01010034
  0
POLYLINE
  8
LAYER_1
 40
0.2646
 41
0.2646
 66
1
 10
0
 20
0
 30
0
  0
VERTEX
  8
LAYER_1
 10
89.0322
 20
170.0413
  0
VERTEX
  8
LAYER_1
 10
89.0322
 20
204.0412
  0
SEQEND
  0
POLYLINE
  8
LAYER_1
 40
0.2646
 41
0.2646
 66
1
 10
0
 20
0
 30
0
  0
VERTEX
  8
LAYER_1
 10
90.9761
 20
204.0412
  0
VERTEX
  8
LAYER_1
 10
87.4796
 20
204.0412
  0
SEQEND
  0
POLYLINE
  8
LAYER_1
 40
0.2646
 41
0.2646
 66
1
 10
0
 20
0
 30
0
  0
VERTEX
  8
LAYER_1
 10
90.9761
 20
170.0413
  0
VERTEX
  8
LAYER_1
 10
87.4796
 20
170.0413
  0
SEQEND
  0
ENDBLK
  0
BLOCK
  8
LAYER_1
  2
AIGNBL01010035
 70
64
 10
0
 20
0
 30
0
  3
AIGNBL01010035
  0
ENDBLK
  0
BLOCK
  8
LAYER_1
  2
AIGNBL01010036
 70
64
 10
0
 20
0
 30
0
  3
AIGNBL01010036
  0
POLYLINE
  8
LAYER_1
 40
0.2646
 41
0.2646
 66
1
 10
0
 20
0
 30
0
  0
VERTEX
  8
LAYER_1
 10
128.6643
 20
170.0413
  0
VERTEX
  8
LAYER_1
 10
128.6643
 20
172.9722
  0
VERTEX
  8
LAYER_1
 10
128.2541
 20
173.2268
  0
VERTEX
  8
LAYER_1
 10
126.4274
 20
174.2875
  0
VERTEX
  8
LAYER_1
 10
125.5105
 20
174.86
 42
-0.0436278231
  0
VERTEX
  8
LAYER_1
 10
124.9196
 20
175.3934
 42
0.1401288289
  0
VERTEX
  8
LAYER_1
 10
124.4193
 20
175.5384
 42
-0.008401675318
  0
VERTEX
  8
LAYER_1
 10
118.9084
 20
176.0398
 42
-0.05273209148
  0
VERTEX
  8
LAYER_1
 10
113.5096
 20
177.221
 42
-0.05643798948
  0
VERTEX
  8
LAYER_1
 10
108.692
 20
179.459
 42
-0.02951264117
  0
VERTEX
  8
LAYER_1
 10
106.6367
 20
180.8953
 42
-0.06534800978
  0
VERTEX
  8
LAYER_1
 10
103.4868
 20
184.1539
 42
-0.02897181854
  0
VERTEX
  8
LAYER_1
 10
102.0284
 20
186.3502
 42
-0.0246087296
  0
VERTEX
  8
LAYER_1
 10
100.7103
 20
188.8886
 42
-0.02163373352
  0
VERTEX
  8
LAYER_1
 10
99.3969
 20
192.1208
 42
-0.01631549603
  0
VERTEX
  8
LAYER_1
 10
97.905
 20
196.8117
 42
0.008951627212
  0
VERTEX
  8
LAYER_1
 10
96.0823
 20
203.0905
 42
0.09177407572
  0
VERTEX
  8
LAYER_1
 10
95.7117
 20
203.8402
 42
0.1549145452
  0
VERTEX
  8
LAYER_1
 10
95.3123
 20
204.13
 42
0.09612478363
  0
VERTEX
  8
LAYER_1
 10
95.0809
 20
204.1493
 42
0.1749422473
  0
VERTEX
  8
LAYER_1
 10
94.6941
 20
203.955
 42
0.1543215528
  0
VERTEX
  8
LAYER_1
 10
94.3285
 20
203.1383
 42
0.08768690948
  0
VERTEX
  8
LAYER_1
 10
94.4899
 20
199.6635
 42
0.02853197095
  0
VERTEX
  8
LAYER_1
 10
96.3716
 20
192.0511
 42
0.01573077802
  0
VERTEX
  8
LAYER_1
 10
98.1364
 20
186.4296
 42
0.02378359974
  0
VERTEX
  8
LAYER_1
 10
99.2799
 20
183.6383
 42
0.05604592039
  0
VERTEX
  8
LAYER_1
 10
101.8815
 20
179.3822
 42
0.01654953253
  0
VERTEX
  8
LAYER_1
 10
102.7791
 20
178.3153
 42
0.05504240956
  0
VERTEX
  8
LAYER_1
 10
106.7691
 20
174.7628
 42
0.05170407305
  0
VERTEX
  8
LAYER_1
 10
111.7343
 20
171.95
 42
0.04569718447
  0
VERTEX
  8
LAYER_1
 10
117.4252
 20
170.0413
  0
SEQEND
  0
ENDBLK
  0
BLOCK
  8
LAYER_1
  2
AIGNBL01010037
 70
64
 10
0
 20
0
 30
0
  3
AIGNBL01010037
  0
POLYLINE
  8
LAYER_1
 40
0.2646
 41
0.2646
 66
1
 10
0
 20
0
 30
0
  0
VERTEX
  8
LAYER_1
 10
139.936
 20
170.0413
  0
VERTEX
  8
LAYER_1
 10
139.9361
 20
172.9722
  0
VERTEX
  8
LAYER_1
 10
140.3462
 20
173.2268
  0
VERTEX
  8
LAYER_1
 10
142.173
 20
174.2875
  0
VERTEX
  8
LAYER_1
 10
143.0899
 20
174.86
 42
0.04359584302
  0
VERTEX
  8
LAYER_1
 10
143.6808
 20
175.3934
 42
-0.1401167324
  0
VERTEX
  8
LAYER_1
 10
144.1811
 20
175.5384
 42
0.008401524125
  0
VERTEX
  8
LAYER_1
 10
149.6919
 20
176.0398
 42
0.05273282321
  0
VERTEX
  8
LAYER_1
 10
155.0907
 20
177.221
 42
0.05643875051
  0
VERTEX
  8
LAYER_1
 10
159.9083
 20
179.459
 42
0.02951185692
  0
VERTEX
  8
LAYER_1
 10
161.9636
 20
180.8953
 42
0.06535106084
  0
VERTEX
  8
LAYER_1
 10
165.1135
 20
184.1539
 42
0.02897229688
  0
VERTEX
  8
LAYER_1
 10
166.5719
 20
186.3502
 42
0.02460758848
  0
VERTEX
  8
LAYER_1
 10
167.8901
 20
188.8886
 42
0.02162969144
  0
VERTEX
  8
LAYER_1
 10
169.2035
 20
192.1208
 42
0.0163092446
  0
VERTEX
  8
LAYER_1
 10
170.6954
 20
196.8117
 42
-0.008943612504
  0
VERTEX
  8
LAYER_1
 10
172.518
 20
203.0905
 42
-0.09178428034
  0
VERTEX
  8
LAYER_1
 10
172.8886
 20
203.8402
 42
-0.154917033
  0
VERTEX
  8
LAYER_1
 10
173.2881
 20
204.13
 42
-0.09610769684
  0
VERTEX
  8
LAYER_1
 10
173.5195
 20
204.1493
 42
-0.1749592559
  0
VERTEX
  8
LAYER_1
 10
173.9063
 20
203.955
 42
-0.1542647353
  0
VERTEX
  8
LAYER_1
 10
174.2719
 20
203.1383
 42
-0.087687005
  0
VERTEX
  8
LAYER_1
 10
174.1104
 20
199.6635
 42
-0.0285319902
  0
VERTEX
  8
LAYER_1
 10
172.2287
 20
192.0511
 42
-0.01572940951
  0
VERTEX
  8
LAYER_1
 10
170.4639
 20
186.4296
 42
-0.02378451279
  0
VERTEX
  8
LAYER_1
 10
169.3205
 20
183.6383
 42
-0.05604912747
  0
VERTEX
  8
LAYER_1
 10
166.7188
 20
179.3822
 42
-0.01655036606
  0
VERTEX
  8
LAYER_1
 10
165.8212
 20
178.3153
 42
-0.05504218056
  0
VERTEX
  8
LAYER_1
 10
161.8312
 20
174.7628
 42
-0.05170353969
  0
VERTEX
  8
LAYER_1
 10
156.866
 20
171.95
 42
-0.04569682146
  0
VERTEX
  8
LAYER_1
 10
151.1752
 20
170.0413
  0
SEQEND
  0
ENDBLK
  0
ENDSEC
  0
SECTION
  2
ENTITIES
  0
TEXT
  8
LAYER_1
 10
-26.2556
 20
43.1712
 11
-26.2556
 21
43.1712
 40
3.2991
 41
0.5
  1
仕様
  0
POLYLINE
  8
LAYER_1
 40
0.3528
 41
0.3528
 66
1
 10
0
 20
0
 30
0
  0
VERTEX
  8
LAYER_1
 10
250.6748
 20
51.9507
  0
VERTEX
  8
LAYER_1
 10
-29.3346
 20
51.9507
  0
SEQEND
  0
INSERT
  8
LAYER_1
  2
AIGNBL01010002
 10
0
 20
0
 30
0
  0
POLYLINE
  8
LAYER_1
 40
0.3528
 41
0.3528
 66
1
 10
0
 20
0
 30
0
  0
VERTEX
  8
LAYER_1
 10
-29.3178
 20
229.3369
  0
VERTEX
  8
LAYER_1
 10
-29.3178
 20
34.3283
  0
VERTEX
  8
LAYER_1
 10
250.6748
 20
34.3283
  0
VERTEX
  8
LAYER_1
 10
250.6748
 20
229.3369
  0
VERTEX
  8
LAYER_1
 10
-29.3178
 20
229.3369
  0
SEQEND
  0
POLYLINE
  8
LAYER_1
 40
0.3528
 41
0.3528
 66
1
 10
0
 20
0
 30
0
  0
VERTEX
  8
LAYER_1
 10
250.6748
 20
60.4597
  0
VERTEX
  8
LAYER_1
 10
-29.3346
 20
60.4597
  0
SEQEND
  0
POLYLINE
  8
LAYER_1
 40
0.3528
 41
0.3528
 66
1
 10
0
 20
0
 30
0
  0
VERTEX
  8
LAYER_1
 10
250.6748
 20
43.4416
  0
VERTEX
  8
LAYER_1
 10
100.3837
 20
43.4416
  0
SEQEND
  0
TEXT
  8
LAYER_1
 10
188.1725
 20
45.7175
 11
188.1725
 21
45.7175
 40
3.7609
 41
0.5
  1
-
  0
TEXT
  8
LAYER_1
 10
182.8808
 20
49.4743
 11
182.8808
 21
49.4743
 40
2.1994
 41
0.5
  1
縮尺
  0
POLYLINE
  8
LAYER_1
 40
0.3528
 41
0.3528
 66
1
 10
0
 20
0
 30
0
  0
VERTEX
  8
LAYER_1
 10
181.3526
 20
43.4416
  0
VERTEX
  8
LAYER_1
 10
181.3526
 20
51.9507
  0
SEQEND
  0
TEXT
  8
LAYER_1
 10
101.641
 20
57.9834
 11
101.641
 21
57.9834
 40
2.1994
 41
0.5
  1
品番
  0
TEXT
  8
LAYER_1
 10
-28.1609
 20
57.9834
 11
-28.1609
 21
57.9834
 40
2.1994
 41
0.5
  1
品名
  0
TEXT
  8
LAYER_1
 10
101.641
 20
49.4743
 11
101.641
 21
49.4743
 40
2.1994
 41
0.5
  1
重量
  0
TEXT
  8
LAYER_1
 10
105.0013
 20
54.1714
 11
105.0013
 21
54.1714
 40
4.6883
 41
0.5
  1
KS-DS320/KS-SG320/KS-GP320
  0
TEXT
  8
LAYER_1
 10
107.1887
 20
45.7175
 11
107.1887
 21
45.7175
 40
3.7609
 41
0.5
  1
6.85kg
  0
POLYLINE
  8
LAYER_1
 40
0.3528
 41
0.3528
 66
1
 10
0
 20
0
 30
0
  0
VERTEX
  8
LAYER_1
 10
100.3837
 20
34.9539
  0
VERTEX
  8
LAYER_1
 10
100.3837
 20
60.4597
  0
SEQEND
  0
TEXT
  8
LAYER_1
 10
-15.3865
 20
54.891
 11
-15.3865
 21
54.891
 40
4.1459
 41
0.5
  1
カマノツボ 置き型手洗鉢320ｍｍ
  0
TEXT
  8
LAYER_1
 10
-15.6835
 20
43.9625
 11
-15.6835
 21
43.9625
 40
3.5536
 41
0.5
  1
●サイズ  ≒W320×≒D320×≒H135mm●水栓取付穴：なし●オーバーフローなし
  0
TEXT
  8
LAYER_1
 10
-15.6835
 20
39.2124
 11
-15.6835
 21
39.2124
 40
3.1172
 41
0.5
  1
●排水金具別途●設置方法：カウンター置き
  0
TEXT
  8
LAYER_1
 10
237.263
 20
63.2582
 11
237.263
 21
63.2582
 40
2.9614
 41
0.5
  1
単位：mm
  0
TEXT
  8
LAYER_1
 10
-21.3096
 20
205.1359
 11
-21.3096
 21
205.1359
 40
2.5977
 41
0.5
  1
※ひとつひとつ手作りで制作しているため、同じ品番でも形状の歪み・
  0
TEXT
  8
LAYER_1
 10
-21.3096
 20
200.3859
 11
-21.3096
 21
200.3859
 40
2.5977
 41
0.5
  1
色・サイズ等に大きな個体差が生じます。
  0
TEXT
  8
LAYER_1
 10
-21.3096
 20
195.6359
 11
-21.3096
 21
195.6359
 40
2.5977
 41
0.5
  1
図面は参考サイズとなります。
  0
TEXT
  8
LAYER_1
 10
-21.3096
 20
190.8859
 11
-21.3096
 21
190.8859
 40
2.5977
 41
0.5
  1
※ピンホールや小さな黒点が見られる事がありますが、立杭陶器製品の
  0
TEXT
  8
LAYER_1
 10
-21.3096
 20
186.1358
 11
-21.3096
 21
186.1358
 40
2.5977
 41
0.5
  1
特徴ですので不良品ではありません。
  0
TEXT
  8
LAYER_1
 10
134.702
 20
39.5359
 11
134.702
 21
39.5359
 40
3.3848
 41
0.5
  1
●TEL 0120-65-1232●FAX 06-6532-1580
  0
TEXT
  8
LAYER_1
 10
134.702
 20
36.0212
 11
134.702
 21
36.0212
 40
3.3848
 41
0.5
  1
hits@hiratatile.co.jp
  0
TEXT
  8
LAYER_1
 10
240.3591
 20
225.8432
 11
240.3591
 21
225.8432
 40
2.073
 41
0.5
  1
170628RT
  0
INSERT
  8
LAYER_1
  2
AIGNBL01010003
 10
0
 20
0
 30
0
  0
INSERT
  8
LAYER_1
  2
AIGNBL01010025
 10
0
 20
0
 30
0
  0
POLYLINE
  8
LAYER_1
  6
AIGENLINE001
 40
0.2646
 41
0.2646
 66
1
 10
0
 20
0
 30
0
 70
128
  0
VERTEX
  8
LAYER_1
 10
84.2055
 20
110.7752
  0
VERTEX
  8
LAYER_1
 10
184.3955
 20
110.7752
  0
SEQEND
  0
CIRCLE
  8
LAYER_1
 10
134.3
 20
110.7759
 40
40.0002
  0
POLYLINE
  8
LAYER_1
 40
0.2646
 41
0.2646
 66
1
 10
0
 20
0
 30
0
 70
1
  0
VERTEX
  8
LAYER_1
 10
134.3002
 20
72.23
 42
-0.4135524391
  0
VERTEX
  8
LAYER_1
 10
95.7547
 20
110.7754
 42
-0.4135526804
  0
VERTEX
  8
LAYER_1
 10
134.3002
 20
149.3209
 42
-0.4135522838
  0
VERTEX
  8
LAYER_1
 10
172.8456
 20
110.7754
 42
-0.4135520425
  0
SEQEND
  0
POLYLINE
  8
LAYER_1
  6
AIGENLINE002
 40
0.0882
 41
0.0882
 66
1
 10
0
 20
0
 30
0
 70
129
  0
VERTEX
  8
LAYER_1
 10
134.3002
 20
99.7754
 42
-0.4135526337
  0
VERTEX
  8
LAYER_1
 10
123.3002
 20
110.7754
 42
-0.4135534761
  0
VERTEX
  8
LAYER_1
 10
134.3002
 20
121.7754
 42
-0.4135520894
  0
VERTEX
  8
LAYER_1
 10
145.3002
 20
110.7754
 42
-0.413551247
  0
SEQEND
  0
CIRCLE
  8
LAYER_1
 10
134.3004
 20
110.7756
 40
9.6251
  0
CIRCLE
  8
LAYER_1
 10
134.3005
 20
110.7755
 40
5.6248
  0
TEXT
  8
LAYER_1
 10
170.8625
 20
128.1179
 11
170.8625
 21
128.1179
 40
10.3641
 41
0.5
 72
2
  1
%%c45
  0
INSERT
  8
LAYER_1
  2
AIGNBL01010031
 10
0
 20
0
 30
0
  0
POLYLINE
  8
LAYER_1
 40
0.2646
 41
0.2646
 66
1
 10
0
 20
0
 30
0
  0
VERTEX
  8
LAYER_1
 10
148.2364
 20
124.7114
  0
VERTEX
  8
LAYER_1
 10
158.5741
 20
124.7114
  0
SEQEND
  0
CIRCLE
  8
LAYER_1
 10
134.3005
 20
110.7755
 40
5.6248
  0
TEXT
  8
LAYER_1
 10
108.7966
 20
186.4825
 11
108.7966
 21
186.4825
 40
10.3641
 41
0.5
 72
2
  1
≒135
  0
TEXT
  8
LAYER_1
 10
188.1478
 20
213.7797
 11
188.1478
 21
213.7797
 40
10.3641
 41
0.5
 72
2
  1
≒320
  0
INSERT
  8
LAYER_1
  2
AIGNBL01010033
 10
0
 20
0
 30
0
  0
INSERT
  8
LAYER_1
  2
AIGNBL01010034
 10
0
 20
0
 30
0
  0
POLYLINE
  8
LAYER_1
  6
AIGENLINE001
 40
0.2646
 41
0.2646
 66
1
 10
0
 20
0
 30
0
 70
128
  0
VERTEX
  8
LAYER_1
 10
134.2998
 20
224.0748
  0
VERTEX
  8
LAYER_1
 10
134.2998
 20
64.5175
  0
SEQEND
  0
INSERT
  8
LAYER_1
  2
AIGNBL01010035
 10
0
 20
0
 30
0
  0
POLYLINE
  8
LAYER_1
 40
0.2646
 41
0.2646
 66
1
 10
0
 20
0
 30
0
  0
VERTEX
  8
LAYER_1
 10
134.1587
 20
204.1491
  0
VERTEX
  8
LAYER_1
 10
95.0809
 20
204.1493
  0
SEQEND
  0
INSERT
  8
LAYER_1
  2
AIGNBL01010036
 10
0
 20
0
 30
0
  0
POLYLINE
  8
LAYER_1
 40
0.2646
 41
0.2646
 66
1
 10
0
 20
0
 30
0
  0
VERTEX
  8
LAYER_1
 10
117.4257
 20
170.0413
  0
VERTEX
  8
LAYER_1
 10
134.3007
 20
170.0413
  0
SEQEND
  0
POLYLINE
  8
LAYER_1
 40
0.2646
 41
0.2646
 66
1
 10
0
 20
0
 30
0
  0
VERTEX
  8
LAYER_1
 10
128.6648
 20
172.9721
  0
VERTEX
  8
LAYER_1
 10
134.3006
 20
172.9721
  0
SEQEND
  0
POLYLINE
  8
LAYER_1
 40
0.2646
 41
0.2646
 66
1
 10
0
 20
0
 30
0
  0
VERTEX
  8
LAYER_1
 10
124.6258
 20
175.531
  0
VERTEX
  8
LAYER_1
 10
134.3006
 20
175.531
  0
SEQEND
  0
POLYLINE
  8
LAYER_1
 40
0.2646
 41
0.2646
 66
1
 10
0
 20
0
 30
0
  0
VERTEX
  8
LAYER_1
 10
134.4416
 20
204.1491
  0
VERTEX
  8
LAYER_1
 10
173.5195
 20
204.1493
  0
SEQEND
  0
INSERT
  8
LAYER_1
  2
AIGNBL01010037
 10
0
 20
0
 30
0
  0
POLYLINE
  8
LAYER_1
 40
0.2646
 41
0.2646
 66
1
 10
0
 20
0
 30
0
  0
VERTEX
  8
LAYER_1
 10
151.1757
 20
170.0413
  0
VERTEX
  8
LAYER_1
 10
134.3007
 20
170.0413
  0
SEQEND
  0
POLYLINE
  8
LAYER_1
 40
0.2646
 41
0.2646
 66
1
 10
0
 20
0
 30
0
  0
VERTEX
  8
LAYER_1
 10
139.9365
 20
172.9721
  0
VERTEX
  8
LAYER_1
 10
134.3008
 20
172.9721
  0
SEQEND
  0
POLYLINE
  8
LAYER_1
 40
0.2646
 41
0.2646
 66
1
 10
0
 20
0
 30
0
  0
VERTEX
  8
LAYER_1
 10
143.9755
 20
175.531
  0
VERTEX
  8
LAYER_1
 10
134.3008
 20
175.531
  0
SEQEND
  0
TEXT
  8
LAYER_1
 10
137.1987
 20
96.607
 11
137.1987
 21
96.607
 40
3.387
 41
0.5
  1
カウンター
  0
TEXT
  8
LAYER_1
 10
137.3365
 20
92.857
 11
137.3365
 21
92.857
 40
4.0305
 41
0.5
  1
開口寸法：100
  0
ENDSEC
  0
EOF
