  0
SECTION
  2
HEADER
  9
$ACADVER
  1
AC1009
  9
$INSBASE
 10
0.0
 20
0.0
 30
0.0
  9
$EXTMIN
 10
-4.70052
 20
-21.070699999999999
 30
0.0
  9
$EXTMAX
 10
205.30099999999999
 20
275.93099999999998
 30
0.0
  9
$LIMMIN
 10
0.0
 20
0.0
  9
$LIMMAX
 10
12.0
 20
9.0
  9
$ORTHOMODE
 70
     0
  9
$REGENMODE
 70
     1
  9
$FILLMODE
 70
     1
  9
$QTEXTMODE
 70
     0
  9
$MIRRTEXT
 70
     1
  9
$DRAGMODE
 70
     2
  9
$LTSCALE
 40
1.0
  9
$OSMODE
 70
    37
  9
$ATTMODE
 70
     1
  9
$TEXTSIZE
 40
0.0
  9
$TRACEWID
 40
0.05
  9
$TEXTSTYLE
  7
STANDARD
  9
$CLAYER
  8
0
  9
$CELTYPE
  6
CONTINUOUS
  9
$CECOLOR
 62
   256
  9
$DIMSCALE
 40
1.0
  9
$DIMASZ
 40
0.18
  9
$DIMEXO
 40
0.0625
  9
$DIMDLI
 40
0.38
  9
$DIMRND
 40
0.0
  9
$DIMDLE
 40
0.0
  9
$DIMEXE
 40
0.18
  9
$DIMTP
 40
0.0
  9
$DIMTM
 40
0.0
  9
$DIMTXT
 40
0.18
  9
$DIMCEN
 40
0.09
  9
$DIMTSZ
 40
0.0
  9
$DIMTOL
 70
     0
  9
$DIMLIM
 70
     0
  9
$DIMTIH
 70
     1
  9
$DIMTOH
 70
     1
  9
$DIMSE1
 70
     0
  9
$DIMSE2
 70
     0
  9
$DIMTAD
 70
     0
  9
$DIMZIN
 70
     0
  9
$DIMBLK
  1

  9
$DIMASO
 70
     1
  9
$DIMSHO
 70
     1
  9
$DIMPOST
  1

  9
$DIMAPOST
  1

  9
$DIMALT
 70
     0
  9
$DIMALTD
 70
     2
  9
$DIMALTF
 40
25.399999999999999
  9
$DIMLFAC
 40
1.0
  9
$DIMTOFL
 70
     0
  9
$DIMTVP
 40
0.0
  9
$DIMTIX
 70
     0
  9
$DIMSOXD
 70
     0
  9
$DIMSAH
 70
     0
  9
$DIMBLK1
  1

  9
$DIMBLK2
  1

  9
$DIMSTYLE
  2
STANDARD
  9
$DIMCLRD
 70
     0
  9
$DIMCLRE
 70
     0
  9
$DIMCLRT
 70
     0
  9
$DIMTFAC
 40
1.0
  9
$DIMGAP
 40
0.09
  9
$LUNITS
 70
     2
  9
$LUPREC
 70
     4
  9
$SKETCHINC
 40
0.1
  9
$FILLETRAD
 40
0.0
  9
$AUNITS
 70
     0
  9
$AUPREC
 70
     0
  9
$MENU
  1
.
  9
$ELEVATION
 40
0.0
  9
$PELEVATION
 40
0.0
  9
$THICKNESS
 40
0.0
  9
$LIMCHECK
 70
     0
  9
$BLIPMODE
 70
     0
  9
$CHAMFERA
 40
0.0
  9
$CHAMFERB
 40
0.0
  9
$SKPOLY
 70
     0
  9
$TDCREATE
 40
2444972.375
  9
$TDUPDATE
 40
2458531.2510041902
  9
$TDINDWG
 40
0.0000321528
  9
$TDUSRTIMER
 40
0.0000321644
  9
$USRTIMER
 70
     1
  9
$ANGBASE
 50
0.0
  9
$ANGDIR
 70
     0
  9
$PDMODE
 70
     0
  9
$PDSIZE
 40
0.0
  9
$PLINEWID
 40
0.0
  9
$COORDS
 70
     1
  9
$SPLFRAME
 70
     0
  9
$SPLINETYPE
 70
     6
  9
$SPLINESEGS
 70
     8
  9
$ATTDIA
 70
     1
  9
$ATTREQ
 70
     1
  9
$HANDLING
 70
     1
  9
$HANDSEED
  5
5A6
  9
$SURFTAB1
 70
     6
  9
$SURFTAB2
 70
     6
  9
$SURFTYPE
 70
     6
  9
$SURFU
 70
     6
  9
$SURFV
 70
     6
  9
$UCSNAME
  2

  9
$UCSORG
 10
0.0
 20
0.0
 30
0.0
  9
$UCSXDIR
 10
1.0
 20
0.0
 30
0.0
  9
$UCSYDIR
 10
0.0
 20
1.0
 30
0.0
  9
$PUCSNAME
  2

  9
$PUCSORG
 10
0.0
 20
0.0
 30
0.0
  9
$PUCSXDIR
 10
1.0
 20
0.0
 30
0.0
  9
$PUCSYDIR
 10
0.0
 20
1.0
 30
0.0
  9
$USERI1
 70
     0
  9
$USERI2
 70
     0
  9
$USERI3
 70
     0
  9
$USERI4
 70
     0
  9
$USERI5
 70
     0
  9
$USERR1
 40
0.0
  9
$USERR2
 40
0.0
  9
$USERR3
 40
0.0
  9
$USERR4
 40
0.0
  9
$USERR5
 40
0.0
  9
$WORLDVIEW
 70
     1
  9
$SHADEDGE
 70
     3
  9
$SHADEDIF
 70
    70
  9
$TILEMODE
 70
     1
  9
$MAXACTVP
 70
    48
  9
$PLIMCHECK
 70
     0
  9
$PEXTMIN
 10
1.0000000000000000E+020
 20
1.0000000000000000E+020
 30
1.0000000000000000E+020
  9
$PEXTMAX
 10
-1.0000000000000000E+020
 20
-1.0000000000000000E+020
 30
-1.0000000000000000E+020
  9
$PLIMMIN
 10
0.0
 20
0.0
  9
$PLIMMAX
 10
12.0
 20
9.0
  9
$UNITMODE
 70
     0
  9
$VISRETAIN
 70
     1
  9
$PLINEGEN
 70
     0
  9
$PSLTSCALE
 70
     1
  0
ENDSEC
  0
SECTION
  2
TABLES
  0
TABLE
  2
VPORT
 70
     1
  0
VPORT
  2
*ACTIVE
 70
     0
 10
0.0
 20
0.0
 11
1.0
 21
1.0
 12
190.88168206760091
 22
127.4301499999999
 13
0.0
 23
0.0
 14
1.0
 24
1.0
 15
0.0
 25
0.0
 16
0.0
 26
0.0
 36
1.0
 17
0.0
 27
0.0
 37
0.0
 40
280.94862533030818
 41
2.298642533936651
 42
50.0
 43
0.0
 44
0.0
 50
0.0
 51
0.0
 71
     0
 72
   100
 73
     1
 74
     1
 75
     0
 76
     0
 77
     0
 78
     0
  0
ENDTAB
  0
TABLE
  2
LTYPE
 70
     4
  0
LTYPE
  2
CONTINUOUS
 70
     0
  3
Solid line
 72
    65
 73
     0
 40
0.0
  0
LTYPE
  2
AIGENLINE001
 70
     0
  3
generate AI->DXF Converter
 72
    65
 73
     4
 40
5.8561449999999988
 49
3.5278
 49
-0.776115
 49
0.776115
 49
-0.776115
  0
LTYPE
  2
AIGENLINE002
 70
     0
  3
generate AI->DXF Converter
 72
    65
 73
     6
 40
7.4083750000000004
 49
3.5278
 49
-0.776115
 49
0.776115
 49
-0.776115
 49
0.776115
 49
-0.776115
  0
LTYPE
  2
AIGENLINE003
 70
     0
  3
generate AI->DXF Converter
 72
    65
 73
     2
 40
1.5522299999999991
 49
0.776115
 49
-0.776115
  0
ENDTAB
  0
TABLE
  2
LAYER
 70
     4
  0
LAYER
  2
0
 70
     0
 62
     7
  6
CONTINUOUS
  0
LAYER
  2
____
 70
     0
 62
     7
  6
CONTINUOUS
  0
LAYER
  2
_________1
 70
     0
 62
     7
  6
CONTINUOUS
  0
LAYER
  2
_________2
 70
     0
 62
     7
  6
CONTINUOUS
  0
ENDTAB
  0
TABLE
  2
STYLE
 70
     1
  0
STYLE
  2
STANDARD
 70
     0
 40
0.0
 41
0.0
 50
0.0
 71
     0
 42
0.0
  3
TXT
  4
EXTFONT.SHX
  0
ENDTAB
  0
TABLE
  2
VIEW
 70
     0
  0
ENDTAB
  0
TABLE
  2
UCS
 70
     0
  0
ENDTAB
  0
TABLE
  2
APPID
 70
     3
  0
APPID
  2
ACAD
 70
     0
  0
APPID
  2
ACAD_NAV_VCDISPLAY
 70
     0
  0
APPID
  2
ACAD_MLEADERVER
 70
     0
  0
ENDTAB
  0
TABLE
  2
DIMSTYLE
 70
     1
  0
DIMSTYLE
  2
STANDARD
 70
     0
  3

  4

  5

  6

  7

 40
1.0
 41
0.18
 42
0.0625
 43
0.38
 44
0.18
 45
0.0
 46
0.0
 47
0.0
 48
0.0
140
0.18
141
0.09
142
0.0
143
25.399999999999999
144
1.0
145
0.0
146
1.0
147
0.09
 71
     0
 72
     0
 73
     1
 74
     1
 75
     0
 76
     0
 77
     0
 78
     0
170
     0
171
     2
172
     0
173
     0
174
     0
175
     0
176
     0
177
     0
178
     0
  0
ENDTAB
  0
ENDSEC
  0
SECTION
  2
BLOCKS
  0
BLOCK
  8
0
  2
$MODEL_SPACE
 70
     0
 10
0.0
 20
0.0
 30
0.0
  3
$MODEL_SPACE
  1

  0
ENDBLK
  5
1A
  8
0
  0
BLOCK
 67
     1
  8
0
  2
$PAPER_SPACE
 70
     0
 10
0.0
 20
0.0
 30
0.0
  3
$PAPER_SPACE
  1

  0
ENDBLK
  5
17
 67
     1
  8
0
  0
BLOCK
  8
_________1
  2
AIGNBL02010002
 70
     0
 10
0.0
 20
0.0
 30
0.0
  3
AIGNBL02010002
  1

  0
ARC
  5
28
  8
_________1
 62
     7
 10
128.51342299999999
 20
88.968370999999991
 30
0.0
 40
0.094682
 50
269.662105
 51
339.08567599999998
  0
ARC
  5
29
  8
_________1
 62
     7
 10
128.47706599999989
 20
88.982373999999993
 30
0.0
 40
0.133643
 50
339.04168900000002
 51
0.3731559999999999
  0
ARC
  5
2A
  8
_________1
 62
     7
 10
122.786995
 20
89.294364000000002
 30
0.0
 40
0.3431760000000001
 50
181.55742900000001
 51
258.257563
  0
ARC
  5
2B
  8
_________1
 62
     7
 10
122.801936
 20
89.332548000000003
 30
0.0
 40
0.383662
 50
257.23343199999999
 51
266.80216899999999
  0
LINE
  5
2C
  8
_________1
 62
     7
 10
128.51300000000001
 20
88.873699999999999
 30
0.0
 11
122.78100000000001
 21
88.949499999999986
 31
0.0
  0
ENDBLK
  5
2D
  8
_________1
  0
BLOCK
  8
_________1
  2
AIGNBL02010003
 70
     0
 10
0.0
 20
0.0
 30
0.0
  3
AIGNBL02010003
  1

  0
ARC
  5
30
  8
_________1
 62
     7
 10
128.51326900000001
 20
104.445751
 30
0.0
 40
0.094611
 50
20.536532000000008
 51
90.244873999999996
  0
ARC
  5
31
  8
_________1
 62
     7
 10
128.47545600000001
 20
104.43084399999999
 30
0.0
 40
0.135252
 50
359.69210099999998
 51
20.830857000000002
  0
ARC
  5
32
  8
_________1
 62
     7
 10
122.793464
 20
104.115037
 30
0.0
 40
0.34977
 50
92.118487000000016
 51
177.82280800000001
  0
LINE
  5
33
  8
_________1
 62
     7
 10
128.51300000000001
 20
104.54000000000001
 30
0.0
 11
122.78100000000001
 21
104.465
 31
0.0
  0
LINE
  5
34
  8
_________1
 62
     7
 10
122.444
 20
89.284999999999997
 30
0.0
 11
122.444
 21
104.128
 31
0.0
  0
LINE
  5
35
  8
_________1
 62
     7
 10
128.61099999999999
 20
88.983199999999997
 30
0.0
 11
128.61099999999999
 21
104.43000000000001
 31
0.0
  0
ENDBLK
  5
36
  8
_________1
  0
BLOCK
  8
_________1
  2
AIGNBL02010004
 70
     0
 10
0.0
 20
0.0
 30
0.0
  3
AIGNBL02010004
  1

  0
LINE
  5
39
  8
_________1
  6
AIGENLINE001
 62
     7
 10
111.187
 20
196.82400000000001
 30
0.0
 11
111.187
 21
200.07900000000001
 31
0.0
  0
LINE
  5
3A
  8
_________1
  6
AIGENLINE001
 62
     7
 10
151.8539999999999
 20
196.82400000000001
 30
0.0
 11
151.8539999999999
 21
200.07900000000001
 31
0.0
  0
ENDBLK
  5
3B
  8
_________1
  0
BLOCK
  8
_________1
  2
AIGNBL02010005
 70
     0
 10
0.0
 20
0.0
 30
0.0
  3
AIGNBL02010005
  1

  0
LINE
  5
3E
  8
_________1
 62
     7
 10
77.0321
 20
196.90299999999999
 30
0.0
 11
79.243899999999996
 21
197.495
 31
0.0
  0
LINE
  5
3F
  8
_________1
 62
     7
 10
79.243899999999996
 20
197.495
 30
0.0
 11
77.0321
 21
198.08799999999999
 31
0.0
  0
LINE
  5
40
  8
_________1
 62
     7
 10
77.0321
 20
198.08799999999999
 30
0.0
 11
77.0321
 21
196.90299999999999
 31
0.0
  0
LINE
  5
41
  8
_________1
 62
     7
 10
40.345799999999997
 20
198.08799999999999
 30
0.0
 11
38.134
 21
197.495
 31
0.0
  0
LINE
  5
42
  8
_________1
 62
     7
 10
38.134
 20
197.495
 30
0.0
 11
40.345799999999997
 21
196.90299999999999
 31
0.0
  0
LINE
  5
43
  8
_________1
 62
     7
 10
40.345799999999997
 20
196.90299999999999
 30
0.0
 11
40.345799999999997
 21
198.08799999999999
 31
0.0
  0
LINE
  5
44
  8
_________1
 62
     7
 10
79.243899999999996
 20
197.495
 30
0.0
 11
38.134
 21
197.495
 31
0.0
  0
ENDBLK
  5
45
  8
_________1
  0
BLOCK
  8
_________1
  2
AIGNBL02010006
 70
     0
 10
0.0
 20
0.0
 30
0.0
  3
AIGNBL02010006
  1

  0
LINE
  5
48
  8
_________1
 62
     7
 10
83.699100000000001
 20
234.38
 30
0.0
 11
85.910899999999984
 21
234.97300000000001
 31
0.0
  0
LINE
  5
49
  8
_________1
 62
     7
 10
85.910899999999984
 20
234.97300000000001
 30
0.0
 11
83.699100000000001
 21
235.565
 31
0.0
  0
LINE
  5
4A
  8
_________1
 62
     7
 10
83.699100000000001
 20
235.565
 30
0.0
 11
83.699100000000001
 21
234.38
 31
0.0
  0
LINE
  5
4B
  8
_________1
 62
     7
 10
33.455500000000001
 20
235.565
 30
0.0
 11
31.2438
 21
234.97300000000001
 31
0.0
  0
LINE
  5
4C
  8
_________1
 62
     7
 10
31.2438
 20
234.97300000000001
 30
0.0
 11
33.455500000000001
 21
234.38
 31
0.0
  0
LINE
  5
4D
  8
_________1
 62
     7
 10
33.455500000000001
 20
234.38
 30
0.0
 11
33.455500000000001
 21
235.565
 31
0.0
  0
LINE
  5
4E
  8
_________1
 62
     7
 10
85.910899999999984
 20
234.97300000000001
 30
0.0
 11
31.2438
 21
234.97300000000001
 31
0.0
  0
ENDBLK
  5
4F
  8
_________1
  0
BLOCK
  8
_________1
  2
AIGNBL02010007
 70
     0
 10
0.0
 20
0.0
 30
0.0
  3
AIGNBL02010007
  1

  0
LINE
  5
52
  8
_________1
 62
     7
 10
149.642
 20
188.786
 30
0.0
 11
151.8539999999999
 21
189.3779999999999
 31
0.0
  0
LINE
  5
53
  8
_________1
 62
     7
 10
151.8539999999999
 20
189.3779999999999
 30
0.0
 11
149.642
 21
189.97099999999989
 31
0.0
  0
LINE
  5
54
  8
_________1
 62
     7
 10
149.642
 20
189.97099999999989
 30
0.0
 11
149.642
 21
188.786
 31
0.0
  0
LINE
  5
55
  8
_________1
 62
     7
 10
113.399
 20
189.97099999999989
 30
0.0
 11
111.187
 21
189.3779999999999
 31
0.0
  0
LINE
  5
56
  8
_________1
 62
     7
 10
111.187
 20
189.3779999999999
 30
0.0
 11
113.399
 21
188.786
 31
0.0
  0
LINE
  5
57
  8
_________1
 62
     7
 10
113.399
 20
188.786
 30
0.0
 11
113.399
 21
189.97099999999989
 31
0.0
  0
LINE
  5
58
  8
_________1
 62
     7
 10
151.8539999999999
 20
189.3779999999999
 30
0.0
 11
111.187
 21
189.3779999999999
 31
0.0
  0
ENDBLK
  5
59
  8
_________1
  0
BLOCK
  8
_________1
  2
AIGNBL02010008
 70
     0
 10
0.0
 20
0.0
 30
0.0
  3
AIGNBL02010008
  1

  0
LINE
  5
5C
  8
_________1
 62
     7
 10
164.44
 20
237.036
 30
0.0
 11
163.84800000000001
 21
239.24799999999999
 31
0.0
  0
LINE
  5
5D
  8
_________1
 62
     7
 10
163.84800000000001
 20
239.24799999999999
 30
0.0
 11
163.255
 21
237.036
 31
0.0
  0
LINE
  5
5E
  8
_________1
 62
     7
 10
163.255
 20
237.036
 30
0.0
 11
164.44
 21
237.036
 31
0.0
  0
LINE
  5
5F
  8
_________1
 62
     7
 10
163.255
 20
200.791
 30
0.0
 11
163.84800000000001
 21
198.57900000000001
 31
0.0
  0
LINE
  5
60
  8
_________1
 62
     7
 10
163.84800000000001
 20
198.57900000000001
 30
0.0
 11
164.44
 21
200.791
 31
0.0
  0
LINE
  5
61
  8
_________1
 62
     7
 10
164.44
 20
200.791
 30
0.0
 11
163.255
 21
200.791
 31
0.0
  0
LINE
  5
62
  8
_________1
 62
     7
 10
163.84800000000001
 20
239.24799999999999
 30
0.0
 11
163.84800000000001
 21
198.57900000000001
 31
0.0
  0
ENDBLK
  5
63
  8
_________1
  0
BLOCK
  8
_________1
  2
AIGNBL02010009
 70
     0
 10
0.0
 20
0.0
 30
0.0
  3
AIGNBL02010009
  1

  0
LINE
  5
66
  8
_________1
 62
     7
 10
163.28700000000001
 20
248.24199999999999
 30
0.0
 11
162.69499999999999
 21
250.453
 31
0.0
  0
LINE
  5
67
  8
_________1
 62
     7
 10
162.69499999999999
 20
250.453
 30
0.0
 11
162.102
 21
248.24199999999999
 31
0.0
  0
LINE
  5
68
  8
_________1
 62
     7
 10
162.102
 20
248.24199999999999
 30
0.0
 11
163.28700000000001
 21
248.24199999999999
 31
0.0
  0
LINE
  5
69
  8
_________1
 62
     7
 10
162.102
 20
255.33099999999999
 30
0.0
 11
162.69499999999999
 21
253.12
 31
0.0
  0
LINE
  5
6A
  8
_________1
 62
     7
 10
162.69499999999999
 20
253.12
 30
0.0
 11
163.28700000000001
 21
255.33099999999999
 31
0.0
  0
LINE
  5
6B
  8
_________1
 62
     7
 10
163.28700000000001
 20
255.33099999999999
 30
0.0
 11
162.102
 21
255.33099999999999
 31
0.0
  0
ENDBLK
  5
6C
  8
_________1
  0
BLOCK
  8
_________1
  2
AIGNBL0201000A
 70
     0
 10
0.0
 20
0.0
 30
0.0
  3
AIGNBL0201000A
  1

  0
LINE
  5
6F
  8
_________1
 62
     7
 10
35.788699999999999
 20
120.56999999999999
 30
0.0
 11
33.577100000000002
 21
119.97799999999999
 31
0.0
  0
LINE
  5
70
  8
_________1
 62
     7
 10
33.577100000000002
 20
119.97799999999999
 30
0.0
 11
35.788699999999999
 21
119.38500000000001
 31
0.0
  0
LINE
  5
71
  8
_________1
 62
     7
 10
35.788699999999999
 20
119.38500000000001
 30
0.0
 11
35.788699999999999
 21
120.56999999999999
 31
0.0
  0
LINE
  5
72
  8
_________1
 62
     7
 10
81.365899999999996
 20
119.38500000000001
 30
0.0
 11
83.577500000000015
 21
119.97799999999999
 31
0.0
  0
LINE
  5
73
  8
_________1
 62
     7
 10
83.577500000000015
 20
119.97799999999999
 30
0.0
 11
81.365899999999996
 21
120.56999999999999
 31
0.0
  0
LINE
  5
74
  8
_________1
 62
     7
 10
81.365899999999996
 20
120.56999999999999
 30
0.0
 11
81.365899999999996
 21
119.38500000000001
 31
0.0
  0
LINE
  5
75
  8
_________1
 62
     7
 10
33.577100000000002
 20
119.97799999999999
 30
0.0
 11
83.577500000000015
 21
119.97799999999999
 31
0.0
  0
ENDBLK
  5
76
  8
_________1
  0
BLOCK
  8
_________1
  2
AIGNBL0201000B
 70
     0
 10
0.0
 20
0.0
 30
0.0
  3
AIGNBL0201000B
  1

  0
LINE
  5
79
  8
_________1
 62
     7
 10
169.61699999999999
 20
150.03399999999999
 30
0.0
 11
169.024
 21
152.24600000000001
 31
0.0
  0
LINE
  5
7A
  8
_________1
 62
     7
 10
169.024
 20
152.24600000000001
 30
0.0
 11
168.43199999999999
 21
150.03399999999999
 31
0.0
  0
LINE
  5
7B
  8
_________1
 62
     7
 10
168.43199999999999
 20
150.03399999999999
 30
0.0
 11
169.61699999999999
 21
150.03399999999999
 31
0.0
  0
LINE
  5
7C
  8
_________1
 62
     7
 10
168.43199999999999
 20
158.124
 30
0.0
 11
169.024
 21
155.91300000000001
 31
0.0
  0
LINE
  5
7D
  8
_________1
 62
     7
 10
169.024
 20
155.91300000000001
 30
0.0
 11
169.61699999999999
 21
158.124
 31
0.0
  0
LINE
  5
7E
  8
_________1
 62
     7
 10
169.61699999999999
 20
158.124
 30
0.0
 11
168.43199999999999
 21
158.124
 31
0.0
  0
LINE
  5
7F
  8
_________1
 62
     7
 10
169.024
 20
158.428
 30
0.0
 11
169.024
 21
145.822
 31
0.0
  0
ENDBLK
  5
80
  8
_________1
  0
BLOCK
  8
_________1
  2
AIGNBL0201000C
 70
     0
 10
0.0
 20
0.0
 30
0.0
  3
AIGNBL0201000C
  1

  0
LINE
  5
83
  8
_________1
 62
     7
 10
176.30099999999999
 20
156.70099999999999
 30
0.0
 11
175.709
 21
158.91300000000001
 31
0.0
  0
LINE
  5
84
  8
_________1
 62
     7
 10
175.709
 20
158.91300000000001
 30
0.0
 11
175.11600000000001
 21
156.70099999999999
 31
0.0
  0
LINE
  5
85
  8
_________1
 62
     7
 10
175.11600000000001
 20
156.70099999999999
 30
0.0
 11
176.30099999999999
 21
156.70099999999999
 31
0.0
  0
LINE
  5
86
  8
_________1
 62
     7
 10
175.11600000000001
 20
154.458
 30
0.0
 11
175.709
 21
152.24600000000001
 31
0.0
  0
LINE
  5
87
  8
_________1
 62
     7
 10
175.709
 20
152.24600000000001
 30
0.0
 11
176.30099999999999
 21
154.458
 31
0.0
  0
LINE
  5
88
  8
_________1
 62
     7
 10
176.30099999999999
 20
154.458
 30
0.0
 11
175.11600000000001
 21
154.458
 31
0.0
  0
LINE
  5
89
  8
_________1
 62
     7
 10
175.709
 20
158.91300000000001
 30
0.0
 11
175.709
 21
152.24600000000001
 31
0.0
  0
ENDBLK
  5
8A
  8
_________1
  0
BLOCK
  8
_________1
  2
AIGNBL0201000D
 70
     0
 10
0.0
 20
0.0
 30
0.0
  3
AIGNBL0201000D
  1

  0
LINE
  5
8D
  8
_________1
 62
     7
 10
152.233
 20
143.61600000000001
 30
0.0
 11
154.4439999999999
 21
144.208
 31
0.0
  0
LINE
  5
8E
  8
_________1
 62
     7
 10
154.4439999999999
 20
144.208
 30
0.0
 11
152.233
 21
144.80099999999999
 31
0.0
  0
LINE
  5
8F
  8
_________1
 62
     7
 10
152.233
 20
144.80099999999999
 30
0.0
 11
152.233
 21
143.61600000000001
 31
0.0
  0
LINE
  5
90
  8
_________1
 62
     7
 10
163.65600000000001
 20
144.80099999999999
 30
0.0
 11
161.44399999999999
 21
144.208
 31
0.0
  0
LINE
  5
91
  8
_________1
 62
     7
 10
161.44399999999999
 20
144.208
 30
0.0
 11
163.65600000000001
 21
143.61600000000001
 31
0.0
  0
LINE
  5
92
  8
_________1
 62
     7
 10
163.65600000000001
 20
143.61600000000001
 30
0.0
 11
163.65600000000001
 21
144.80099999999999
 31
0.0
  0
LINE
  5
93
  8
_________1
 62
     7
 10
165.63200000000001
 20
144.208
 30
0.0
 11
143.023
 21
144.208
 31
0.0
  0
ENDBLK
  5
94
  8
_________1
  0
BLOCK
  8
_________1
  2
AIGNBL0201000E
 70
     0
 10
0.0
 20
0.0
 30
0.0
  3
AIGNBL0201000E
  1

  0
LINE
  5
97
  8
_________1
 62
     7
 10
59.865600000000001
 20
44.159500000000001
 30
0.0
 11
62.077199999999998
 21
44.752099999999992
 31
0.0
  0
LINE
  5
98
  8
_________1
 62
     7
 10
62.077199999999998
 20
44.752099999999992
 30
0.0
 11
59.865600000000001
 21
45.3446
 31
0.0
  0
LINE
  5
99
  8
_________1
 62
     7
 10
59.865600000000001
 20
45.3446
 30
0.0
 11
59.865600000000001
 21
44.159500000000001
 31
0.0
  0
LINE
  5
9A
  8
_________1
 62
     7
 10
57.288699999999999
 20
45.3446
 30
0.0
 11
55.077100000000002
 21
44.752099999999992
 31
0.0
  0
LINE
  5
9B
  8
_________1
 62
     7
 10
55.077100000000002
 20
44.752099999999992
 30
0.0
 11
57.288699999999999
 21
44.159500000000001
 31
0.0
  0
LINE
  5
9C
  8
_________1
 62
     7
 10
57.288699999999999
 20
44.159500000000001
 30
0.0
 11
57.288699999999999
 21
45.3446
 31
0.0
  0
LINE
  5
9D
  8
_________1
 62
     7
 10
62.077199999999998
 20
44.752099999999992
 30
0.0
 11
55.077100000000002
 21
44.752099999999992
 31
0.0
  0
ENDBLK
  5
9E
  8
_________1
  0
BLOCK
  8
_________1
  2
AIGNBL0201000F
 70
     0
 10
0.0
 20
0.0
 30
0.0
  3
AIGNBL0201000F
  1

  0
LINE
  5
A1
  8
_________1
 62
     7
 10
23.929400000000001
 20
78.918700000000001
 30
0.0
 11
24.521999999999998
 21
76.707599999999999
 31
0.0
  0
LINE
  5
A2
  8
_________1
 62
     7
 10
24.521999999999998
 20
76.707599999999999
 30
0.0
 11
25.114599999999999
 21
78.918700000000001
 31
0.0
  0
LINE
  5
A3
  8
_________1
 62
     7
 10
25.114599999999999
 20
78.918700000000001
 30
0.0
 11
23.929400000000001
 21
78.918700000000001
 31
0.0
  0
LINE
  5
A4
  8
_________1
 62
     7
 10
25.114599999999999
 20
81.496000000000009
 30
0.0
 11
24.521999999999998
 21
83.707400000000007
 31
0.0
  0
LINE
  5
A5
  8
_________1
 62
     7
 10
24.521999999999998
 20
83.707400000000007
 30
0.0
 11
23.929400000000001
 21
81.496000000000009
 31
0.0
  0
LINE
  5
A6
  8
_________1
 62
     7
 10
23.929400000000001
 20
81.496000000000009
 30
0.0
 11
25.114599999999999
 21
81.496000000000009
 31
0.0
  0
LINE
  5
A7
  8
_________1
 62
     7
 10
24.521999999999998
 20
76.707599999999999
 30
0.0
 11
24.521999999999998
 21
83.707400000000007
 31
0.0
  0
ENDBLK
  5
A8
  8
_________1
  0
BLOCK
  8
_________1
  2
AIGNBL02010010
 70
     0
 10
0.0
 20
0.0
 30
0.0
  3
AIGNBL02010010
  1

  0
LINE
  5
AB
  8
_________1
 62
     7
 10
57.288999999999987
 20
114.855
 30
0.0
 11
55.077399999999997
 21
114.26300000000001
 31
0.0
  0
LINE
  5
AC
  8
_________1
 62
     7
 10
55.077399999999997
 20
114.26300000000001
 30
0.0
 11
57.288999999999987
 21
113.67
 31
0.0
  0
LINE
  5
AD
  8
_________1
 62
     7
 10
57.288999999999987
 20
113.67
 30
0.0
 11
57.288999999999987
 21
114.855
 31
0.0
  0
LINE
  5
AE
  8
_________1
 62
     7
 10
59.865600000000001
 20
113.67
 30
0.0
 11
62.077199999999998
 21
114.26300000000001
 31
0.0
  0
LINE
  5
AF
  8
_________1
 62
     7
 10
62.077199999999998
 20
114.26300000000001
 30
0.0
 11
59.865600000000001
 21
114.855
 31
0.0
  0
LINE
  5
B0
  8
_________1
 62
     7
 10
59.865600000000001
 20
114.855
 30
0.0
 11
59.865600000000001
 21
113.67
 31
0.0
  0
LINE
  5
B1
  8
_________1
 62
     7
 10
55.077399999999997
 20
114.26300000000001
 30
0.0
 11
62.077199999999998
 21
114.26300000000001
 31
0.0
  0
ENDBLK
  5
B2
  8
_________1
  0
BLOCK
  8
_________1
  2
AIGNBL02010011
 70
     0
 10
0.0
 20
0.0
 30
0.0
  3
AIGNBL02010011
  1

  0
LINE
  5
B5
  8
_________1
 62
     7
 10
94.275300000000001
 20
81.496000000000009
 30
0.0
 11
93.682699999999997
 21
83.707400000000007
 31
0.0
  0
LINE
  5
B6
  8
_________1
 62
     7
 10
93.682699999999997
 20
83.707400000000007
 30
0.0
 11
93.090199999999996
 21
81.496000000000009
 31
0.0
  0
LINE
  5
B7
  8
_________1
 62
     7
 10
93.090199999999996
 20
81.496000000000009
 30
0.0
 11
94.275300000000001
 21
81.496000000000009
 31
0.0
  0
LINE
  5
B8
  8
_________1
 62
     7
 10
93.090199999999996
 20
78.918700000000001
 30
0.0
 11
93.682699999999997
 21
76.707599999999999
 31
0.0
  0
LINE
  5
B9
  8
_________1
 62
     7
 10
93.682699999999997
 20
76.707599999999999
 30
0.0
 11
94.275300000000001
 21
78.918700000000001
 31
0.0
  0
LINE
  5
BA
  8
_________1
 62
     7
 10
94.275300000000001
 20
78.918700000000001
 30
0.0
 11
93.090199999999996
 21
78.918700000000001
 31
0.0
  0
LINE
  5
BB
  8
_________1
 62
     7
 10
93.682699999999997
 20
83.707400000000007
 30
0.0
 11
93.682699999999997
 21
76.707599999999999
 31
0.0
  0
ENDBLK
  5
BC
  8
_________1
  0
BLOCK
  8
_________1
  2
AIGNBL02010012
 70
     0
 10
0.0
 20
0.0
 30
0.0
  3
AIGNBL02010012
  1

  0
LINE
  5
BF
  8
_________1
 62
     7
 10
100.10299999999999
 20
102.996
 30
0.0
 11
99.510499999999993
 21
105.208
 31
0.0
  0
LINE
  5
C0
  8
_________1
 62
     7
 10
99.510499999999993
 20
105.208
 30
0.0
 11
98.917900000000003
 21
102.996
 31
0.0
  0
LINE
  5
C1
  8
_________1
 62
     7
 10
98.917900000000003
 20
102.996
 30
0.0
 11
100.10299999999999
 21
102.996
 31
0.0
  0
LINE
  5
C2
  8
_________1
 62
     7
 10
98.917900000000003
 20
57.418700000000001
 30
0.0
 11
99.510499999999993
 21
55.207299999999996
 31
0.0
  0
LINE
  5
C3
  8
_________1
 62
     7
 10
99.510499999999993
 20
55.207299999999996
 30
0.0
 11
100.10299999999999
 21
57.418700000000001
 31
0.0
  0
LINE
  5
C4
  8
_________1
 62
     7
 10
100.10299999999999
 20
57.418700000000001
 30
0.0
 11
98.917900000000003
 21
57.418700000000001
 31
0.0
  0
LINE
  5
C5
  8
_________1
 62
     7
 10
99.510499999999993
 20
105.208
 30
0.0
 11
99.510499999999993
 21
55.207299999999996
 31
0.0
  0
ENDBLK
  5
C6
  8
_________1
  0
BLOCK
  8
_________1
  2
AIGNBL02010013
 70
     0
 10
0.0
 20
0.0
 30
0.0
  3
AIGNBL02010013
  1

  0
LINE
  5
C9
  8
_________1
 62
     7
 10
124.21899999999999
 20
105.761
 30
0.0
 11
126.136
 21
104.509
 31
0.0
  0
LINE
  5
CA
  8
_________1
 62
     7
 10
126.136
 20
104.509
 30
0.0
 11
125.102
 21
106.55200000000001
 31
0.0
  0
LINE
  5
CB
  8
_________1
 62
     7
 10
125.102
 20
106.55200000000001
 30
0.0
 11
124.21899999999999
 21
105.761
 31
0.0
  0
LINE
  5
CC
  8
_________1
 62
     7
 10
121.283
 20
109.925
 30
0.0
 11
126.136
 21
104.509
 31
0.0
  0
ENDBLK
  5
CD
  8
_________1
  0
BLOCK
  8
_________1
  2
AIGNBL02010014
 70
     0
 10
0.0
 20
0.0
 30
0.0
  3
AIGNBL02010014
  1

  0
LINE
  5
D0
  8
_________1
 62
     7
 10
141.066
 20
41.229799999999997
 30
0.0
 11
143.27699999999999
 21
41.822299999999991
 31
0.0
  0
LINE
  5
D1
  8
_________1
 62
     7
 10
143.27699999999999
 20
41.822299999999991
 30
0.0
 11
141.066
 21
42.414900000000003
 31
0.0
  0
LINE
  5
D2
  8
_________1
 62
     7
 10
141.066
 20
42.414900000000003
 30
0.0
 11
141.066
 21
41.229799999999997
 31
0.0
  0
LINE
  5
D3
  8
_________1
 62
     7
 10
107.822
 20
42.414900000000003
 30
0.0
 11
105.611
 21
41.822299999999991
 31
0.0
  0
LINE
  5
D4
  8
_________1
 62
     7
 10
105.611
 20
41.822299999999991
 30
0.0
 11
107.822
 21
41.229799999999997
 31
0.0
  0
LINE
  5
D5
  8
_________1
 62
     7
 10
107.822
 20
41.229799999999997
 30
0.0
 11
107.822
 21
42.414900000000003
 31
0.0
  0
LINE
  5
D6
  8
_________1
 62
     7
 10
143.27699999999999
 20
41.822299999999991
 30
0.0
 11
105.611
 21
41.822299999999991
 31
0.0
  0
ENDBLK
  5
D7
  8
_________1
  0
BLOCK
  8
_________1
  2
AIGNBL02010015
 70
     0
 10
0.0
 20
0.0
 30
0.0
  3
AIGNBL02010015
  1

  0
LINE
  5
DA
  8
_________1
 62
     7
 10
166.066
 20
126.05200000000001
 30
0.0
 11
168.27799999999999
 21
126.64400000000001
 31
0.0
  0
LINE
  5
DB
  8
_________1
 62
     7
 10
168.27799999999999
 20
126.64400000000001
 30
0.0
 11
166.066
 21
127.23699999999999
 31
0.0
  0
LINE
  5
DC
  8
_________1
 62
     7
 10
166.066
 20
127.23699999999999
 30
0.0
 11
166.066
 21
126.05200000000001
 31
0.0
  0
LINE
  5
DD
  8
_________1
 62
     7
 10
135.489
 20
127.23699999999999
 30
0.0
 11
133.27699999999999
 21
126.64400000000001
 31
0.0
  0
LINE
  5
DE
  8
_________1
 62
     7
 10
133.27699999999999
 20
126.64400000000001
 30
0.0
 11
135.489
 21
126.05200000000001
 31
0.0
  0
LINE
  5
DF
  8
_________1
 62
     7
 10
135.489
 20
126.05200000000001
 30
0.0
 11
135.489
 21
127.23699999999999
 31
0.0
  0
LINE
  5
E0
  8
_________1
 62
     7
 10
168.27799999999999
 20
126.64400000000001
 30
0.0
 11
133.27699999999999
 21
126.64400000000001
 31
0.0
  0
ENDBLK
  5
E1
  8
_________1
  0
BLOCK
  8
_________1
  2
AIGNBL02010016
 70
     0
 10
0.0
 20
0.0
 30
0.0
  3
AIGNBL02010016
  1

  0
LINE
  5
E4
  8
_________1
 62
     7
 10
166.066
 20
120.81100000000001
 30
0.0
 11
168.27699999999999
 21
121.40300000000001
 31
0.0
  0
LINE
  5
E5
  8
_________1
 62
     7
 10
168.27699999999999
 20
121.40300000000001
 30
0.0
 11
166.066
 21
121.996
 31
0.0
  0
LINE
  5
E6
  8
_________1
 62
     7
 10
166.066
 20
121.996
 30
0.0
 11
166.066
 21
120.81100000000001
 31
0.0
  0
LINE
  5
E7
  8
_________1
 62
     7
 10
145.489
 20
121.996
 30
0.0
 11
143.27699999999999
 21
121.40300000000001
 31
0.0
  0
LINE
  5
E8
  8
_________1
 62
     7
 10
143.27699999999999
 20
121.40300000000001
 30
0.0
 11
145.489
 21
120.81100000000001
 31
0.0
  0
LINE
  5
E9
  8
_________1
 62
     7
 10
145.489
 20
120.81100000000001
 30
0.0
 11
145.489
 21
121.996
 31
0.0
  0
LINE
  5
EA
  8
_________1
 62
     7
 10
168.27699999999999
 20
121.40300000000001
 30
0.0
 11
143.27699999999999
 21
121.40300000000001
 31
0.0
  0
ENDBLK
  5
EB
  8
_________1
  0
BLOCK
  8
_________1
  2
AIGNBL02010017
 70
     0
 10
0.0
 20
0.0
 30
0.0
  3
AIGNBL02010017
  1

  0
LINE
  5
EE
  8
_________1
 62
     7
 10
166.066
 20
115.569
 30
0.0
 11
168.27699999999999
 21
116.16200000000001
 31
0.0
  0
LINE
  5
EF
  8
_________1
 62
     7
 10
168.27699999999999
 20
116.16200000000001
 30
0.0
 11
166.066
 21
116.754
 31
0.0
  0
LINE
  5
F0
  8
_________1
 62
     7
 10
166.066
 20
116.754
 30
0.0
 11
166.066
 21
115.569
 31
0.0
  0
LINE
  5
F1
  8
_________1
 62
     7
 10
160.15600000000001
 20
116.754
 30
0.0
 11
157.94399999999999
 21
116.16200000000001
 31
0.0
  0
LINE
  5
F2
  8
_________1
 62
     7
 10
157.94399999999999
 20
116.16200000000001
 30
0.0
 11
160.15600000000001
 21
115.569
 31
0.0
  0
LINE
  5
F3
  8
_________1
 62
     7
 10
160.15600000000001
 20
115.569
 30
0.0
 11
160.15600000000001
 21
116.754
 31
0.0
  0
LINE
  5
F4
  8
_________1
 62
     7
 10
168.27699999999999
 20
116.16200000000001
 30
0.0
 11
157.94399999999999
 21
116.16200000000001
 31
0.0
  0
ENDBLK
  5
F5
  8
_________1
  0
BLOCK
  8
_________1
  2
AIGNBL02010018
 70
     0
 10
0.0
 20
0.0
 30
0.0
  3
AIGNBL02010018
  1

  0
LINE
  5
F8
  8
_________1
 62
     7
 10
131.066
 20
47.959499999999998
 30
0.0
 11
133.27699999999999
 21
48.551999999999992
 31
0.0
  0
LINE
  5
F9
  8
_________1
 62
     7
 10
133.27699999999999
 20
48.551999999999992
 30
0.0
 11
131.066
 21
49.144599999999997
 31
0.0
  0
LINE
  5
FA
  8
_________1
 62
     7
 10
131.066
 20
49.144599999999997
 30
0.0
 11
131.066
 21
47.959499999999998
 31
0.0
  0
LINE
  5
FB
  8
_________1
 62
     7
 10
107.822
 20
49.144599999999997
 30
0.0
 11
105.611
 21
48.551999999999992
 31
0.0
  0
LINE
  5
FC
  8
_________1
 62
     7
 10
105.611
 20
48.551999999999992
 30
0.0
 11
107.822
 21
47.959499999999998
 31
0.0
  0
LINE
  5
FD
  8
_________1
 62
     7
 10
107.822
 20
47.959499999999998
 30
0.0
 11
107.822
 21
49.144599999999997
 31
0.0
  0
LINE
  5
FE
  8
_________1
 62
     7
 10
133.27699999999999
 20
48.551999999999992
 30
0.0
 11
105.611
 21
48.551999999999992
 31
0.0
  0
ENDBLK
  5
FF
  8
_________1
  0
BLOCK
  8
_________1
  2
AIGNBL02010019
 70
     0
 10
0.0
 20
0.0
 30
0.0
  3
AIGNBL02010019
  1

  0
LINE
  5
102
  8
_________1
 62
     7
 10
56.661499999999997
 20
56.189900000000002
 30
0.0
 11
57.743999999999993
 21
58.207299999999996
 31
0.0
  0
LINE
  5
103
  8
_________1
 62
     7
 10
57.743999999999993
 20
58.207299999999996
 30
0.0
 11
55.797600000000003
 21
57.001199999999997
 31
0.0
  0
LINE
  5
104
  8
_________1
 62
     7
 10
55.797600000000003
 20
57.001199999999997
 30
0.0
 11
56.661499999999997
 21
56.189900000000002
 31
0.0
  0
LINE
  5
105
  8
_________1
 62
     7
 10
48.67329999999999
 20
48.551999999999992
 30
0.0
 11
57.743999999999993
 21
58.207299999999996
 31
0.0
  0
ENDBLK
  5
106
  8
_________1
  0
BLOCK
  8
_________1
  2
AIGNBL0201001A
 70
     0
 10
0.0
 20
0.0
 30
0.0
  3
AIGNBL0201001A
  1

  0
LINE
  5
109
  8
_________1
 62
     7
 10
62.409799999999997
 20
167.30199999999999
 30
0.0
 11
60.244100000000003
 21
168.04499999999999
 31
0.0
  0
LINE
  5
10A
  8
_________1
 62
     7
 10
60.244100000000003
 20
168.04499999999999
 30
0.0
 11
61.748199999999997
 21
166.31800000000001
 31
0.0
  0
LINE
  5
10B
  8
_________1
 62
     7
 10
61.748199999999997
 20
166.31800000000001
 30
0.0
 11
62.409799999999997
 21
167.30199999999999
 31
0.0
  0
LINE
  5
10C
  8
_________1
 62
     7
 10
71.144400000000005
 20
160.71199999999999
 30
0.0
 11
60.244100000000003
 21
168.04499999999999
 31
0.0
  0
ENDBLK
  5
10D
  8
_________1
  0
BLOCK
  8
_________1
  2
AIGNBL0201001B
 70
     0
 10
0.0
 20
0.0
 30
0.0
  3
AIGNBL0201001B
  1

  0
LINE
  5
110
  8
_________1
 62
     7
 10
74.251099999999994
 20
205.49600000000001
 30
0.0
 11
72.043400000000005
 21
206.10300000000001
 31
0.0
  0
LINE
  5
111
  8
_________1
 62
     7
 10
72.043400000000005
 20
206.10300000000001
 30
0.0
 11
73.651600000000002
 21
204.47300000000001
 31
0.0
  0
LINE
  5
112
  8
_________1
 62
     7
 10
73.651600000000002
 20
204.47300000000001
 30
0.0
 11
74.251099999999994
 21
205.49600000000001
 31
0.0
  0
LINE
  5
113
  8
_________1
 62
     7
 10
82.476600000000005
 20
199.988
 30
0.0
 11
72.043400000000005
 21
206.10300000000001
 31
0.0
  0
ENDBLK
  5
114
  8
_________1
  0
BLOCK
  8
_________1
  2
AIGNBL0201001C
 70
     0
 10
0.0
 20
0.0
 30
0.0
  3
AIGNBL0201001C
  1

  0
LINE
  5
117
  8
_________1
 62
     7
 10
65.257199999999983
 20
183.04499999999999
 30
0.0
 11
63.206699999999991
 21
184.06399999999999
 31
0.0
  0
LINE
  5
118
  8
_________1
 62
     7
 10
63.206699999999991
 20
184.06399999999999
 30
0.0
 11
64.473100000000002
 21
182.15600000000001
 31
0.0
  0
LINE
  5
119
  8
_________1
 62
     7
 10
64.473100000000002
 20
182.15600000000001
 30
0.0
 11
65.257199999999983
 21
183.04499999999999
 31
0.0
  0
LINE
  5
11A
  8
_________1
 62
     7
 10
70.940299999999993
 20
177.24299999999999
 30
0.0
 11
63.206699999999991
 21
184.06399999999999
 31
0.0
  0
ENDBLK
  5
11B
  8
_________1
  0
BLOCK
  8
_________1
  2
AIGNBL0201001D
 70
     0
 10
0.0
 20
0.0
 30
0.0
  3
AIGNBL0201001D
  1

  0
LINE
  5
11E
  8
_________1
 62
     7
 10
110.369
 20
194.96600000000001
 30
0.0
 11
110.187
 21
197.24799999999999
 31
0.0
  0
LINE
  5
11F
  8
_________1
 62
     7
 10
110.187
 20
197.24799999999999
 30
0.0
 11
109.20399999999999
 21
195.18100000000001
 31
0.0
  0
LINE
  5
120
  8
_________1
 62
     7
 10
109.20399999999999
 20
195.18100000000001
 30
0.0
 11
110.369
 21
194.96600000000001
 31
0.0
  0
LINE
  5
121
  8
_________1
 62
     7
 10
102.259
 20
154.17099999999999
 30
0.0
 11
110.187
 21
197.24799999999999
 31
0.0
  0
ENDBLK
  5
122
  8
_________1
  0
BLOCK
  8
_________1
  2
AIGNBL0201001E
 70
     0
 10
0.0
 20
0.0
 30
0.0
  3
AIGNBL0201001E
  1

  0
LINE
  5
125
  8
_________1
 62
     7
 10
135.51499999999999
 20
102.783
 30
0.0
 11
136.77799999999999
 21
100.874
 31
0.0
  0
LINE
  5
126
  8
_________1
 62
     7
 10
136.77799999999999
 20
100.874
 30
0.0
 11
136.63900000000001
 21
103.15900000000001
 31
0.0
  0
LINE
  5
127
  8
_________1
 62
     7
 10
136.63900000000001
 20
103.15900000000001
 30
0.0
 11
135.51499999999999
 21
102.783
 31
0.0
  0
LINE
  5
128
  8
_________1
 62
     7
 10
118.952
 20
154.17099999999999
 30
0.0
 11
136.77799999999999
 21
100.874
 31
0.0
  0
ENDBLK
  5
129
  8
_________1
  0
BLOCK
  8
_________1
  2
AIGNBL0201001F
 70
     0
 10
0.0
 20
0.0
 30
0.0
  3
AIGNBL0201001F
  1

  0
LINE
  5
12C
  8
_________1
 62
     7
 10
151.60400000000001
 20
166.39500000000001
 30
0.0
 11
153.44399999999999
 21
167.75599999999989
 31
0.0
  0
LINE
  5
12D
  8
_________1
 62
     7
 10
153.44399999999999
 20
167.75599999999989
 30
0.0
 11
151.1689999999999
 21
167.49700000000001
 31
0.0
  0
LINE
  5
12E
  8
_________1
 62
     7
 10
151.1689999999999
 20
167.49700000000001
 30
0.0
 11
151.60400000000001
 21
166.39500000000001
 31
0.0
  0
LINE
  5
12F
  8
_________1
 62
     7
 10
118.952
 20
154.17099999999999
 30
0.0
 11
153.44399999999999
 21
167.75599999999989
 31
0.0
  0
ENDBLK
  5
130
  8
_________1
  0
BLOCK
  8
_________1
  2
AIGNBL02010020
 70
     0
 10
0.0
 20
0.0
 30
0.0
  3
AIGNBL02010020
  1

  0
LINE
  5
133
  8
_________1
 62
     7
 10
61.792700000000004
 20
59.199199999999998
 30
0.0
 11
59.827199999999998
 21
60.373600000000003
 31
0.0
  0
LINE
  5
134
  8
_________1
 62
     7
 10
59.827199999999998
 20
60.373600000000003
 30
0.0
 11
60.942100000000003
 21
58.373699999999992
 31
0.0
  0
LINE
  5
135
  8
_________1
 62
     7
 10
60.942100000000003
 20
58.373699999999992
 30
0.0
 11
61.792700000000004
 21
59.199199999999998
 31
0.0
  0
LINE
  5
136
  8
_________1
 62
     7
 10
71.3001
 20
48.551999999999992
 30
0.0
 11
59.827199999999998
 21
60.373600000000003
 31
0.0
  0
ENDBLK
  5
137
  8
_________1
  0
BLOCK
  8
_________1
  2
AIGNBL02010021
 70
     0
 10
0.0
 20
0.0
 30
0.0
  3
AIGNBL02010021
  1

  0
ARC
  5
13A
  8
_________1
  6
AIGENLINE002
 62
     7
 10
143.09814
 20
55.387168000000003
 30
0.0
 40
0.179948
 50
271.85671000000002
 51
354.501103
  0
ARC
  5
13B
  8
_________1
  6
AIGENLINE002
 62
     7
 10
139.46200300000001
 20
55.81709
 30
0.0
 40
0.5183449999999999
 50
182.05560800000001
 51
266.62365599999998
  0
LINE
  5
13C
  8
_________1
  6
AIGENLINE002
 62
     7
 10
143.10400000000001
 20
55.207299999999996
 30
0.0
 11
139.43100000000001
 21
55.299599999999991
 31
0.0
  0
ENDBLK
  5
13D
  8
_________1
  0
BLOCK
  8
_________1
  2
AIGNBL02010022
 70
     0
 10
0.0
 20
0.0
 30
0.0
  3
AIGNBL02010022
  1

  0
ARC
  5
140
  8
_________1
 62
     7
 10
133.098342
 20
55.387168000000003
 30
0.0
 40
0.179948
 50
271.85671000000002
 51
354.501103
  0
ARC
  5
141
  8
_________1
 62
     7
 10
129.46220500000001
 20
55.81709
 30
0.0
 40
0.5183449999999999
 50
182.05560800000001
 51
266.62365599999998
  0
LINE
  5
142
  8
_________1
 62
     7
 10
133.10400000000001
 20
55.207299999999996
 30
0.0
 11
129.43199999999999
 21
55.299599999999991
 31
0.0
  0
ENDBLK
  5
143
  8
_________1
  0
BLOCK
  8
_________1
  2
AIGNBL02010023
 70
     0
 10
0.0
 20
0.0
 30
0.0
  3
AIGNBL02010023
  1

  0
ARC
  5
146
  8
_________1
 62
     7
 10
133.098342
 20
105.027827
 30
0.0
 40
0.179948
 50
5.4988970000000004
 51
88.143289999999993
  0
ARC
  5
147
  8
_________1
 62
     7
 10
129.46148600000001
 20
104.597894
 30
0.0
 40
0.5176270000000001
 50
93.301315000000002
 51
177.94024899999999
  0
LINE
  5
148
  8
_________1
 62
     7
 10
133.10400000000001
 20
105.208
 30
0.0
 11
129.43199999999999
 21
105.11499999999999
 31
0.0
  0
LINE
  5
149
  8
_________1
 62
     7
 10
114.777
 20
61.040599999999998
 30
0.0
 11
114.777
 21
59.874099999999999
 31
0.0
  0
LINE
  5
14A
  8
_________1
 62
     7
 10
107.277
 20
61.040599999999998
 30
0.0
 11
107.277
 21
59.874099999999999
 31
0.0
  0
LINE
  5
14B
  8
_________1
 62
     7
 10
105.611
 20
81.040899999999993
 30
0.0
 11
105.611
 21
61.374099999999999
 31
0.0
  0
LINE
  5
14C
  8
_________1
 62
     7
 10
128.94399999999999
 20
104.616
 30
0.0
 11
128.94399999999999
 21
55.798499999999997
 31
0.0
  0
LINE
  5
14D
  8
_________1
 62
     7
 10
133.27699999999999
 20
105.045
 30
0.0
 11
133.27699999999999
 21
55.369900000000001
 31
0.0
  0
ENDBLK
  5
14E
  8
_________1
  0
BLOCK
  8
_________2
  2
AIGNBL03010002
 70
     0
 10
0.0
 20
0.0
 30
0.0
  3
AIGNBL03010002
  1

  0
LINE
  5
151
  8
_________2
 62
     7
 10
76.741399999999999
 20
29.805099999999999
 30
0.0
 11
74.554699999999997
 21
29.805099999999999
 31
0.0
  0
LINE
  5
152
  8
_________2
 62
     7
 10
77.233999999999995
 20
29.805099999999999
 30
0.0
 11
76.981800000000007
 21
29.805099999999999
 31
0.0
  0
LINE
  5
153
  8
_________2
 62
     7
 10
77.726299999999995
 20
29.805099999999999
 30
0.0
 11
80.651600000000002
 21
29.805099999999999
 31
0.0
  0
LINE
  5
154
  8
_________2
 62
     7
 10
77.233999999999995
 20
29.805099999999999
 30
0.0
 11
77.485900000000001
 21
29.805099999999999
 31
0.0
  0
LINE
  5
155
  8
_________2
 62
     7
 10
70.837500000000006
 20
29.805099999999999
 30
0.0
 11
68.650499999999994
 21
29.805099999999999
 31
0.0
  0
LINE
  5
156
  8
_________2
 62
     7
 10
71.329800000000006
 20
29.805099999999999
 30
0.0
 11
71.0779
 21
29.805099999999999
 31
0.0
  0
LINE
  5
157
  8
_________2
 62
     7
 10
71.329800000000006
 20
30.2974
 30
0.0
 11
71.329800000000006
 21
32.484400000000001
 31
0.0
  0
LINE
  5
158
  8
_________2
 62
     7
 10
71.329800000000006
 20
29.805099999999999
 30
0.0
 11
71.329800000000006
 21
30.057600000000001
 31
0.0
  0
LINE
  5
159
  8
_________2
 62
     7
 10
71.822400000000002
 20
29.805099999999999
 30
0.0
 11
74.009
 21
29.805099999999999
 31
0.0
  0
LINE
  5
15A
  8
_________2
 62
     7
 10
71.329800000000006
 20
29.805099999999999
 30
0.0
 11
71.581999999999994
 21
29.805099999999999
 31
0.0
  0
LINE
  5
15B
  8
_________2
 62
     7
 10
71.329800000000006
 20
29.312799999999999
 30
0.0
 11
71.329800000000006
 21
27.126200000000001
 31
0.0
  0
LINE
  5
15C
  8
_________2
 62
     7
 10
71.329800000000006
 20
29.805099999999999
 30
0.0
 11
71.329800000000006
 21
29.5532
 31
0.0
  0
LINE
  5
15D
  8
_________2
 62
     7
 10
75.040899999999993
 20
28.585899999999999
 30
0.0
 11
80.218500000000006
 21
27.720400000000001
 31
0.0
  0
LINE
  5
15E
  8
_________2
 62
     7
 10
75.040899999999993
 20
31.024699999999999
 30
0.0
 11
80.218500000000006
 21
31.8901
 31
0.0
  0
LINE
  5
15F
  8
_________2
 62
     7
 10
80.218500000000006
 20
27.720400000000001
 30
0.0
 11
80.218500000000006
 21
31.8901
 31
0.0
  0
LINE
  5
160
  8
_________2
 62
     7
 10
75.040899999999993
 20
28.585899999999999
 30
0.0
 11
75.040899999999993
 21
31.024699999999999
 31
0.0
  0
ARC
  5
161
  8
_________2
 62
     7
 10
71.283201000000005
 20
29.758156
 30
0.0
 40
1.2673589999999999
 50
2.122214
 51
87.893958999999995
  0
ARC
  5
162
  8
_________2
 62
     7
 10
71.376300000000001
 20
29.758562000000001
 30
0.0
 40
1.2669509999999991
 50
92.104485999999994
 51
177.89548500000001
  0
ARC
  5
163
  8
_________2
 62
     7
 10
71.376343999999989
 20
29.852014
 30
0.0
 40
1.2670099999999991
 50
182.12258499999999
 51
267.89363300000002
  0
ARC
  5
164
  8
_________2
 62
     7
 10
71.282900999999995
 20
29.852677000000011
 30
0.0
 40
1.267684
 50
272.11907200000002
 51
357.848567
  0
ARC
  5
165
  8
_________2
 62
     7
 10
71.249426999999997
 20
29.725097000000002
 30
0.0
 40
2.1664659999999989
 50
2.1159629999999998
 51
87.874558999999991
  0
ARC
  5
166
  8
_________2
 62
     7
 10
71.409410999999992
 20
29.725809000000002
 30
0.0
 40
2.1657280000000001
 50
92.107296999999988
 51
177.902142
  0
ARC
  5
167
  8
_________2
 62
     7
 10
71.409789000000004
 20
29.885100999999999
 30
0.0
 40
2.1661329999999999
 50
182.116929
 51
267.88310000000001
  0
ARC
  5
168
  8
_________2
 62
     7
 10
71.249769999999998
 20
29.885092
 30
0.0
 40
2.1661229999999989
 50
272.11667999999997
 51
357.88333
  0
ENDBLK
  5
169
  8
_________2
  0
ENDSEC
  0
SECTION
  2
ENTITIES
  0
TEXT
  5
16A
  8
____
 62
     7
 10
60.388100000000001
 20
100.864
 30
0.0
 40
3.0923400000000001
  1
閉
 41
0.5
  0
TEXT
  5
16B
  8
____
 62
     7
 10
63.167153999999989
 20
82.964999999999989
 30
0.0
 40
3.0923400000000001
  1
開（上側吐水）
 41
0.5
 72
     1
 11
69.042599999999993
 21
82.964999999999989
 31
0.0
  0
TEXT
  5
16C
  8
____
 62
     7
 10
43.116753999999993
 20
82.964999999999989
 30
0.0
 40
3.0923400000000001
  1
開（下側吐水）
 41
0.5
 72
     1
 11
48.99219999999999
 21
82.964999999999989
 31
0.0
  0
TEXT
  5
16D
  8
____
 62
     7
 10
121.8889687857142
 20
178.375
 30
0.0
 40
3.0923400000000001
  1
※壁裏固定時に使用ください。
 41
0.5
 72
     1
 11
134.34299999999999
 21
178.375
 31
0.0
  0
TEXT
  5
16E
  8
____
 62
     7
 10
125.684448
 20
183.07499999999999
 30
0.0
 40
3.0923400000000001
  1
取付プレート\U+00D71個入
 41
0.5
 72
     1
 11
134.34299999999999
 21
183.07499999999999
 31
0.0
  0
TEXT
  5
16F
  8
____
 62
     7
 10
50.033450000000002
 20
198.196
 30
0.0
 40
3.0923400000000001
  1
%%c124
 41
0.5
 72
     1
 11
52.610399999999998
 21
198.196
 31
0.0
  0
TEXT
  5
170
  8
____
 62
     7
 10
56.773434999999999
 20
235.673
 30
0.0
 40
3.0923400000000001
  1
164
 41
0.5
 72
     1
 11
58.577300000000001
 21
235.673
 31
0.0
  0
TEXT
  5
171
  8
____
 62
     7
 10
129.71713500000001
 20
190.078
 30
0.0
 40
3.0923400000000001
  1
122
 41
0.5
 72
     1
 11
131.52099999999999
 21
190.078
 31
0.0
  0
TEXT
  5
172
  8
____
 62
     7
 10
161.995
 20
245.798
 30
0.0
 40
3.0923400000000001
  1
8
 50
90.0
 41
0.5
  0
TEXT
  5
173
  8
____
 62
     7
 10
163.148
 20
217.11013500000001
 30
0.0
 40
3.0923400000000001
  1
122
 50
90.0
 41
0.5
 72
     1
 11
163.148
 21
218.91399999999999
 31
0.0
  0
TEXT
  5
174
  8
____
 62
     7
 10
147.996973
 20
136.98400000000001
 30
0.0
 40
3.0923400000000001
  1
プラグPF 1/2\U+00D71個入
 41
0.5
 72
     1
 11
157.94399999999999
 21
136.98400000000001
 31
0.0
  0
TEXT
  5
175
  8
____
 62
     7
 10
23.821999999999999
 20
76.393314000000004
 30
0.0
 40
3.0923400000000001
  1
PF 1/2
 50
90.0
 41
0.5
 72
     1
 11
23.821999999999999
 21
80.2072
 31
0.0
  0
TEXT
  5
176
  8
____
 62
     7
 10
168.32400000000001
 20
145.822
 30
0.0
 40
3.0923400000000001
  1
11
 50
90.0
 41
0.5
  0
TEXT
  5
177
  8
____
 62
     7
 10
175.00899999999999
 20
154.51137249999999
 30
0.0
 40
3.0923400000000001
  1
20
 50
90.0
 41
0.5
 72
     1
 11
175.00899999999999
 21
155.67099999999999
 31
0.0
  0
TEXT
  5
178
  8
____
 62
     7
 10
98.810400000000001
 20
78.532182500000005
 30
0.0
 40
3.0923400000000001
  1
150
 50
90.0
 41
0.5
 72
     1
 11
98.810400000000001
 21
80.2072
 31
0.0
  0
TEXT
  5
179
  8
____
 62
     7
 10
92.982699999999994
 20
76.393314000000004
 30
0.0
 40
3.0923400000000001
  1
PF 1/2
 50
90.0
 41
0.5
 72
     1
 11
92.982699999999994
 21
80.2072
 31
0.0
  0
TEXT
  5
17A
  8
____
 62
     7
 10
54.76341399999999
 20
45.452099999999987
 30
0.0
 40
3.0923400000000001
  1
PF 1/2
 41
0.5
 72
     1
 11
58.577300000000001
 21
45.452099999999987
 31
0.0
  0
TEXT
  5
17B
  8
____
 62
     7
 10
54.76341399999999
 20
114.96299999999999
 30
0.0
 40
3.0923400000000001
  1
PF 1/2
 41
0.5
 72
     1
 11
58.577300000000001
 21
114.96299999999999
 31
0.0
  0
TEXT
  5
17C
  8
____
 62
     7
 10
80.87703599999999
 20
161.41200000000001
 30
0.0
 40
3.0923400000000001
  1
温度調整ハンドル
 41
0.5
 72
     2
 11
95.101799999999997
 21
161.41200000000001
 31
0.0
  0
TEXT
  5
17D
  8
____
 62
     7
 10
88.89582200000001
 20
200.68799999999999
 30
0.0
 40
3.0923400000000001
  1
取付プレート
 41
0.5
 72
     2
 11
99.306700000000006
 21
200.68799999999999
 31
0.0
  0
TEXT
  5
17E
  8
____
 62
     7
 10
78.817431999999997
 20
177.94300000000001
 30
0.0
 40
3.0923400000000001
  1
開閉・切替ハンドル
 41
0.5
 72
     2
 11
94.897599999999997
 21
177.94300000000001
 31
0.0
  0
TEXT
  5
17F
  8
____
 62
     7
 10
107.36164599999999
 20
150.334
 30
0.0
 40
3.0923400000000001
  1
（埋込部）
 41
0.5
 72
     1
 11
111.794
 21
150.334
 31
0.0
  0
TEXT
  5
180
  8
____
 62
     7
 10
105.09393
 20
154.87100000000001
 30
0.0
 40
3.0923400000000001
  1
KW9999900
 41
0.5
 72
     1
 11
111.794
 21
154.87100000000001
 31
0.0
  0
TEXT
  5
181
  8
____
 62
     7
 10
77.738748000000001
 20
49.252099999999992
 30
0.0
 40
3.0923400000000001
  1
安全ボタン
 41
0.5
 72
     2
 11
86.397300000000001
 21
49.252099999999992
 31
0.0
  0
TEXT
  5
182
  8
____
 62
     7
 10
143.023
 20
144.90899999999999
 30
0.0
 40
3.0923400000000001
  1
PF 1/2
 41
0.5
  0
TEXT
  5
183
  8
____
 62
     7
 10
106.2
 20
110.625
 30
0.0
 40
3.0923400000000001
  1
KW0004801
 41
0.5
  0
TEXT
  5
184
  8
____
 62
     7
 10
30.9892
 20
49.252099999999992
 30
0.0
 40
3.0923400000000001
  1
メーカーロゴ
 41
0.5
  0
TEXT
  5
185
  8
____
 62
     7
 10
116.352377
 20
42.52239999999999
 30
0.0
 40
3.0923400000000001
  1
max.92（仕上面）
 41
0.5
 72
     1
 11
124.444
 21
42.52239999999999
 31
0.0
  0
TEXT
  5
186
  8
____
 62
     7
 10
142.2998345
 20
127.345
 30
0.0
 40
3.0923400000000001
  1
max.105（仕上面）
 41
0.5
 72
     1
 11
150.77799999999999
 21
127.345
 31
0.0
  0
TEXT
  5
187
  8
____
 62
     7
 10
148.20076700000001
 20
122.10299999999999
 30
0.0
 40
3.0923400000000001
  1
min.75（仕上面）
 41
0.5
 72
     1
 11
155.77699999999999
 21
122.10299999999999
 31
0.0
  0
TEXT
  5
188
  8
____
 62
     7
 10
162.08022
 20
116.86199999999999
 30
0.0
 40
3.0923400000000001
  1
31
 41
0.5
 72
     1
 11
163.11099999999999
 21
116.86199999999999
 31
0.0
  0
TEXT
  5
189
  8
____
 62
     7
 10
111.867767
 20
49.252099999999992
 30
0.0
 40
3.0923400000000001
  1
min.62（仕上面）
 41
0.5
 72
     1
 11
119.444
 21
49.252099999999992
 31
0.0
  0
TEXT
  5
18A
  8
____
 62
     7
 10
56.902282499999998
 20
120.678
 30
0.0
 40
3.0923400000000001
  1
150
 41
0.5
 72
     1
 11
58.577300000000001
 21
120.678
 31
0.0
  0
ARC
  5
18B
  8
_________1
 62
     7
 10
58.561784000000003
 20
93.540572999999995
 30
0.0
 40
12.552842999999999
 50
330.03802100000001
 51
359.99942099999998
  0
ARC
  5
18C
  8
_________1
 62
     7
 10
58.095137000000001
 20
93.059864000000005
 30
0.0
 40
13.028357
 50
2.1139700000000001
 51
87.878935999999996
  0
LINE
  5
18D
  8
_________1
 62
     7
 10
69.8399
 20
89.525199999999984
 30
0.0
 11
69.436999999999983
 21
87.2714
 31
0.0
  0
LINE
  5
18E
  8
_________1
 62
     7
 10
69.436999999999983
 20
87.2714
 30
0.0
 11
70.912899999999993
 21
89.021799999999985
 31
0.0
  0
LINE
  5
18F
  8
_________1
 62
     7
 10
70.912899999999993
 20
89.021799999999985
 30
0.0
 11
69.8399
 21
89.525199999999984
 31
0.0
  0
LINE
  5
190
  8
_________1
 62
     7
 10
68.605400000000003
 20
87.750900000000001
 30
0.0
 11
58.577300000000001
 21
93.540400000000005
 31
0.0
  0
LINE
  5
191
  8
_________1
 62
     7
 10
69.752600000000001
 20
87.088099999999983
 30
0.0
 11
68.867199999999997
 21
87.599999999999994
 31
0.0
  0
ARC
  5
192
  8
_________1
  6
AIGENLINE002
 62
     7
 10
62.163713000000001
 20
89.113732999999996
 30
0.0
 40
1.0244839999999991
 50
60.895088000000001
 51
126.733041
  0
LINE
  5
193
  8
_________1
  6
AIGENLINE002
 62
     7
 10
62.661999999999999
 20
90.008899999999997
 30
0.0
 11
67.306899999999999
 21
87.327200000000005
 31
0.0
  0
ARC
  5
194
  8
_________1
  6
AIGENLINE002
 62
     7
 10
67.469036000000003
 20
87.633128999999997
 30
0.0
 40
0.346253
 50
242.08086399999999
 51
327.900645
  0
LINE
  5
195
  8
_________1
  6
AIGENLINE002
 62
     7
 10
67.7624
 20
87.449100000000001
 30
0.0
 11
68.429000000000002
 21
88.6036
 31
0.0
  0
ARC
  5
196
  8
_________1
  6
AIGENLINE002
 62
     7
 10
68.122242
 20
88.765726999999998
 30
0.0
 40
0.346958
 50
332.14071000000001
 51
57.819136999999998
  0
LINE
  5
197
  8
_________1
  6
AIGENLINE002
 62
     7
 10
68.307000000000002
 20
89.059399999999997
 30
0.0
 11
63.662100000000002
 21
91.741100000000003
 31
0.0
  0
ARC
  5
198
  8
_________1
  6
AIGENLINE002
 62
     7
 10
64.189749000000006
 20
92.621038999999996
 30
0.0
 40
1.0260219999999991
 50
173.314378
 51
239.05479800000001
  0
ARC
  5
199
  8
_________1
 62
     7
 10
58.592857000000002
 20
93.540568999999991
 30
0.0
 40
12.552827000000001
 50
180.00058000000001
 51
209.962018
  0
ARC
  5
19A
  8
_________1
 62
     7
 10
59.059516000000002
 20
93.059868000000009
 30
0.0
 40
13.028352999999999
 50
92.121026999999998
 51
177.88602700000001
  0
LINE
  5
19B
  8
_________1
 62
     7
 10
56.321300000000001
 20
106.47
 30
0.0
 11
58.577300000000001
 21
106.07899999999999
 31
0.0
  0
LINE
  5
19C
  8
_________1
 62
     7
 10
58.577300000000001
 20
106.07899999999999
 30
0.0
 11
56.4283
 21
105.289
 31
0.0
  0
LINE
  5
19D
  8
_________1
 62
     7
 10
56.4283
 20
105.289
 30
0.0
 11
56.321300000000001
 21
106.47
 31
0.0
  0
LINE
  5
19E
  8
_________1
 62
     7
 10
47.314700000000002
 20
89.525199999999984
 30
0.0
 11
47.71759999999999
 21
87.2714
 31
0.0
  0
LINE
  5
19F
  8
_________1
 62
     7
 10
47.71759999999999
 20
87.2714
 30
0.0
 11
46.241700000000002
 21
89.021799999999985
 31
0.0
  0
LINE
  5
1A0
  8
_________1
 62
     7
 10
46.241700000000002
 20
89.021799999999985
 30
0.0
 11
47.314700000000002
 21
89.525199999999984
 31
0.0
  0
LINE
  5
1A1
  8
_________1
 62
     7
 10
60.833199999999998
 20
106.47
 30
0.0
 11
58.577199999999998
 21
106.07899999999999
 31
0.0
  0
LINE
  5
1A2
  8
_________1
 62
     7
 10
58.577199999999998
 20
106.07899999999999
 30
0.0
 11
60.726199999999999
 21
105.289
 31
0.0
  0
LINE
  5
1A3
  8
_________1
 62
     7
 10
60.726199999999999
 20
105.289
 30
0.0
 11
60.833199999999998
 21
106.47
 31
0.0
  0
LINE
  5
1A4
  8
_________1
 62
     7
 10
66.494200000000006
 20
90.790599999999998
 30
0.0
 11
66.494200000000006
 21
88.957099999999997
 31
0.0
  0
LINE
  5
1A5
  8
_________1
 62
     7
 10
66.661000000000001
 20
90.790599999999998
 30
0.0
 11
66.661000000000001
 21
88.957099999999997
 31
0.0
  0
ARC
  5
1A6
  8
_________1
 62
     7
 10
66.574417999999994
 20
88.960223999999997
 30
0.0
 40
0.086592
 50
272.09305999999998
 51
357.90694999999999
  0
ARC
  5
1A7
  8
_________1
 62
     7
 10
66.580834999999993
 20
88.960316999999989
 30
0.0
 40
0.086688
 50
182.15176
 51
267.84827000000001
  0
ARC
  5
1A8
  8
_________1
 62
     7
 10
66.580703
 20
90.787431000000026
 30
0.0
 40
0.086551
 50
92.067412000000004
 51
177.932558
  0
ARC
  5
1A9
  8
_________1
 62
     7
 10
66.574519999999993
 20
90.787493000000012
 30
0.0
 40
0.086486
 50
2.027626999999999
 51
87.972362999999987
  0
LINE
  5
1AA
  8
_________1
 62
     7
 10
67.160799999999995
 20
90.790599999999998
 30
0.0
 11
67.160799999999995
 21
88.957099999999997
 31
0.0
  0
LINE
  5
1AB
  8
_________1
 62
     7
 10
67.327600000000004
 20
90.790599999999998
 30
0.0
 11
67.327600000000004
 21
88.957099999999997
 31
0.0
  0
ARC
  5
1AC
  8
_________1
 62
     7
 10
67.241047999999992
 20
88.960223999999997
 30
0.0
 40
0.086592
 50
272.09305999999998
 51
357.90694999999999
  0
ARC
  5
1AD
  8
_________1
 62
     7
 10
67.247465000000005
 20
88.960316999999989
 30
0.0
 40
0.086688
 50
182.15176
 51
267.84827000000001
  0
ARC
  5
1AE
  8
_________1
 62
     7
 10
67.247332999999998
 20
90.787431000000026
 30
0.0
 40
0.086551
 50
92.067412000000004
 51
177.932558
  0
ARC
  5
1AF
  8
_________1
 62
     7
 10
67.241150000000005
 20
90.787493000000012
 30
0.0
 40
0.086486
 50
2.027626999999999
 51
87.972362999999987
  0
LINE
  5
1B0
  8
_________1
 62
     7
 10
50.160899999999998
 20
90.790599999999998
 30
0.0
 11
50.160899999999998
 21
88.957099999999997
 31
0.0
  0
LINE
  5
1B1
  8
_________1
 62
     7
 10
50.3277
 20
90.790599999999998
 30
0.0
 11
50.3277
 21
88.957099999999997
 31
0.0
  0
ARC
  5
1B2
  8
_________1
 62
     7
 10
50.241116999999988
 20
88.960223999999997
 30
0.0
 40
0.086592
 50
272.09305999999998
 51
357.90694999999999
  0
ARC
  5
1B3
  8
_________1
 62
     7
 10
50.247534000000002
 20
88.960316999999989
 30
0.0
 40
0.086688
 50
182.15176
 51
267.84827000000001
  0
ARC
  5
1B4
  8
_________1
 62
     7
 10
50.247402000000001
 20
90.787431000000026
 30
0.0
 40
0.086551
 50
92.067412000000004
 51
177.932558
  0
ARC
  5
1B5
  8
_________1
 62
     7
 10
50.241084000000001
 20
90.787357999999998
 30
0.0
 40
0.086626
 50
2.1136680000000001
 51
87.886322000000007
  0
LINE
  5
1B6
  8
_________1
 62
     7
 10
48.549300000000002
 20
87.750900000000001
 30
0.0
 11
58.577300000000001
 21
93.540400000000005
 31
0.0
  0
LINE
  5
1B7
  8
_________1
 62
     7
 10
47.402099999999997
 20
87.088099999999983
 30
0.0
 11
48.287500000000001
 21
87.599999999999994
 31
0.0
  0
ARC
  5
1B8
  8
_________1
 62
     7
 10
59.433202999999999
 20
187.00291799999999
 30
0.0
 40
0.144244
 50
0.045183
 51
29.751021999999999
  0
ARC
  5
1B9
  8
_________1
 62
     7
 10
59.507707999999987
 20
187.044275
 30
0.0
 40
0.059046
 50
30.786092
 51
83.491742999999985
  0
ARC
  5
1BA
  8
_________1
 62
     7
 10
59.202972000000003
 20
181.15538699999999
 30
0.0
 40
0.219209
 50
270.26745499999998
 51
310.28199699999999
  0
ARC
  5
1BB
  8
_________1
 62
     7
 10
59.116704000000013
 20
181.27341000000001
 30
0.0
 40
0.365173
 50
308.63493399999999
 51
330.85838899999999
  0
ARC
  5
1BC
  8
_________1
 62
     7
 10
58.881168000000002
 20
181.41411600000001
 30
0.0
 40
0.639467
 50
330.12403399999999
 51
1.9672299999999989
  0
LINE
  5
1BD
  8
_________1
 62
     7
 10
59.577399999999997
 20
187.00299999999999
 30
0.0
 11
59.520299999999999
 21
181.43599999999989
 31
0.0
  0
ARC
  5
1BE
  8
_________1
 62
     7
 10
57.721798999999997
 20
187.00291799999999
 30
0.0
 40
0.144244
 50
150.24893900000001
 51
179.95481699999999
  0
ARC
  5
1BF
  8
_________1
 62
     7
 10
57.647294000000002
 20
187.044275
 30
0.0
 40
0.059046
 50
96.508236999999994
 51
149.213888
  0
ARC
  5
1C0
  8
_________1
 62
     7
 10
57.951695999999998
 20
181.154594
 30
0.0
 40
0.218415
 50
229.64174399999999
 51
269.72889199999997
  0
ARC
  5
1C1
  8
_________1
 62
     7
 10
58.039002000000011
 20
181.274203
 30
0.0
 40
0.366258
 50
209.18890999999999
 51
231.35124500000009
  0
ARC
  5
1C2
  8
_________1
 62
     7
 10
58.273015000000001
 20
181.414401
 30
0.0
 40
0.6389820000000001
 50
178.05681799999999
 51
209.930396
  0
LINE
  5
1C3
  8
_________1
 62
     7
 10
62.744199999999999
 20
187.43600000000001
 30
0.0
 11
62.744199999999999
 21
187.10300000000001
 31
0.0
  0
LINE
  5
1C4
  8
_________1
 62
     7
 10
54.410800000000002
 20
187.43600000000001
 30
0.0
 11
54.410800000000002
 21
187.10300000000001
 31
0.0
  0
ARC
  5
1C5
  8
_________1
 62
     7
 10
63.142536
 20
187.00105400000001
 30
0.0
 40
0.101973
 50
2.2732320000000001
 51
92.369817999999995
  0
ARC
  5
1C6
  8
_________1
 62
     7
 10
62.844054
 20
181.24957800000001
 30
0.0
 40
0.31341
 50
270.513418
 51
327.57799399999999
  0
ARC
  5
1C7
  8
_________1
 62
     7
 10
62.790078000000001
 20
181.29138800000001
 30
0.0
 40
0.381442
 50
326.623741
 51
357.15032300000001
  0
LINE
  5
1C8
  8
_________1
 62
     7
 10
63.244399999999999
 20
187.005
 30
0.0
 11
63.170999999999999
 21
181.27199999999999
 31
0.0
  0
ARC
  5
1C9
  8
_________1
 62
     7
 10
54.012810999999999
 20
187.00105500000001
 30
0.0
 40
0.101973
 50
87.630144999999999
 51
177.726765
  0
ARC
  5
1CA
  8
_________1
 62
     7
 10
54.313980000000008
 20
181.257882
 30
0.0
 40
0.321748
 50
200.3958540000001
 51
269.02123699999999
  0
ARC
  5
1CB
  8
_________1
 62
     7
 10
54.373936999999998
 20
181.29347899999999
 30
0.0
 40
0.3905510000000001
 50
183.090318
 51
202.22552300000001
  0
LINE
  5
1CC
  8
_________1
 62
     7
 10
53.910899999999998
 20
187.005
 30
0.0
 11
53.983999999999988
 21
181.27199999999999
 31
0.0
  0
LINE
  5
1CD
  8
_________1
 62
     7
 10
54.308500000000002
 20
180.93600000000001
 30
0.0
 11
62.846899999999998
 21
180.93600000000001
 31
0.0
  0
LINE
  5
1CE
  8
_________1
 62
     7
 10
54.016999999999989
 20
187.10300000000001
 30
0.0
 11
63.138300000000001
 21
187.10300000000001
 31
0.0
  0
LINE
  5
1CF
  8
_________1
 62
     7
 10
57.577599999999997
 20
187.00299999999999
 30
0.0
 11
57.634399999999999
 21
181.43599999999989
 31
0.0
  0
LINE
  5
1D0
  8
_________1
  6
AIGENLINE003
 62
     7
 10
58.494300000000003
 20
104.45699999999999
 30
0.0
 11
58.494300000000003
 21
102.624
 31
0.0
  0
LINE
  5
1D1
  8
_________1
  6
AIGENLINE003
 62
     7
 10
58.661000000000001
 20
104.45699999999999
 30
0.0
 11
58.661000000000001
 21
102.624
 31
0.0
  0
ARC
  5
1D2
  8
_________1
  6
AIGENLINE003
 62
     7
 10
58.574551
 20
102.627309
 30
0.0
 40
0.086551
 50
272.06744900000001
 51
357.93256000000002
  0
ARC
  5
1D3
  8
_________1
  6
AIGENLINE003
 62
     7
 10
58.580928
 20
102.627441
 30
0.0
 40
0.086688
 50
182.15176
 51
267.84827000000001
  0
ARC
  5
1D4
  8
_________1
 62
     7
 10
58.438915000000001
 20
93.456466000000006
 30
0.0
 40
4.789714
 50
1.0046440000000001
 51
68.865678000000003
  0
ARC
  5
1D5
  8
_________1
 62
     7
 10
58.56130799999999
 20
93.540273999999997
 30
0.0
 40
4.6665839999999994
 50
270.00213500000001
 51
0.002105
  0
ARC
  5
1D6
  8
_________1
 62
     7
 10
58.561481000000008
 20
93.540444999999977
 30
0.0
 40
4.6667550000000002
 50
179.99996999999999
 51
270.00002000000001
  0
ARC
  5
1D7
  8
_________1
 62
     7
 10
58.685456000000002
 20
93.455905000000001
 30
0.0
 40
4.7914760000000003
 50
111.351952
 51
178.98899800000001
  0
ARC
  5
1D8
  8
_________1
  6
AIGENLINE002
 62
     7
 10
54.990944999999989
 20
89.113732999999996
 30
0.0
 40
1.0244839999999991
 50
53.266939999999998
 51
119.10489200000001
  0
LINE
  5
1D9
  8
_________1
  6
AIGENLINE002
 62
     7
 10
54.492600000000003
 20
90.008899999999997
 30
0.0
 11
49.84770000000001
 21
87.327200000000005
 31
0.0
  0
ARC
  5
1DA
  8
_________1
  6
AIGENLINE002
 62
     7
 10
49.685622000000002
 20
87.633128999999997
 30
0.0
 40
0.346253
 50
212.09937500000001
 51
297.91915599999999
  0
LINE
  5
1DB
  8
_________1
  6
AIGENLINE002
 62
     7
 10
49.392299999999999
 20
87.449100000000001
 30
0.0
 11
48.725700000000003
 21
88.6036
 31
0.0
  0
ARC
  5
1DC
  8
_________1
  6
AIGENLINE002
 62
     7
 10
49.032415999999998
 20
88.765726999999998
 30
0.0
 40
0.346958
 50
122.180826
 51
207.85932700000001
  0
LINE
  5
1DD
  8
_________1
  6
AIGENLINE002
 62
     7
 10
48.847599999999993
 20
89.059399999999997
 30
0.0
 11
53.4925
 21
91.741100000000003
 31
0.0
  0
ARC
  5
1DE
  8
_________1
  6
AIGENLINE002
 62
     7
 10
52.964907999999987
 20
92.621038999999996
 30
0.0
 40
1.026022999999999
 50
300.94524000000001
 51
6.6855839999999978
  0
ARC
  5
1DF
  8
_________1
 62
     7
 10
56.536650000000002
 20
98.859567000000013
 30
0.0
 40
1.0244889999999991
 50
293.28202499999998
 51
359.12152500000002
  0
ARC
  5
1E0
  8
_________1
 62
     7
 10
60.586498999999989
 20
98.860303999999999
 30
0.0
 40
1.0253769999999991
 50
180.91894400000001
 51
246.70700099999999
  0
ARC
  5
1E1
  8
_________1
 62
     7
 10
57.907263
 20
104.194462
 30
0.0
 40
0.346478
 50
92.109865999999997
 51
177.89010400000001
  0
ARC
  5
1E2
  8
_________1
 62
     7
 10
59.214624000000001
 20
104.194075
 30
0.0
 40
0.34688
 50
2.171479999999999
 51
87.828509999999994
  0
LINE
  5
1E3
  8
_________1
 62
     7
 10
57.561
 20
104.20699999999999
 30
0.0
 11
57.561
 21
98.843900000000005
 31
0.0
  0
LINE
  5
1E4
  8
_________1
 62
     7
 10
59.561300000000003
 20
104.20699999999999
 30
0.0
 11
59.561300000000003
 21
98.843900000000005
 31
0.0
  0
LINE
  5
1E5
  8
_________1
 62
     7
 10
57.894500000000001
 20
104.541
 30
0.0
 11
59.227800000000002
 21
104.541
 31
0.0
  0
ARC
  5
1E6
  8
_________1
  6
AIGENLINE003
 62
     7
 10
58.580795999999992
 20
104.454211
 30
0.0
 40
0.086551
 50
92.067412000000004
 51
177.932558
  0
ARC
  5
1E7
  8
_________1
  6
AIGENLINE003
 62
     7
 10
58.574612999999999
 20
104.454274
 30
0.0
 40
0.086486
 50
2.027626999999999
 51
87.972362999999987
  0
LINE
  5
1E8
  8
_________1
 62
     7
 10
128.94399999999999
 20
97.707700000000003
 30
0.0
 11
128.61099999999999
 21
97.707700000000003
 31
0.0
  0
LINE
  5
1E9
  8
_________1
 62
     7
 10
128.94399999999999
 20
89.373900000000006
 30
0.0
 11
128.61099999999999
 21
89.373900000000006
 31
0.0
  0
INSERT
  5
1EA
  8
_________1
 62
     7
  2
AIGNBL02010002
 10
0.0
 20
0.0
 30
0.0
  0
INSERT
  5
1EB
  8
_________1
 62
     7
  2
AIGNBL02010003
 10
0.0
 20
0.0
 30
0.0
  0
LINE
  5
1EC
  8
_________1
  6
AIGENLINE001
 62
     7
 10
131.03
 20
93.540400000000005
 30
0.0
 11
120.559
 21
93.540400000000005
 31
0.0
  0
LINE
  5
1ED
  8
_________1
 62
     7
 10
127.61
 20
98.323600000000013
 30
0.0
 11
123.53
 21
98.323600000000013
 31
0.0
  0
LINE
  5
1EE
  8
_________1
  6
AIGENLINE002
 62
     7
 10
36.077300000000001
 20
206.10300000000001
 30
0.0
 11
81.077399999999983
 21
206.10300000000001
 31
0.0
  0
LINE
  5
1EF
  8
_________1
  6
AIGENLINE002
 62
     7
 10
81.077399999999983
 20
206.10300000000001
 30
0.0
 11
81.077399999999983
 21
208.43600000000001
 31
0.0
  0
LINE
  5
1F0
  8
_________1
  6
AIGENLINE002
 62
     7
 10
81.077399999999983
 20
208.43600000000001
 30
0.0
 11
36.077300000000001
 21
208.43600000000001
 31
0.0
  0
LINE
  5
1F1
  8
_________1
  6
AIGENLINE002
 62
     7
 10
36.077300000000001
 20
208.43600000000001
 30
0.0
 11
36.077300000000001
 21
206.10300000000001
 31
0.0
  0
LINE
  5
1F2
  8
_________1
 62
     7
 10
142.351
 20
253.12
 30
0.0
 11
142.351
 21
250.453
 31
0.0
  0
LINE
  5
1F3
  8
_________1
 62
     7
 10
145.077
 20
253.12
 30
0.0
 11
145.077
 21
250.453
 31
0.0
  0
LINE
  5
1F4
  8
_________1
 62
     7
 10
147.965
 20
253.12
 30
0.0
 11
147.965
 21
250.453
 31
0.0
  0
LINE
  5
1F5
  8
_________1
 62
     7
 10
150.89599999999999
 20
253.12
 30
0.0
 11
150.89599999999999
 21
250.453
 31
0.0
  0
LINE
  5
1F6
  8
_________1
 62
     7
 10
153.52099999999999
 20
253.12
 30
0.0
 11
153.52099999999999
 21
250.453
 31
0.0
  0
LINE
  5
1F7
  8
_________1
 62
     7
 10
154.52099999999999
 20
253.12
 30
0.0
 11
154.52099999999999
 21
250.453
 31
0.0
  0
LINE
  5
1F8
  8
_________1
 62
     7
 10
120.691
 20
250.453
 30
0.0
 11
120.691
 21
253.12
 31
0.0
  0
LINE
  5
1F9
  8
_________1
 62
     7
 10
117.965
 20
250.453
 30
0.0
 11
117.965
 21
253.12
 31
0.0
  0
LINE
  5
1FA
  8
_________1
 62
     7
 10
115.077
 20
250.453
 30
0.0
 11
115.077
 21
253.12
 31
0.0
  0
LINE
  5
1FB
  8
_________1
 62
     7
 10
112.146
 20
250.453
 30
0.0
 11
112.146
 21
253.12
 31
0.0
  0
LINE
  5
1FC
  8
_________1
 62
     7
 10
109.521
 20
250.453
 30
0.0
 11
109.521
 21
253.12
 31
0.0
  0
LINE
  5
1FD
  8
_________1
 62
     7
 10
108.521
 20
250.453
 30
0.0
 11
108.521
 21
253.12
 31
0.0
  0
LINE
  5
1FE
  8
_________1
 62
     7
 10
154.85400000000001
 20
250.453
 30
0.0
 11
108.187
 21
250.453
 31
0.0
  0
LINE
  5
1FF
  8
_________1
 62
     7
 10
108.187
 20
250.453
 30
0.0
 11
108.187
 21
253.12
 31
0.0
  0
LINE
  5
200
  8
_________1
 62
     7
 10
108.187
 20
253.12
 30
0.0
 11
154.85400000000001
 21
253.12
 31
0.0
  0
LINE
  5
201
  8
_________1
 62
     7
 10
154.85400000000001
 20
253.12
 30
0.0
 11
154.85400000000001
 21
250.453
 31
0.0
  0
ARC
  5
202
  8
_________1
 62
     7
 10
122.009094
 20
198.639984
 30
0.0
 40
2.2190819999999989
 50
249.12916000000001
 51
312.45887299999998
  0
ARC
  5
203
  8
_________1
 62
     7
 10
119.012035
 20
197.62198900000001
 30
0.0
 40
1.7038029999999991
 50
250.14972700000001
 51
312.49210399999998
  0
ARC
  5
204
  8
_________1
 62
     7
 10
116.52075600000001
 20
197.301456
 30
0.0
 40
1.7120589999999991
 50
235.27262300000001
 51
304.727397
  0
ARC
  5
205
  8
_________1
 62
     7
 10
114.037757
 20
197.636383
 30
0.0
 40
1.714577
 50
217.47515799999999
 51
289.426715
  0
ARC
  5
206
  8
_________1
 62
     7
 10
111.21437
 20
209.40206499999999
 30
0.0
 40
2.1936589999999989
 50
136.96722399999999
 51
179.7232939999999
  0
ARC
  5
207
  8
_________1
 62
     7
 10
111.199274
 20
209.41429500000001
 30
0.0
 40
2.1785389999999989
 50
180.04304500000001
 51
201.647706
  0
ARC
  5
208
  8
_________1
 62
     7
 10
110.202499
 20
206.40611999999999
 30
0.0
 40
1.682007
 50
136.92385999999999
 51
179.77751799999999
  0
ARC
  5
209
  8
_________1
 62
     7
 10
110.200937
 20
206.414951
 30
0.0
 40
1.6804339999999991
 50
180.07846699999999
 51
200.53718000000001
  0
ARC
  5
20A
  8
_________1
 62
     7
 10
109.86011499999999
 20
203.910481
 30
0.0
 40
1.6727540000000001
 50
144.247692
 51
179.929845
  0
ARC
  5
20B
  8
_________1
 62
     7
 10
109.867659
 20
203.91701499999999
 30
0.0
 40
1.680302999999999
 50
180.15298899999999
 51
215.66947400000009
  0
ARC
  5
20C
  8
_________1
 62
     7
 10
110.20934200000001
 20
201.40875
 30
0.0
 40
1.688841
 50
159.51429099999999
 51
179.87006199999999
  0
ARC
  5
20D
  8
_________1
 62
     7
 10
110.214118
 20
201.42624699999999
 30
0.0
 40
1.693668999999999
 50
180.46239399999999
 51
233.271344
  0
ARC
  5
20E
  8
_________1
 62
     7
 10
111.204939
 20
198.57633799999999
 30
0.0
 40
1.684318999999999
 50
165.20887500000001
 51
179.90456699999999
  0
ARC
  5
20F
  8
_________1
 62
     7
 10
111.18728400000001
 20
198.579229
 30
0.0
 40
1.6666609999999991
 50
180.002971
 51
270.00298099999998
  0
ARC
  5
210
  8
_________1
 62
     7
 10
111.188756
 20
198.569749
 30
0.0
 40
1.657181999999999
 50
269.952091
 51
284.88901399999997
  0
ARC
  5
211
  8
_________1
 62
     7
 10
107.118888
 20
213.20318700000001
 30
0.0
 40
3.3940929999999998
 50
317.24098600000002
 51
12.711846
  0
ARC
  5
212
  8
_________1
 62
     7
 10
108.21977699999999
 20
208.245127
 30
0.0
 40
1.0221929999999999
 50
317.53862900000013
 51
20.951215000000001
  0
ARC
  5
213
  8
_________1
 62
     7
 10
107.66898
 20
205.47581299999999
 30
0.0
 40
1.0201059999999991
 50
324.8034990000001
 51
20.043071999999999
  0
ARC
  5
214
  8
_________1
 62
     7
 10
107.67186100000001
 20
202.349628
 30
0.0
 40
1.017531999999999
 50
339.88106499999998
 51
35.272365000000001
  0
ARC
  5
215
  8
_________1
 62
     7
 10
108.580648
 20
199.25218899999999
 30
0.0
 40
1.0256860000000001
 50
346.13145100000003
 51
52.766106000000008
  0
ARC
  5
216
  8
_________1
 62
     7
 10
111.860129
 20
195.97132099999999
 30
0.0
 40
1.0266850000000001
 50
37.280715999999998
 51
103.838227
  0
ARC
  5
217
  8
_________1
 62
     7
 10
114.957342
 20
195.06193400000001
 30
0.0
 40
1.019215999999999
 50
54.759217
 51
110.04320199999999
  0
ARC
  5
218
  8
_________1
 62
     7
 10
118.084017
 20
195.06308799999999
 30
0.0
 40
1.0181849999999999
 50
69.926396999999994
 51
125.27114400000001
  0
ARC
  5
219
  8
_________1
 62
     7
 10
120.853185
 20
195.61226300000001
 30
0.0
 40
1.0217860000000001
 50
69.050589000000002
 51
132.495642
  0
ARC
  5
21A
  8
_________1
 62
     7
 10
125.811553
 20
194.511617
 30
0.0
 40
3.3935040000000001
 50
77.285314999999997
 51
132.763454
  0
ARC
  5
21B
  8
_________1
 62
     7
 10
141.03230600000001
 20
198.63959500000001
 30
0.0
 40
2.2186650000000001
 50
227.53804600000001
 51
290.87078700000001
  0
ARC
  5
21C
  8
_________1
 62
     7
 10
144.02956
 20
197.623143
 30
0.0
 40
1.7048869999999989
 50
227.52552000000011
 51
289.83708200000001
  0
ARC
  5
21D
  8
_________1
 62
     7
 10
146.520837
 20
197.301456
 30
0.0
 40
1.7120589999999991
 50
235.27262300000001
 51
304.727397
  0
ARC
  5
21E
  8
_________1
 62
     7
 10
149.003972
 20
197.636268
 30
0.0
 40
1.714399
 50
250.57859400000001
 51
322.52515499999998
  0
ARC
  5
21F
  8
_________1
 62
     7
 10
151.827224
 20
209.40206499999999
 30
0.0
 40
2.1936589999999989
 50
0.276686
 51
43.032756999999997
  0
ARC
  5
220
  8
_________1
 62
     7
 10
151.84685999999999
 20
209.41429299999999
 30
0.0
 40
2.1739980000000001
 50
338.30487099999999
 51
359.95694099999997
  0
ARC
  5
221
  8
_________1
 62
     7
 10
152.83796599999999
 20
206.40655100000001
 30
0.0
 40
1.682788999999999
 50
0.20769
 51
43.031162000000002
  0
ARC
  5
222
  8
_________1
 62
     7
 10
152.84031200000001
 20
206.414951
 30
0.0
 40
1.6804339999999991
 50
339.46284000000003
 51
359.9215529999999
  0
ARC
  5
223
  8
_________1
 62
     7
 10
153.181477
 20
203.910481
 30
0.0
 40
1.6727559999999999
 50
0.070155
 51
35.752268999999998
  0
ARC
  5
224
  8
_________1
 62
     7
 10
153.173934
 20
203.91701499999999
 30
0.0
 40
1.680302999999999
 50
324.33054600000003
 51
359.84703100000002
  0
ARC
  5
225
  8
_________1
 62
     7
 10
152.87138100000001
 20
201.41592900000001
 30
0.0
 40
1.649365999999999
 50
359.88363399999997
 51
20.731973
  0
ARC
  5
226
  8
_________1
 62
     7
 10
152.82712900000001
 20
201.42624799999999
 30
0.0
 40
1.69367
 50
306.72869500000002
 51
359.53760699999998
  0
ARC
  5
227
  8
_________1
 62
     7
 10
151.87601000000001
 20
198.58148
 30
0.0
 40
1.6449619999999989
 50
359.91860600000001
 51
14.967912
  0
ARC
  5
228
  8
_________1
 62
     7
 10
151.854309
 20
198.579229
 30
0.0
 40
1.666661999999999
 50
269.99705899999998
 51
359.997029
  0
ARC
  5
229
  8
_________1
 62
     7
 10
151.85284300000001
 20
198.56979000000001
 30
0.0
 40
1.657222999999999
 50
255.11119299999999
 51
270.04774200000003
  0
ARC
  5
22A
  8
_________1
 62
     7
 10
155.923236
 20
213.20370399999999
 30
0.0
 40
3.3948330000000002
 50
167.29988599999999
 51
222.75935100000001
  0
ARC
  5
22B
  8
_________1
 62
     7
 10
154.822205
 20
208.24551199999999
 30
0.0
 40
1.0227399999999991
 50
159.083631
 51
222.46261999999999
  0
ARC
  5
22C
  8
_________1
 62
     7
 10
155.37318999999999
 20
205.47624200000001
 30
0.0
 40
1.0208239999999991
 50
159.99723700000001
 51
215.197564
  0
ARC
  5
22D
  8
_________1
 62
     7
 10
155.37146999999999
 20
202.34904499999999
 30
0.0
 40
1.0192870000000001
 50
144.75726
 51
200.04793900000001
  0
ARC
  5
22E
  8
_________1
 62
     7
 10
154.461241
 20
199.252286
 30
0.0
 40
1.025995999999999
 50
127.26562199999999
 51
193.86986200000001
  0
ARC
  5
22F
  8
_________1
 62
     7
 10
151.181465
 20
195.97132099999999
 30
0.0
 40
1.0266850000000001
 50
76.161753000000004
 51
142.71926400000001
  0
ARC
  5
230
  8
_________1
 62
     7
 10
148.08441099999999
 20
195.061702
 30
0.0
 40
1.019498
 50
69.951475000000002
 51
125.240548
  0
ARC
  5
231
  8
_________1
 62
     7
 10
144.95726099999999
 20
195.06168
 30
0.0
 40
1.019517999999999
 50
54.760016
 51
110.047921
  0
ARC
  5
232
  8
_________1
 62
     7
 10
142.187918
 20
195.61150000000001
 30
0.0
 40
1.022446999999999
 50
47.527233000000003
 51
110.926496
  0
ARC
  5
233
  8
_________1
 62
     7
 10
137.23038500000001
 20
194.511617
 30
0.0
 40
3.3935040000000001
 50
47.236525999999998
 51
102.71466599999999
  0
ARC
  5
234
  8
_________1
 62
     7
 10
122.009094
 20
239.18549899999999
 30
0.0
 40
2.2190819999999989
 50
47.541127000000003
 51
110.87084
  0
ARC
  5
235
  8
_________1
 62
     7
 10
119.012035
 20
240.20349400000001
 30
0.0
 40
1.7038029999999991
 50
47.507896000000002
 51
109.850273
  0
ARC
  5
236
  8
_________1
 62
     7
 10
116.52075600000001
 20
240.52385599999999
 30
0.0
 40
1.7120589999999991
 50
55.272602999999997
 51
124.727377
  0
ARC
  5
237
  8
_________1
 62
     7
 10
114.037938
 20
240.188805
 30
0.0
 40
1.7147959999999991
 50
70.582266000000004
 51
142.52525399999999
  0
ARC
  5
238
  8
_________1
 62
     7
 10
111.21437
 20
228.423418
 30
0.0
 40
2.1936589999999989
 50
180.27670599999999
 51
223.03277600000001
  0
ARC
  5
239
  8
_________1
 62
     7
 10
111.199274
 20
228.41118900000001
 30
0.0
 40
2.1785389999999989
 50
158.352294
 51
179.95695499999999
  0
ARC
  5
23A
  8
_________1
 62
     7
 10
110.202505
 20
231.41919300000001
 30
0.0
 40
1.682011999999999
 50
180.21665899999999
 51
223.07603700000001
  0
ARC
  5
23B
  8
_________1
 62
     7
 10
110.19997499999999
 20
231.41053400000001
 30
0.0
 40
1.6794720000000001
 50
159.45687899999999
 51
179.92155500000001
  0
ARC
  5
23C
  8
_________1
 62
     7
 10
109.86011499999999
 20
233.91482999999999
 30
0.0
 40
1.6727540000000001
 50
180.070155
 51
215.752308
  0
ARC
  5
23D
  8
_________1
 62
     7
 10
109.867659
 20
233.90829600000001
 30
0.0
 40
1.680302999999999
 50
144.33052599999999
 51
179.84701100000001
  0
ARC
  5
23E
  8
_________1
 62
     7
 10
110.209344
 20
236.41673499999999
 30
0.0
 40
1.6888439999999989
 50
180.13583399999999
 51
200.48573200000001
  0
ARC
  5
23F
  8
_________1
 62
     7
 10
110.21442
 20
236.39908500000001
 30
0.0
 40
1.69397
 50
126.733783
 51
179.53840099999999
  0
ARC
  5
240
  8
_________1
 62
     7
 10
111.204939
 20
239.24897300000001
 30
0.0
 40
1.684318999999999
 50
180.09543300000001
 51
194.79112499999999
  0
ARC
  5
241
  8
_________1
 62
     7
 10
111.18737
 20
239.24616800000001
 30
0.0
 40
1.666747999999999
 50
90.0
 51
179.99996999999999
  0
ARC
  5
242
  8
_________1
 62
     7
 10
111.188754
 20
239.26066299999999
 30
0.0
 40
1.6522539999999999
 50
75.065475000000006
 51
90.04798700000002
  0
ARC
  5
243
  8
_________1
 62
     7
 10
107.118888
 20
224.62212400000001
 30
0.0
 40
3.3940929999999998
 50
347.28815400000002
 51
42.759014000000001
  0
ARC
  5
244
  8
_________1
 62
     7
 10
108.21977699999999
 20
229.58035699999999
 30
0.0
 40
1.0221929999999999
 50
339.04878500000001
 51
42.461371
  0
ARC
  5
245
  8
_________1
 62
     7
 10
107.66898
 20
232.34949800000001
 30
0.0
 40
1.0201059999999991
 50
339.956928
 51
35.196500999999998
  0
ARC
  5
246
  8
_________1
 62
     7
 10
107.67186100000001
 20
235.475683
 30
0.0
 40
1.017531999999999
 50
324.72763500000002
 51
20.118935
  0
ARC
  5
247
  8
_________1
 62
     7
 10
108.580648
 20
238.57312200000001
 30
0.0
 40
1.0256860000000001
 50
307.23389400000002
 51
13.868549
  0
ARC
  5
248
  8
_________1
 62
     7
 10
111.860129
 20
241.85399100000001
 30
0.0
 40
1.0266850000000001
 50
256.16177299999998
 51
322.71928400000002
  0
ARC
  5
249
  8
_________1
 62
     7
 10
114.957556
 20
242.76309000000001
 30
0.0
 40
1.018858
 50
249.93662200000011
 51
305.24026900000001
  0
ARC
  5
24A
  8
_________1
 62
     7
 10
118.08390199999999
 20
242.76268200000001
 30
0.0
 40
1.018494
 50
234.749021
 51
290.07412799999997
  0
ARC
  5
24B
  8
_________1
 62
     7
 10
120.853185
 20
242.21322000000001
 30
0.0
 40
1.0217860000000001
 50
227.504358
 51
290.949411
  0
ARC
  5
24C
  8
_________1
 62
     7
 10
125.811553
 20
243.31386699999999
 30
0.0
 40
3.3935040000000001
 50
227.236546
 51
282.71468499999997
  0
ARC
  5
24D
  8
_________1
 62
     7
 10
141.03230600000001
 20
239.18588800000001
 30
0.0
 40
2.2186650000000001
 50
69.129212999999993
 51
132.46195399999999
  0
ARC
  5
24E
  8
_________1
 62
     7
 10
144.02956
 20
240.20234099999999
 30
0.0
 40
1.7048869999999989
 50
70.162918000000005
 51
132.47448
  0
ARC
  5
24F
  8
_________1
 62
     7
 10
146.520837
 20
240.52385599999999
 30
0.0
 40
1.7120589999999991
 50
55.272602999999997
 51
124.727377
  0
ARC
  5
250
  8
_________1
 62
     7
 10
149.00379100000001
 20
240.18892
 30
0.0
 40
1.7146179999999991
 50
37.474432999999998
 51
109.412424
  0
ARC
  5
251
  8
_________1
 62
     7
 10
151.827224
 20
228.423418
 30
0.0
 40
2.1936589999999989
 50
316.967243
 51
359.72331400000002
  0
ARC
  5
252
  8
_________1
 62
     7
 10
151.84685999999999
 20
228.411191
 30
0.0
 40
2.1739980000000001
 50
0.043059
 51
21.695129000000001
  0
ARC
  5
253
  8
_________1
 62
     7
 10
152.83796000000001
 20
231.41876199999999
 30
0.0
 40
1.682793999999999
 50
316.96893999999998
 51
359.79812600000002
  0
ARC
  5
254
  8
_________1
 62
     7
 10
152.841274
 20
231.41053400000001
 30
0.0
 40
1.6794720000000001
 50
0.078425
 51
20.543101
  0
ARC
  5
255
  8
_________1
 62
     7
 10
153.181477
 20
233.91483099999999
 30
0.0
 40
1.6727559999999999
 50
324.24773099999999
 51
359.929845
  0
ARC
  5
256
  8
_________1
 62
     7
 10
153.173934
 20
233.90829600000001
 30
0.0
 40
1.680302999999999
 50
0.152969
 51
35.669454000000002
  0
ARC
  5
257
  8
_________1
 62
     7
 10
152.87138999999999
 20
236.40955199999999
 30
0.0
 40
1.649357
 50
339.26800300000002
 51
0.110471
  0
ARC
  5
258
  8
_________1
 62
     7
 10
152.82682700000001
 20
236.39908500000001
 30
0.0
 40
1.693972
 50
0.461598
 51
53.266178000000011
  0
ARC
  5
259
  8
_________1
 62
     7
 10
151.87601000000001
 20
239.243832
 30
0.0
 40
1.6449619999999989
 50
345.03208799999999
 51
0.081394
  0
ARC
  5
25A
  8
_________1
 62
     7
 10
151.85422299999999
 20
239.24616800000001
 30
0.0
 40
1.666747999999999
 50
0.00001
 51
89.999980000000008
  0
ARC
  5
25B
  8
_________1
 62
     7
 10
151.852845
 20
239.26062200000001
 30
0.0
 40
1.6522950000000001
 50
89.952180999999996
 51
104.93431699999999
  0
ARC
  5
25C
  8
_________1
 62
     7
 10
155.923236
 20
224.62160800000001
 30
0.0
 40
3.3948330000000002
 50
137.24064899999999
 51
192.70011400000001
  0
ARC
  5
25D
  8
_________1
 62
     7
 10
154.822205
 20
229.579971
 30
0.0
 40
1.0227399999999991
 50
137.53738000000001
 51
200.916369
  0
ARC
  5
25E
  8
_________1
 62
     7
 10
155.37318999999999
 20
232.34906899999999
 30
0.0
 40
1.0208239999999991
 50
144.802436
 51
200.00276299999999
  0
ARC
  5
25F
  8
_________1
 62
     7
 10
155.37146999999999
 20
235.47626600000001
 30
0.0
 40
1.0192870000000001
 50
159.95206099999999
 51
215.24274
  0
ARC
  5
260
  8
_________1
 62
     7
 10
154.461241
 20
238.573025
 30
0.0
 40
1.025995999999999
 50
166.13013799999999
 51
232.73437799999999
  0
ARC
  5
261
  8
_________1
 62
     7
 10
151.181465
 20
241.85399100000001
 30
0.0
 40
1.0266850000000001
 50
217.28073599999999
 51
283.83824700000002
  0
ARC
  5
262
  8
_________1
 62
     7
 10
148.08419699999999
 20
242.76332199999999
 30
0.0
 40
1.019139
 50
234.75996599999999
 51
290.068693
  0
ARC
  5
263
  8
_________1
 62
     7
 10
144.95737500000001
 20
242.76409100000001
 30
0.0
 40
1.019827
 50
249.95155500000001
 51
305.21982500000001
  0
ARC
  5
264
  8
_________1
 62
     7
 10
142.187918
 20
242.21398400000001
 30
0.0
 40
1.022446999999999
 50
249.0735040000001
 51
312.47276699999998
  0
ARC
  5
265
  8
_________1
 62
     7
 10
137.23038500000001
 20
243.31386699999999
 30
0.0
 40
3.3935040000000001
 50
257.28533399999998
 51
312.76347399999997
  0
LINE
  5
266
  8
_________1
 62
     7
 10
116.521
 20
199.07900000000001
 30
0.0
 11
117.854
 21
199.07900000000001
 31
0.0
  0
LINE
  5
267
  8
_________1
 62
     7
 10
116.521
 20
202.07900000000001
 30
0.0
 11
117.854
 21
202.07900000000001
 31
0.0
  0
ARC
  5
268
  8
_________1
 62
     7
 10
113.982337
 20
197.617661
 30
0.0
 40
1.0391269999999999
 50
272.13115699999997
 51
357.87872399999998
  0
ARC
  5
269
  8
_________1
 62
     7
 10
113.982
 20
197.54057700000001
 30
0.0
 40
1.0394699999999999
 50
2.1292810000000002
 51
87.850968999999992
  0
ARC
  5
26A
  8
_________1
 62
     7
 10
114.059614
 20
197.54056299999999
 30
0.0
 40
1.0394709999999989
 50
92.130042000000003
 51
177.86992799999999
  0
ARC
  5
26B
  8
_________1
 62
     7
 10
114.05945
 20
197.6178469999999
 30
0.0
 40
1.0393069999999991
 50
182.13122200000001
 51
267.87867699999998
  0
ARC
  5
26C
  8
_________1
 62
     7
 10
116.520842
 20
197.245969
 30
0.0
 40
1.000032
 50
269.99508500000002
 51
359.99505499999998
  0
ARC
  5
26D
  8
_________1
 62
     7
 10
116.520842
 20
197.24579600000001
 30
0.0
 40
1.000032
 50
0.004945
 51
90.004914999999997
  0
ARC
  5
26E
  8
_________1
 62
     7
 10
116.559398
 20
197.20742000000001
 30
0.0
 40
1.0391269999999999
 50
92.131136999999995
 51
177.878704
  0
ARC
  5
26F
  8
_________1
 62
     7
 10
116.55956
 20
197.28450799999999
 30
0.0
 40
1.0392950000000001
 50
182.12990400000001
 51
267.860255
  0
ARC
  5
270
  8
_________1
 62
     7
 10
119.02096400000001
 20
197.579284
 30
0.0
 40
1.000032
 50
269.99508500000002
 51
359.99505499999998
  0
ARC
  5
271
  8
_________1
 62
     7
 10
119.020878
 20
197.57919799999999
 30
0.0
 40
1.0001180000000001
 50
0.00001
 51
89.999980000000008
  0
ARC
  5
272
  8
_________1
 62
     7
 10
119.020878
 20
197.57919799999999
 30
0.0
 40
1.0001180000000001
 50
90.0
 51
179.99996999999999
  0
ARC
  5
273
  8
_________1
 62
     7
 10
119.020791
 20
197.579284
 30
0.0
 40
1.000030999999999
 50
180.00494499999999
 51
270.004954
  0
ARC
  5
274
  8
_________1
 62
     7
 10
122.020886
 20
198.57931500000001
 30
0.0
 40
1.5000039999999999
 50
270.00002000000001
 51
359.99999000000003
  0
ARC
  5
275
  8
_________1
 62
     7
 10
122.020886
 20
198.57931500000001
 30
0.0
 40
1.5000039999999999
 50
0.00001
 51
89.999980000000008
  0
ARC
  5
276
  8
_________1
 62
     7
 10
122.020886
 20
198.57931500000001
 30
0.0
 40
1.5000039999999999
 50
90.0
 51
179.99996999999999
  0
ARC
  5
277
  8
_________1
 62
     7
 10
122.020886
 20
198.57931500000001
 30
0.0
 40
1.5000039999999999
 50
179.99996999999999
 51
270.00002000000001
  0
ARC
  5
278
  8
_________1
 62
     7
 10
116.52075600000001
 20
200.579206
 30
0.0
 40
1.5000039999999999
 50
90.0
 51
179.99996999999999
  0
ARC
  5
279
  8
_________1
 62
     7
 10
116.52075600000001
 20
200.579206
 30
0.0
 40
1.5000039999999999
 50
179.99996999999999
 51
270.00002000000001
  0
ARC
  5
27A
  8
_________1
 62
     7
 10
117.854016
 20
200.579206
 30
0.0
 40
1.5000039999999999
 50
270.00002000000001
 51
359.99999000000003
  0
ARC
  5
27B
  8
_________1
 62
     7
 10
117.854016
 20
200.579206
 30
0.0
 40
1.5000039999999999
 50
0.00001
 51
89.999980000000008
  0
LINE
  5
27C
  8
_________1
 62
     7
 10
111.687
 20
203.91300000000001
 30
0.0
 11
111.687
 21
205.24600000000001
 31
0.0
  0
LINE
  5
27D
  8
_________1
 62
     7
 10
114.687
 20
203.91300000000001
 30
0.0
 11
114.687
 21
205.24600000000001
 31
0.0
  0
ARC
  5
27E
  8
_________1
 62
     7
 10
111.18737
 20
198.57914299999999
 30
0.0
 40
1.0001180000000001
 50
90.0
 51
179.99996999999999
  0
ARC
  5
27F
  8
_________1
 62
     7
 10
111.18737
 20
198.57914299999999
 30
0.0
 40
1.0001180000000001
 50
0.00001
 51
89.999980000000008
  0
ARC
  5
280
  8
_________1
 62
     7
 10
111.187456
 20
198.579229
 30
0.0
 40
1.000032
 50
269.99508500000002
 51
359.99505499999998
  0
ARC
  5
281
  8
_________1
 62
     7
 10
111.18728400000001
 20
198.579229
 30
0.0
 40
1.000030999999999
 50
180.00494499999999
 51
270.004954
  0
ARC
  5
282
  8
_________1
 62
     7
 10
113.22623900000001
 20
200.54058499999999
 30
0.0
 40
1.0394699999999999
 50
92.149011000000002
 51
177.870699
  0
ARC
  5
283
  8
_________1
 62
     7
 10
113.14862599999999
 20
200.540571
 30
0.0
 40
1.0394709999999989
 50
2.1300520000000001
 51
87.869938000000005
  0
ARC
  5
284
  8
_________1
 62
     7
 10
113.14879000000001
 20
200.61785499999999
 30
0.0
 40
1.0393069999999991
 50
272.12134300000002
 51
357.86879800000003
  0
ARC
  5
285
  8
_________1
 62
     7
 10
113.225903
 20
200.61766900000001
 30
0.0
 40
1.0391269999999999
 50
182.121296
 51
267.86886299999998
  0
ARC
  5
286
  8
_________1
 62
     7
 10
110.226057
 20
201.373954
 30
0.0
 40
1.0392950000000001
 50
92.139744999999991
 51
177.87009599999999
  0
ARC
  5
287
  8
_________1
 62
     7
 10
110.14863
 20
201.37377799999999
 30
0.0
 40
1.039464999999999
 50
2.1392630000000001
 51
87.870597000000004
  0
ARC
  5
288
  8
_________1
 62
     7
 10
110.148782
 20
201.45122900000001
 30
0.0
 40
1.0393069999999991
 50
272.12134300000002
 51
357.86879800000003
  0
ARC
  5
289
  8
_________1
 62
     7
 10
110.22589499999999
 20
201.451043
 30
0.0
 40
1.0391269999999999
 50
182.121296
 51
267.86886299999998
  0
ARC
  5
28A
  8
_________1
 62
     7
 10
109.85411000000001
 20
203.91252900000001
 30
0.0
 40
1.0001180000000001
 50
90.0
 51
179.99996999999999
  0
ARC
  5
28B
  8
_________1
 62
     7
 10
109.85411000000001
 20
203.91252900000001
 30
0.0
 40
1.0001180000000001
 50
0.00001
 51
89.999980000000008
  0
ARC
  5
28C
  8
_________1
 62
     7
 10
109.854196
 20
203.91261499999999
 30
0.0
 40
1.000032
 50
269.99508500000002
 51
359.99505499999998
  0
ARC
  5
28D
  8
_________1
 62
     7
 10
109.854023
 20
203.91261499999999
 30
0.0
 40
1.000030999999999
 50
180.00494499999999
 51
270.004954
  0
ARC
  5
28E
  8
_________1
 62
     7
 10
110.226057
 20
206.37402499999999
 30
0.0
 40
1.0392950000000001
 50
92.139744999999991
 51
177.87009599999999
  0
ARC
  5
28F
  8
_________1
 62
     7
 10
110.14863
 20
206.37384900000001
 30
0.0
 40
1.039464999999999
 50
2.1392630000000001
 51
87.870597000000004
  0
ARC
  5
290
  8
_________1
 62
     7
 10
110.148607
 20
206.45129600000001
 30
0.0
 40
1.039480999999999
 50
272.13060899999999
 51
357.86940099999998
  0
ARC
  5
291
  8
_________1
 62
     7
 10
110.22590599999999
 20
206.45094700000001
 30
0.0
 40
1.0391330000000001
 50
182.11206799999999
 51
267.86822100000001
  0
ARC
  5
292
  8
_________1
 62
     7
 10
111.244545
 20
209.35548399999999
 30
0.0
 40
1.5582279999999999
 50
92.102779999999996
 51
177.89718999999999
  0
ARC
  5
293
  8
_________1
 62
     7
 10
111.18737
 20
209.41265799999999
 30
0.0
 40
1.5000039999999999
 50
0.00001
 51
89.999980000000008
  0
ARC
  5
294
  8
_________1
 62
     7
 10
111.18737
 20
209.41265899999999
 30
0.0
 40
1.5000039999999999
 50
270.00002000000001
 51
359.99999000000003
  0
ARC
  5
295
  8
_________1
 62
     7
 10
111.24533
 20
209.470619
 30
0.0
 40
1.5590419999999989
 50
182.13058100000001
 51
267.86944799999998
  0
ARC
  5
296
  8
_________1
 62
     7
 10
113.18725999999999
 20
203.91252900000001
 30
0.0
 40
1.5000039999999999
 50
270.00002000000001
 51
359.99999000000003
  0
ARC
  5
297
  8
_________1
 62
     7
 10
113.245221
 20
203.97048899999999
 30
0.0
 40
1.5590419999999989
 50
182.13058100000001
 51
267.86944799999998
  0
ARC
  5
298
  8
_________1
 62
     7
 10
113.24443599999999
 20
205.18878699999999
 30
0.0
 40
1.5582279999999999
 50
92.102779999999996
 51
177.89718999999999
  0
ARC
  5
299
  8
_________1
 62
     7
 10
113.18725999999999
 20
205.24596099999999
 30
0.0
 40
1.5000039999999999
 50
0.00001
 51
89.999980000000008
  0
LINE
  5
29A
  8
_________1
 62
     7
 10
146.52099999999999
 20
199.07900000000001
 30
0.0
 11
145.18799999999999
 21
199.07900000000001
 31
0.0
  0
LINE
  5
29B
  8
_________1
 62
     7
 10
146.52099999999999
 20
202.07900000000001
 30
0.0
 11
145.18799999999999
 21
202.07900000000001
 31
0.0
  0
ARC
  5
29C
  8
_________1
 62
     7
 10
149.05958200000001
 20
197.617999
 30
0.0
 40
1.039464999999999
 50
182.13928300000001
 51
267.87061599999998
  0
ARC
  5
29D
  8
_________1
 62
     7
 10
149.05960400000001
 20
197.54055199999999
 30
0.0
 40
1.039480999999999
 50
92.130589000000001
 51
177.869382
  0
ARC
  5
29E
  8
_________1
 62
     7
 10
148.982305
 20
197.54090099999999
 30
0.0
 40
1.0391330000000001
 50
2.1120659999999991
 51
87.868183999999985
  0
ARC
  5
29F
  8
_________1
 62
     7
 10
148.98215500000001
 20
197.61782299999999
 30
0.0
 40
1.0392950000000001
 50
272.13976500000001
 51
357.870116
  0
ARC
  5
2A0
  8
_________1
 62
     7
 10
146.52075099999999
 20
197.245969
 30
0.0
 40
1.000030999999999
 50
180.00494499999999
 51
270.004954
  0
ARC
  5
2A1
  8
_________1
 62
     7
 10
146.52075099999999
 20
197.24579600000001
 30
0.0
 40
1.000032
 50
89.995064999999997
 51
179.995036
  0
ARC
  5
2A2
  8
_________1
 62
     7
 10
146.52092300000001
 20
197.24579600000001
 30
0.0
 40
1.000032
 50
0.004945
 51
90.004914999999997
  0
ARC
  5
2A3
  8
_________1
 62
     7
 10
146.52092300000001
 20
197.245969
 30
0.0
 40
1.000032
 50
269.99508500000002
 51
359.99505499999998
  0
ARC
  5
2A4
  8
_________1
 62
     7
 10
144.059358
 20
197.617661
 30
0.0
 40
1.0391269999999999
 50
182.121296
 51
267.86886299999998
  0
ARC
  5
2A5
  8
_________1
 62
     7
 10
144.05969400000001
 20
197.54057700000001
 30
0.0
 40
1.0394699999999999
 50
92.149011000000002
 51
177.870699
  0
ARC
  5
2A6
  8
_________1
 62
     7
 10
143.98208099999999
 20
197.54056299999999
 30
0.0
 40
1.0394709999999989
 50
2.1300520000000001
 51
87.869938000000005
  0
ARC
  5
2A7
  8
_________1
 62
     7
 10
143.98224500000001
 20
197.6178469999999
 30
0.0
 40
1.0393069999999991
 50
272.12134300000002
 51
357.86879800000003
  0
ARC
  5
2A8
  8
_________1
 62
     7
 10
141.07866799999999
 20
198.63727499999999
 30
0.0
 40
1.5590419999999989
 50
182.13058100000001
 51
267.86944799999998
  0
ARC
  5
2A9
  8
_________1
 62
     7
 10
141.07788300000001
 20
198.52214000000001
 30
0.0
 40
1.5582279999999999
 50
92.102779999999996
 51
177.89718999999999
  0
ARC
  5
2AA
  8
_________1
 62
     7
 10
141.02070699999999
 20
198.57931500000001
 30
0.0
 40
1.5000039999999999
 50
0.00001
 51
89.999980000000008
  0
ARC
  5
2AB
  8
_________1
 62
     7
 10
141.02070699999999
 20
198.57931500000001
 30
0.0
 40
1.5000039999999999
 50
270.00002000000001
 51
359.99999000000003
  0
ARC
  5
2AC
  8
_________1
 62
     7
 10
146.520837
 20
200.579206
 30
0.0
 40
1.5000039999999999
 50
0.00001
 51
89.999980000000008
  0
ARC
  5
2AD
  8
_________1
 62
     7
 10
146.520837
 20
200.579206
 30
0.0
 40
1.5000039999999999
 50
270.00002000000001
 51
359.99999000000003
  0
ARC
  5
2AE
  8
_________1
 62
     7
 10
145.187577
 20
200.579206
 30
0.0
 40
1.5000039999999999
 50
179.99996999999999
 51
270.00002000000001
  0
ARC
  5
2AF
  8
_________1
 62
     7
 10
145.187577
 20
200.579206
 30
0.0
 40
1.5000039999999999
 50
90.0
 51
179.99996999999999
  0
LINE
  5
2B0
  8
_________1
 62
     7
 10
151.35400000000001
 20
203.91300000000001
 30
0.0
 11
151.35400000000001
 21
205.24600000000001
 31
0.0
  0
LINE
  5
2B1
  8
_________1
 62
     7
 10
148.35400000000001
 20
203.91300000000001
 30
0.0
 11
148.35400000000001
 21
205.24600000000001
 31
0.0
  0
ARC
  5
2B2
  8
_________1
 62
     7
 10
151.815245
 20
198.54052200000001
 30
0.0
 40
1.0394699999999999
 50
2.1292810000000002
 51
87.850968999999992
  0
ARC
  5
2B3
  8
_________1
 62
     7
 10
151.85422299999999
 20
198.57914299999999
 30
0.0
 40
1.0001180000000001
 50
90.0
 51
179.99996999999999
  0
ARC
  5
2B4
  8
_________1
 62
     7
 10
151.85413700000001
 20
198.579229
 30
0.0
 40
1.000030999999999
 50
180.00494499999999
 51
270.004954
  0
ARC
  5
2B5
  8
_________1
 62
     7
 10
151.81558100000001
 20
198.61760599999999
 30
0.0
 40
1.0391269999999999
 50
272.13115699999997
 51
357.87872399999998
  0
ARC
  5
2B6
  8
_________1
 62
     7
 10
149.81534300000001
 20
200.540561
 30
0.0
 40
1.039480999999999
 50
2.1305990000000001
 51
87.869391000000007
  0
ARC
  5
2B7
  8
_________1
 62
     7
 10
149.892642
 20
200.54091
 30
0.0
 40
1.0391330000000001
 50
92.131778999999995
 51
177.88793200000001
  0
ARC
  5
2B8
  8
_________1
 62
     7
 10
149.89279199999999
 20
200.617831
 30
0.0
 40
1.0392950000000001
 50
182.12990400000001
 51
267.860255
  0
ARC
  5
2B9
  8
_________1
 62
     7
 10
149.81536500000001
 20
200.61800700000001
 30
0.0
 40
1.039464999999999
 50
272.12940300000002
 51
357.86073699999997
  0
ARC
  5
2BA
  8
_________1
 62
     7
 10
152.81552600000001
 20
201.37393
 30
0.0
 40
1.0393069999999991
 50
2.131202
 51
87.87865699999999
  0
ARC
  5
2BB
  8
_________1
 62
     7
 10
152.89263799999989
 20
201.37411700000001
 30
0.0
 40
1.0391269999999999
 50
92.131136999999995
 51
177.878704
  0
ARC
  5
2BC
  8
_________1
 62
     7
 10
152.89280099999999
 20
201.45120499999999
 30
0.0
 40
1.0392950000000001
 50
182.12990400000001
 51
267.860255
  0
ARC
  5
2BD
  8
_________1
 62
     7
 10
152.81537399999999
 20
201.451381
 30
0.0
 40
1.039464999999999
 50
272.12940300000002
 51
357.86073699999997
  0
ARC
  5
2BE
  8
_________1
 62
     7
 10
153.18748400000001
 20
203.91252900000001
 30
0.0
 40
1.0001180000000001
 50
0.00001
 51
89.999980000000008
  0
ARC
  5
2BF
  8
_________1
 62
     7
 10
153.22613699999999
 20
203.874233
 30
0.0
 40
1.0391330000000001
 50
92.131778999999995
 51
177.88793200000001
  0
ARC
  5
2C0
  8
_________1
 62
     7
 10
153.22628800000001
 20
203.951154
 30
0.0
 40
1.0392950000000001
 50
182.12990400000001
 51
267.860255
  0
ARC
  5
2C1
  8
_________1
 62
     7
 10
153.18756999999999
 20
203.91261499999999
 30
0.0
 40
1.000032
 50
269.99508500000002
 51
359.99505499999998
  0
ARC
  5
2C2
  8
_________1
 62
     7
 10
152.81552600000001
 20
206.37400099999999
 30
0.0
 40
1.0393069999999991
 50
2.131202
 51
87.87865699999999
  0
ARC
  5
2C3
  8
_________1
 62
     7
 10
152.89263799999989
 20
206.374188
 30
0.0
 40
1.0391269999999999
 50
92.131136999999995
 51
177.878704
  0
ARC
  5
2C4
  8
_________1
 62
     7
 10
152.89297500000001
 20
206.45127099999999
 30
0.0
 40
1.0394699999999999
 50
182.129301
 51
267.85098900000003
  0
ARC
  5
2C5
  8
_________1
 62
     7
 10
152.815361
 20
206.45128600000001
 30
0.0
 40
1.0394709999999989
 50
272.13006200000001
 51
357.86994800000002
  0
ARC
  5
2C6
  8
_________1
 62
     7
 10
151.79704799999999
 20
209.35548299999999
 30
0.0
 40
1.5582290000000001
 50
2.102806999999999
 51
87.897182999999998
  0
ARC
  5
2C7
  8
_________1
 62
     7
 10
151.85422399999999
 20
209.41265799999999
 30
0.0
 40
1.5000039999999999
 50
90.0
 51
179.99996999999999
  0
ARC
  5
2C8
  8
_________1
 62
     7
 10
151.85422299999999
 20
209.41265799999999
 30
0.0
 40
1.5000039999999999
 50
179.99996999999999
 51
270.00002000000001
  0
ARC
  5
2C9
  8
_________1
 62
     7
 10
151.7962629999999
 20
209.470619
 30
0.0
 40
1.5590419999999989
 50
272.13057199999997
 51
357.869438
  0
ARC
  5
2CA
  8
_________1
 62
     7
 10
149.9111629999999
 20
203.96970400000001
 30
0.0
 40
1.5582279999999999
 50
182.10281000000001
 51
267.89722
  0
ARC
  5
2CB
  8
_________1
 62
     7
 10
149.85398799999999
 20
203.91252900000001
 30
0.0
 40
1.5000039999999999
 50
270.00002000000001
 51
359.99999000000003
  0
ARC
  5
2CC
  8
_________1
 62
     7
 10
149.85398799999999
 20
205.24596099999999
 30
0.0
 40
1.5000039999999999
 50
0.00001
 51
89.999980000000008
  0
ARC
  5
2CD
  8
_________1
 62
     7
 10
149.911948
 20
205.18800200000001
 30
0.0
 40
1.5590419999999989
 50
92.130552000000009
 51
177.86941899999999
  0
LINE
  5
2CE
  8
_________1
 62
     7
 10
116.521
 20
238.74600000000001
 30
0.0
 11
117.854
 21
238.74600000000001
 31
0.0
  0
LINE
  5
2CF
  8
_________1
 62
     7
 10
116.521
 20
235.74600000000001
 30
0.0
 11
117.854
 21
235.74600000000001
 31
0.0
  0
ARC
  5
2D0
  8
_________1
 62
     7
 10
113.982337
 20
240.207651
 30
0.0
 40
1.0391269999999999
 50
2.1212759999999991
 51
87.868842999999998
  0
ARC
  5
2D1
  8
_________1
 62
     7
 10
113.982175
 20
240.284739
 30
0.0
 40
1.0392950000000001
 50
272.13976500000001
 51
357.870116
  0
ARC
  5
2D2
  8
_________1
 62
     7
 10
114.059602
 20
240.28491500000001
 30
0.0
 40
1.039464999999999
 50
182.13928300000001
 51
267.87061599999998
  0
ARC
  5
2D3
  8
_________1
 62
     7
 10
114.05945
 20
240.20746399999999
 30
0.0
 40
1.0393069999999991
 50
92.121323000000004
 51
177.86877799999999
  0
ARC
  5
2D4
  8
_________1
 62
     7
 10
116.52075600000001
 20
240.579429
 30
0.0
 40
1.0001180000000001
 50
0.00001
 51
89.999980000000008
  0
ARC
  5
2D5
  8
_________1
 62
     7
 10
116.520842
 20
240.57951499999999
 30
0.0
 40
1.000032
 50
269.99508500000002
 51
359.99505499999998
  0
ARC
  5
2D6
  8
_________1
 62
     7
 10
116.559398
 20
240.61789200000001
 30
0.0
 40
1.0391269999999999
 50
182.121296
 51
267.86886299999998
  0
ARC
  5
2D7
  8
_________1
 62
     7
 10
116.559735
 20
240.540808
 30
0.0
 40
1.0394699999999999
 50
92.149011000000002
 51
177.870699
  0
ARC
  5
2D8
  8
_________1
 62
     7
 10
119.02096400000001
 20
240.246027
 30
0.0
 40
1.000032
 50
0.004945
 51
90.004914999999997
  0
ARC
  5
2D9
  8
_________1
 62
     7
 10
119.02096400000001
 20
240.24619999999999
 30
0.0
 40
1.000032
 50
269.99508500000002
 51
359.99505499999998
  0
ARC
  5
2DA
  8
_________1
 62
     7
 10
119.020791
 20
240.24619999999999
 30
0.0
 40
1.000030999999999
 50
180.00494499999999
 51
270.004954
  0
ARC
  5
2DB
  8
_________1
 62
     7
 10
119.020792
 20
240.246027
 30
0.0
 40
1.000032
 50
89.995064999999997
 51
179.995036
  0
ARC
  5
2DC
  8
_________1
 62
     7
 10
121.962936
 20
239.188219
 30
0.0
 40
1.5590310000000001
 50
2.130196999999999
 51
87.869793000000001
  0
ARC
  5
2DD
  8
_________1
 62
     7
 10
122.020886
 20
239.24616900000001
 30
0.0
 40
1.5000039999999999
 50
270.00002000000001
 51
359.99999000000003
  0
ARC
  5
2DE
  8
_________1
 62
     7
 10
122.020886
 20
239.24616800000001
 30
0.0
 40
1.5000039999999999
 50
179.99996999999999
 51
270.00002000000001
  0
ARC
  5
2DF
  8
_________1
 62
     7
 10
122.07806100000001
 20
239.18899300000001
 30
0.0
 40
1.5582279999999999
 50
92.102779999999996
 51
177.89718999999999
  0
ARC
  5
2E0
  8
_________1
 62
     7
 10
116.52075600000001
 20
237.246105
 30
0.0
 40
1.5000039999999999
 50
179.99996999999999
 51
270.00002000000001
  0
ARC
  5
2E1
  8
_________1
 62
     7
 10
116.52075600000001
 20
237.246105
 30
0.0
 40
1.5000039999999999
 50
90.0
 51
179.99996999999999
  0
ARC
  5
2E2
  8
_________1
 62
     7
 10
117.854016
 20
237.246105
 30
0.0
 40
1.5000039999999999
 50
0.00001
 51
89.999980000000008
  0
ARC
  5
2E3
  8
_________1
 62
     7
 10
117.854016
 20
237.246106
 30
0.0
 40
1.5000039999999999
 50
270.00002000000001
 51
359.99999000000003
  0
LINE
  5
2E4
  8
_________1
 62
     7
 10
111.687
 20
233.91300000000001
 30
0.0
 11
111.687
 21
232.58000000000001
 31
0.0
  0
LINE
  5
2E5
  8
_________1
 62
     7
 10
114.687
 20
233.91300000000001
 30
0.0
 11
114.687
 21
232.58000000000001
 31
0.0
  0
ARC
  5
2E6
  8
_________1
 62
     7
 10
111.18728400000001
 20
239.24625399999999
 30
0.0
 40
1.000030999999999
 50
180.00494499999999
 51
270.004954
  0
ARC
  5
2E7
  8
_________1
 62
     7
 10
111.187456
 20
239.24625499999999
 30
0.0
 40
1.000032
 50
269.99508500000002
 51
359.99505499999998
  0
ARC
  5
2E8
  8
_________1
 62
     7
 10
111.187456
 20
239.246082
 30
0.0
 40
1.000032
 50
0.004945
 51
90.004914999999997
  0
ARC
  5
2E9
  8
_________1
 62
     7
 10
111.18728400000001
 20
239.246082
 30
0.0
 40
1.000032
 50
89.995064999999997
 51
179.995036
  0
ARC
  5
2EA
  8
_________1
 62
     7
 10
113.22606500000001
 20
237.28473099999999
 30
0.0
 40
1.0392950000000001
 50
182.12990400000001
 51
267.860255
  0
ARC
  5
2EB
  8
_________1
 62
     7
 10
113.14863800000001
 20
237.284907
 30
0.0
 40
1.039464999999999
 50
272.12940300000002
 51
357.86073699999997
  0
ARC
  5
2EC
  8
_________1
 62
     7
 10
113.14879000000001
 20
237.20745600000001
 30
0.0
 40
1.0393069999999991
 50
2.131202
 51
87.87865699999999
  0
ARC
  5
2ED
  8
_________1
 62
     7
 10
113.225903
 20
237.20764299999999
 30
0.0
 40
1.0391269999999999
 50
92.131136999999995
 51
177.878704
  0
ARC
  5
2EE
  8
_________1
 62
     7
 10
110.226057
 20
236.451357
 30
0.0
 40
1.0392950000000001
 50
182.12990400000001
 51
267.860255
  0
ARC
  5
2EF
  8
_________1
 62
     7
 10
110.14863
 20
236.45153300000001
 30
0.0
 40
1.039464999999999
 50
272.12940300000002
 51
357.86073699999997
  0
ARC
  5
2F0
  8
_________1
 62
     7
 10
110.148607
 20
236.374087
 30
0.0
 40
1.039480999999999
 50
2.1305990000000001
 51
87.869391000000007
  0
ARC
  5
2F1
  8
_________1
 62
     7
 10
110.22590599999999
 20
236.374436
 30
0.0
 40
1.0391330000000001
 50
92.131778999999995
 51
177.88793200000001
  0
ARC
  5
2F2
  8
_________1
 62
     7
 10
109.854023
 20
233.912868
 30
0.0
 40
1.000030999999999
 50
180.00494499999999
 51
270.004954
  0
ARC
  5
2F3
  8
_________1
 62
     7
 10
109.854196
 20
233.912869
 30
0.0
 40
1.000032
 50
269.99508500000002
 51
359.99505499999998
  0
ARC
  5
2F4
  8
_________1
 62
     7
 10
109.854196
 20
233.91269600000001
 30
0.0
 40
1.000032
 50
0.004945
 51
90.004914999999997
  0
ARC
  5
2F5
  8
_________1
 62
     7
 10
109.854024
 20
233.91269600000001
 30
0.0
 40
1.000032
 50
89.995064999999997
 51
179.995036
  0
ARC
  5
2F6
  8
_________1
 62
     7
 10
110.226231
 20
231.45145400000001
 30
0.0
 40
1.0394699999999999
 50
182.129301
 51
267.85098900000003
  0
ARC
  5
2F7
  8
_________1
 62
     7
 10
110.148618
 20
231.45146800000001
 30
0.0
 40
1.0394709999999989
 50
272.13006200000001
 51
357.86994800000002
  0
ARC
  5
2F8
  8
_________1
 62
     7
 10
110.148782
 20
231.37418299999999
 30
0.0
 40
1.0393069999999991
 50
2.131202
 51
87.87865699999999
  0
ARC
  5
2F9
  8
_________1
 62
     7
 10
110.22589499999999
 20
231.37437
 30
0.0
 40
1.0391269999999999
 50
92.131136999999995
 51
177.878704
  0
ARC
  5
2FA
  8
_________1
 62
     7
 10
111.244525
 20
228.46997999999999
 30
0.0
 40
1.558208
 50
182.10211200000001
 51
267.89791700000001
  0
ARC
  5
2FB
  8
_________1
 62
     7
 10
111.18737
 20
228.412825
 30
0.0
 40
1.5000039999999999
 50
270.00002000000001
 51
359.99999000000003
  0
ARC
  5
2FC
  8
_________1
 62
     7
 10
111.18737
 20
228.412825
 30
0.0
 40
1.5000039999999999
 50
0.00001
 51
89.999980000000008
  0
ARC
  5
2FD
  8
_________1
 62
     7
 10
111.24533
 20
228.35486499999999
 30
0.0
 40
1.5590419999999989
 50
92.130552000000009
 51
177.86941899999999
  0
ARC
  5
2FE
  8
_________1
 62
     7
 10
113.18725999999999
 20
233.91278199999999
 30
0.0
 40
1.5000039999999999
 50
0.00001
 51
89.999980000000008
  0
ARC
  5
2FF
  8
_________1
 62
     7
 10
113.245221
 20
233.85482200000001
 30
0.0
 40
1.5590419999999989
 50
92.130552000000009
 51
177.86941899999999
  0
ARC
  5
300
  8
_________1
 62
     7
 10
113.244416
 20
232.63667699999999
 30
0.0
 40
1.558208
 50
182.10211200000001
 51
267.89791700000001
  0
ARC
  5
301
  8
_________1
 62
     7
 10
113.18725999999999
 20
232.579522
 30
0.0
 40
1.5000039999999999
 50
270.00002000000001
 51
359.99999000000003
  0
LINE
  5
302
  8
_________1
 62
     7
 10
146.52099999999999
 20
238.74600000000001
 30
0.0
 11
145.18799999999999
 21
238.74600000000001
 31
0.0
  0
LINE
  5
303
  8
_________1
 62
     7
 10
146.52099999999999
 20
235.74600000000001
 30
0.0
 11
145.18799999999999
 21
235.74600000000001
 31
0.0
  0
ARC
  5
304
  8
_________1
 62
     7
 10
149.05958200000001
 20
240.207312
 30
0.0
 40
1.039464999999999
 50
92.129384000000002
 51
177.86071699999999
  0
ARC
  5
305
  8
_________1
 62
     7
 10
149.05942999999999
 20
240.284763
 30
0.0
 40
1.0393069999999991
 50
182.13122200000001
 51
267.87867699999998
  0
ARC
  5
306
  8
_________1
 62
     7
 10
148.98231699999999
 20
240.28457700000001
 30
0.0
 40
1.0391269999999999
 50
272.13115699999997
 51
357.87872399999998
  0
ARC
  5
307
  8
_________1
 62
     7
 10
148.98215500000001
 20
240.20748800000001
 30
0.0
 40
1.0392950000000001
 50
2.1298840000000001
 51
87.860235000000003
  0
ARC
  5
308
  8
_________1
 62
     7
 10
146.520837
 20
240.579429
 30
0.0
 40
1.0001180000000001
 50
90.0
 51
179.99996999999999
  0
ARC
  5
309
  8
_________1
 62
     7
 10
146.52075099999999
 20
240.57951499999999
 30
0.0
 40
1.000030999999999
 50
180.00494499999999
 51
270.004954
  0
ARC
  5
30A
  8
_________1
 62
     7
 10
146.52092300000001
 20
240.57951499999999
 30
0.0
 40
1.000032
 50
269.99508500000002
 51
359.99505499999998
  0
ARC
  5
30B
  8
_________1
 62
     7
 10
146.520837
 20
240.579429
 30
0.0
 40
1.0001180000000001
 50
0.00001
 51
89.999980000000008
  0
ARC
  5
30C
  8
_________1
 62
     7
 10
144.059358
 20
240.207651
 30
0.0
 40
1.0391269999999999
 50
92.131136999999995
 51
177.878704
  0
ARC
  5
30D
  8
_________1
 62
     7
 10
144.05951999999999
 20
240.284739
 30
0.0
 40
1.0392950000000001
 50
182.12990400000001
 51
267.860255
  0
ARC
  5
30E
  8
_________1
 62
     7
 10
143.98209299999999
 20
240.28491500000001
 30
0.0
 40
1.039464999999999
 50
272.12940300000002
 51
357.86073699999997
  0
ARC
  5
30F
  8
_________1
 62
     7
 10
143.98224500000001
 20
240.20746399999999
 30
0.0
 40
1.0393069999999991
 50
2.131202
 51
87.87865699999999
  0
ARC
  5
310
  8
_________1
 62
     7
 10
141.07866799999999
 20
239.188208
 30
0.0
 40
1.5590419999999989
 50
92.130552000000009
 51
177.86941899999999
  0
ARC
  5
311
  8
_________1
 62
     7
 10
141.07786300000001
 20
239.303324
 30
0.0
 40
1.558208
 50
182.10211200000001
 51
267.89791700000001
  0
ARC
  5
312
  8
_________1
 62
     7
 10
141.02070699999999
 20
239.24616900000001
 30
0.0
 40
1.5000039999999999
 50
270.00002000000001
 51
359.99999000000003
  0
ARC
  5
313
  8
_________1
 62
     7
 10
140.96353199999999
 20
239.18899300000001
 30
0.0
 40
1.5582290000000001
 50
2.102806999999999
 51
87.897182999999998
  0
ARC
  5
314
  8
_________1
 62
     7
 10
146.520837
 20
237.246106
 30
0.0
 40
1.5000039999999999
 50
270.00002000000001
 51
359.99999000000003
  0
ARC
  5
315
  8
_________1
 62
     7
 10
146.520837
 20
237.246105
 30
0.0
 40
1.5000039999999999
 50
0.00001
 51
89.999980000000008
  0
ARC
  5
316
  8
_________1
 62
     7
 10
145.187577
 20
237.246105
 30
0.0
 40
1.5000039999999999
 50
90.0
 51
179.99996999999999
  0
ARC
  5
317
  8
_________1
 62
     7
 10
145.187577
 20
237.246105
 30
0.0
 40
1.5000039999999999
 50
179.99996999999999
 51
270.00002000000001
  0
ARC
  5
318
  8
_________1
 62
     7
 10
131.48738900000001
 20
218.92998900000001
 30
0.0
 40
21.700102000000001
 50
359.95446199999998
 51
13.17531
  0
ARC
  5
319
  8
_________1
 62
     7
 10
131.33002500000001
 20
218.91308799999999
 30
0.0
 40
21.857458000000001
 50
346.87249000000003
 51
359.99909300000002
  0
ARC
  5
31A
  8
_________1
 62
     7
 10
131.539759
 20
218.934057
 30
0.0
 40
21.688182000000001
 50
269.94991599999997
 51
283.17897299999998
  0
ARC
  5
31B
  8
_________1
 62
     7
 10
131.527062
 20
219.15328700000001
 30
0.0
 40
21.907405000000001
 50
256.88752799999997
 51
269.98362300000002
  0
ARC
  5
31C
  8
_________1
 62
     7
 10
131.51593500000001
 20
218.891525
 30
0.0
 40
21.661836000000001
 50
179.943862
 51
193.19104899999999
  0
ARC
  5
31D
  8
_________1
 62
     7
 10
131.70999599999999
 20
218.91240500000001
 30
0.0
 40
21.855886000000002
 50
166.871996
 51
179.99909600000001
  0
ARC
  5
31E
  8
_________1
 62
     7
 10
131.50297699999999
 20
218.88471699999999
 30
0.0
 40
21.69472
 50
89.952927000000003
 51
103.178943
  0
ARC
  5
31F
  8
_________1
 62
     7
 10
131.51451900000001
 20
218.671922
 30
0.0
 40
21.907508
 50
76.887539000000004
 51
89.983571999999995
  0
LINE
  5
320
  8
_________1
 62
     7
 10
151.35400000000001
 20
233.91300000000001
 30
0.0
 11
151.35400000000001
 21
232.58000000000001
 31
0.0
  0
LINE
  5
321
  8
_________1
 62
     7
 10
148.35400000000001
 20
233.91300000000001
 30
0.0
 11
148.35400000000001
 21
232.58000000000001
 31
0.0
  0
ARC
  5
322
  8
_________1
 62
     7
 10
151.81541899999999
 20
239.28479400000001
 30
0.0
 40
1.0392950000000001
 50
272.13976500000001
 51
357.870116
  0
ARC
  5
323
  8
_________1
 62
     7
 10
151.85413700000001
 20
239.24625399999999
 30
0.0
 40
1.000030999999999
 50
180.00494499999999
 51
270.004954
  0
ARC
  5
324
  8
_________1
 62
     7
 10
151.85413700000001
 20
239.246082
 30
0.0
 40
1.000032
 50
89.995064999999997
 51
179.995036
  0
ARC
  5
325
  8
_________1
 62
     7
 10
151.81558100000001
 20
239.207705
 30
0.0
 40
1.0391269999999999
 50
2.1212759999999991
 51
87.868842999999998
  0
ARC
  5
326
  8
_________1
 62
     7
 10
149.815517
 20
237.28475499999999
 30
0.0
 40
1.0393069999999991
 50
272.12134300000002
 51
357.86879800000003
  0
ARC
  5
327
  8
_________1
 62
     7
 10
149.89263
 20
237.284569
 30
0.0
 40
1.0391269999999999
 50
182.121296
 51
267.86886299999998
  0
ARC
  5
328
  8
_________1
 62
     7
 10
149.89279199999999
 20
237.20748
 30
0.0
 40
1.0392950000000001
 50
92.139744999999991
 51
177.87009599999999
  0
ARC
  5
329
  8
_________1
 62
     7
 10
149.81536500000001
 20
237.20730399999999
 30
0.0
 40
1.039464999999999
 50
2.1392630000000001
 51
87.870597000000004
  0
ARC
  5
32A
  8
_________1
 62
     7
 10
152.81552600000001
 20
236.451381
 30
0.0
 40
1.0393069999999991
 50
272.12134300000002
 51
357.86879800000003
  0
ARC
  5
32B
  8
_________1
 62
     7
 10
152.89263799999989
 20
236.45119500000001
 30
0.0
 40
1.0391269999999999
 50
182.121296
 51
267.86886299999998
  0
ARC
  5
32C
  8
_________1
 62
     7
 10
152.89297500000001
 20
236.374111
 30
0.0
 40
1.0394699999999999
 50
92.149011000000002
 51
177.870699
  0
ARC
  5
32D
  8
_________1
 62
     7
 10
152.815361
 20
236.37409700000001
 30
0.0
 40
1.0394709999999989
 50
2.1300520000000001
 51
87.869938000000005
  0
ARC
  5
32E
  8
_________1
 62
     7
 10
153.18756999999999
 20
233.912869
 30
0.0
 40
1.000032
 50
269.99508500000002
 51
359.99505499999998
  0
ARC
  5
32F
  8
_________1
 62
     7
 10
153.22612599999999
 20
233.951245
 30
0.0
 40
1.0391269999999999
 50
182.121296
 51
267.86886299999998
  0
ARC
  5
330
  8
_________1
 62
     7
 10
153.22628800000001
 20
233.874157
 30
0.0
 40
1.0392950000000001
 50
92.139744999999991
 51
177.87009599999999
  0
ARC
  5
331
  8
_________1
 62
     7
 10
153.18756999999999
 20
233.91269600000001
 30
0.0
 40
1.000032
 50
0.004945
 51
90.004914999999997
  0
ARC
  5
332
  8
_________1
 62
     7
 10
152.81535099999999
 20
231.45147800000001
 30
0.0
 40
1.039480999999999
 50
272.13060899999999
 51
357.86940099999998
  0
ARC
  5
333
  8
_________1
 62
     7
 10
152.89265
 20
231.45112900000001
 30
0.0
 40
1.0391330000000001
 50
182.11206799999999
 51
267.86822100000001
  0
ARC
  5
334
  8
_________1
 62
     7
 10
152.89280099999999
 20
231.37420800000001
 30
0.0
 40
1.0392950000000001
 50
92.139744999999991
 51
177.87009599999999
  0
ARC
  5
335
  8
_________1
 62
     7
 10
152.81537399999999
 20
231.374031
 30
0.0
 40
1.039464999999999
 50
2.1392630000000001
 51
87.870597000000004
  0
ARC
  5
336
  8
_________1
 62
     7
 10
151.797067
 20
228.46998099999999
 30
0.0
 40
1.5582089999999991
 50
272.10212000000001
 51
357.89789000000002
  0
ARC
  5
337
  8
_________1
 62
     7
 10
151.85422299999999
 20
228.412825
 30
0.0
 40
1.5000039999999999
 50
179.99996999999999
 51
270.00002000000001
  0
ARC
  5
338
  8
_________1
 62
     7
 10
151.85422399999999
 20
228.412825
 30
0.0
 40
1.5000039999999999
 50
90.0
 51
179.99996999999999
  0
ARC
  5
339
  8
_________1
 62
     7
 10
151.7962629999999
 20
228.35486499999999
 30
0.0
 40
1.5590419999999989
 50
2.130561999999999
 51
87.869427999999999
  0
ARC
  5
33A
  8
_________1
 62
     7
 10
149.91114400000001
 20
233.855627
 30
0.0
 40
1.558208
 50
92.102082999999993
 51
177.89788799999999
  0
ARC
  5
33B
  8
_________1
 62
     7
 10
149.85398799999999
 20
233.91278199999999
 30
0.0
 40
1.5000039999999999
 50
0.00001
 51
89.999980000000008
  0
ARC
  5
33C
  8
_________1
 62
     7
 10
149.85398799999999
 20
232.579522
 30
0.0
 40
1.5000039999999999
 50
270.00002000000001
 51
359.99999000000003
  0
ARC
  5
33D
  8
_________1
 62
     7
 10
149.911948
 20
232.63748200000001
 30
0.0
 40
1.5590419999999989
 50
182.13058100000001
 51
267.86944799999998
  0
ARC
  5
33E
  8
_________1
 62
     7
 10
131.52070699999999
 20
218.91265899999999
 30
0.0
 40
20.333515999999999
 50
270.00026300000002
 51
0.000233
  0
ARC
  5
33F
  8
_________1
 62
     7
 10
131.52087900000001
 20
218.91265200000001
 30
0.0
 40
20.333508999999999
 50
179.999728
 51
269.99977699999999
  0
ARC
  5
340
  8
_________1
 62
     7
 10
131.52080000000001
 20
218.91273799999999
 30
0.0
 40
20.33343
 50
90.0
 51
179.99996999999999
  0
ARC
  5
341
  8
_________1
 62
     7
 10
131.520793
 20
218.91273799999999
 30
0.0
 40
20.33343
 50
0.00001
 51
89.999980000000008
  0
LINE
  5
342
  8
_________1
  6
AIGENLINE001
 62
     7
 10
131.52099999999999
 20
255.80600000000001
 30
0.0
 11
131.52099999999999
 21
247.45599999999999
 31
0.0
  0
LINE
  5
343
  8
_________1
  6
AIGENLINE001
 62
     7
 10
131.52099999999999
 20
244.31
 30
0.0
 11
131.52099999999999
 21
194.327
 31
0.0
  0
LINE
  5
344
  8
_________1
  6
AIGENLINE001
 62
     7
 10
106.553
 20
218.91200000000001
 30
0.0
 11
156.28800000000001
 21
218.91200000000001
 31
0.0
  0
LINE
  5
345
  8
_________1
  6
AIGENLINE001
 62
     7
 10
153.608
 20
239.24799999999999
 30
0.0
 11
150.18700000000001
 21
239.24799999999999
 31
0.0
  0
LINE
  5
346
  8
_________1
  6
AIGENLINE001
 62
     7
 10
151.8539999999999
 20
237.49299999999999
 30
0.0
 11
151.8539999999999
 21
240.74799999999999
 31
0.0
  0
LINE
  5
347
  8
_________1
  6
AIGENLINE001
 62
     7
 10
112.687
 20
239.24600000000001
 30
0.0
 11
109.26600000000001
 21
239.24600000000001
 31
0.0
  0
LINE
  5
348
  8
_________1
  6
AIGENLINE001
 62
     7
 10
111.187
 20
237.49100000000001
 30
0.0
 11
111.187
 21
240.74600000000001
 31
0.0
  0
LINE
  5
349
  8
_________1
  6
AIGENLINE001
 62
     7
 10
112.687
 20
198.57900000000001
 30
0.0
 11
109.26600000000001
 21
198.57900000000001
 31
0.0
  0
LINE
  5
34A
  8
_________1
  6
AIGENLINE001
 62
     7
 10
153.608
 20
198.57900000000001
 30
0.0
 11
150.18700000000001
 21
198.57900000000001
 31
0.0
  0
INSERT
  5
34B
  8
_________1
 62
     7
  2
AIGNBL02010004
 10
0.0
 20
0.0
 30
0.0
  0
INSERT
  5
34C
  8
_________1
 62
     7
  2
AIGNBL02010005
 10
0.0
 20
0.0
 30
0.0
  0
INSERT
  5
34D
  8
_________1
 62
     7
  2
AIGNBL02010006
 10
0.0
 20
0.0
 30
0.0
  0
LINE
  5
34E
  8
_________1
 62
     7
 10
31.2438
 20
221.636
 30
0.0
 11
31.2438
 21
235.673
 31
0.0
  0
LINE
  5
34F
  8
_________1
 62
     7
 10
85.910899999999984
 20
221.636
 30
0.0
 11
85.910899999999984
 21
235.673
 31
0.0
  0
INSERT
  5
350
  8
_________1
 62
     7
  2
AIGNBL02010007
 10
0.0
 20
0.0
 30
0.0
  0
LINE
  5
351
  8
_________1
 62
     7
 10
111.187
 20
188.678
 30
0.0
 11
111.187
 21
196.16499999999999
 31
0.0
  0
LINE
  5
352
  8
_________1
 62
     7
 10
151.8539999999999
 20
188.678
 30
0.0
 11
151.8539999999999
 21
195.887
 31
0.0
  0
LINE
  5
353
  8
_________1
 62
     7
 10
162.69499999999999
 20
256.13200000000001
 30
0.0
 11
162.69499999999999
 21
245.798
 31
0.0
  0
LINE
  5
354
  8
_________1
 62
     7
 10
163.39500000000001
 20
250.453
 30
0.0
 11
155.554
 21
250.453
 31
0.0
  0
LINE
  5
355
  8
_________1
 62
     7
 10
163.39500000000001
 20
253.12
 30
0.0
 11
155.554
 21
253.12
 31
0.0
  0
INSERT
  5
356
  8
_________1
 62
     7
  2
AIGNBL02010008
 10
0.0
 20
0.0
 30
0.0
  0
LINE
  5
357
  8
_________1
 62
     7
 10
164.548
 20
198.57900000000001
 30
0.0
 11
154.24700000000001
 21
198.57900000000001
 31
0.0
  0
LINE
  5
358
  8
_________1
 62
     7
 10
164.548
 20
239.24799999999999
 30
0.0
 11
154.22200000000001
 21
239.24799999999999
 31
0.0
  0
INSERT
  5
359
  8
_________1
 62
     7
  2
AIGNBL02010009
 10
0.0
 20
0.0
 30
0.0
  0
LINE
  5
35A
  8
_________1
 62
     7
 10
150.94399999999999
 20
96.374399999999994
 30
0.0
 11
149.94399999999999
 21
96.374399999999994
 31
0.0
  0
LINE
  5
35B
  8
_________1
 62
     7
 10
147.61099999999999
 20
96.374399999999994
 30
0.0
 11
146.61099999999999
 21
96.374399999999994
 31
0.0
  0
LINE
  5
35C
  8
_________1
 62
     7
 10
146.61099999999999
 20
57.707099999999997
 30
0.0
 11
146.61099999999999
 21
64.040599999999998
 31
0.0
  0
LINE
  5
35D
  8
_________1
 62
     7
 10
147.61099999999999
 20
57.707099999999997
 30
0.0
 11
147.61099999999999
 21
64.040599999999998
 31
0.0
  0
LINE
  5
35E
  8
_________1
 62
     7
 10
149.94399999999999
 20
57.707099999999997
 30
0.0
 11
149.94399999999999
 21
64.040599999999998
 31
0.0
  0
LINE
  5
35F
  8
_________1
 62
     7
 10
150.94399999999999
 20
57.707099999999997
 30
0.0
 11
150.94399999999999
 21
64.040599999999998
 31
0.0
  0
LINE
  5
360
  8
_________1
 62
     7
 10
150.94399999999999
 20
64.040599999999998
 30
0.0
 11
149.94399999999999
 21
64.040599999999998
 31
0.0
  0
LINE
  5
361
  8
_________1
 62
     7
 10
147.61099999999999
 20
64.040599999999998
 30
0.0
 11
146.61099999999999
 21
64.040599999999998
 31
0.0
  0
LINE
  5
362
  8
_________1
 62
     7
 10
146.61099999999999
 20
96.374399999999994
 30
0.0
 11
146.61099999999999
 21
102.70699999999999
 31
0.0
  0
LINE
  5
363
  8
_________1
 62
     7
 10
147.61099999999999
 20
96.374399999999994
 30
0.0
 11
147.61099999999999
 21
102.70699999999999
 31
0.0
  0
LINE
  5
364
  8
_________1
 62
     7
 10
149.94399999999999
 20
96.374399999999994
 30
0.0
 11
149.94399999999999
 21
102.70699999999999
 31
0.0
  0
LINE
  5
365
  8
_________1
 62
     7
 10
150.94399999999999
 20
96.374399999999994
 30
0.0
 11
150.94399999999999
 21
102.70699999999999
 31
0.0
  0
LINE
  5
366
  8
_________1
 62
     7
 10
150.94399999999999
 20
73.707599999999999
 30
0.0
 11
149.94399999999999
 21
73.707599999999999
 31
0.0
  0
LINE
  5
367
  8
_________1
 62
     7
 10
147.61099999999999
 20
73.707599999999999
 30
0.0
 11
146.61099999999999
 21
73.707599999999999
 31
0.0
  0
LINE
  5
368
  8
_________1
 62
     7
 10
150.94399999999999
 20
57.707099999999997
 30
0.0
 11
149.94399999999999
 21
57.707099999999997
 31
0.0
  0
LINE
  5
369
  8
_________1
 62
     7
 10
147.61099999999999
 20
57.707099999999997
 30
0.0
 11
146.61099999999999
 21
57.707099999999997
 31
0.0
  0
LINE
  5
36A
  8
_________1
 62
     7
 10
150.94399999999999
 20
86.707400000000007
 30
0.0
 11
149.94399999999999
 21
86.707400000000007
 31
0.0
  0
LINE
  5
36B
  8
_________1
 62
     7
 10
147.61099999999999
 20
86.707400000000007
 30
0.0
 11
146.61099999999999
 21
86.707400000000007
 31
0.0
  0
LINE
  5
36C
  8
_________1
 62
     7
 10
150.94399999999999
 20
102.70699999999999
 30
0.0
 11
149.94399999999999
 21
102.70699999999999
 31
0.0
  0
LINE
  5
36D
  8
_________1
 62
     7
 10
147.61099999999999
 20
102.70699999999999
 30
0.0
 11
146.61099999999999
 21
102.70699999999999
 31
0.0
  0
LINE
  5
36E
  8
_________1
 62
     7
 10
146.61099999999999
 20
73.707599999999999
 30
0.0
 11
146.61099999999999
 21
86.707400000000007
 31
0.0
  0
LINE
  5
36F
  8
_________1
 62
     7
 10
147.61099999999999
 20
73.707599999999999
 30
0.0
 11
147.61099999999999
 21
86.707400000000007
 31
0.0
  0
LINE
  5
370
  8
_________1
 62
     7
 10
149.94399999999999
 20
73.707599999999999
 30
0.0
 11
149.94399999999999
 21
86.707400000000007
 31
0.0
  0
LINE
  5
371
  8
_________1
 62
     7
 10
150.94399999999999
 20
73.707599999999999
 30
0.0
 11
150.94399999999999
 21
86.707400000000007
 31
0.0
  0
LINE
  5
372
  8
_________1
 62
     7
 10
149.94399999999999
 20
59.540599999999998
 30
0.0
 11
147.61099999999999
 21
59.540599999999998
 31
0.0
  0
LINE
  5
373
  8
_________1
 62
     7
 10
149.94399999999999
 20
100.874
 30
0.0
 11
147.61099999999999
 21
100.874
 31
0.0
  0
LINE
  5
374
  8
_________1
 62
     7
 10
42.410800000000002
 20
209.43600000000001
 30
0.0
 11
42.410800000000002
 21
208.43600000000001
 31
0.0
  0
LINE
  5
375
  8
_________1
 62
     7
 10
42.410800000000002
 20
206.10300000000001
 30
0.0
 11
42.410800000000002
 21
205.10300000000001
 31
0.0
  0
LINE
  5
376
  8
_________1
 62
     7
 10
81.077399999999983
 20
205.10300000000001
 30
0.0
 11
74.744200000000006
 21
205.10300000000001
 31
0.0
  0
LINE
  5
377
  8
_________1
 62
     7
 10
81.077399999999983
 20
206.10300000000001
 30
0.0
 11
74.744200000000006
 21
206.10300000000001
 31
0.0
  0
LINE
  5
378
  8
_________1
 62
     7
 10
81.077399999999983
 20
208.43600000000001
 30
0.0
 11
74.744200000000006
 21
208.43600000000001
 31
0.0
  0
LINE
  5
379
  8
_________1
 62
     7
 10
81.077399999999983
 20
209.43600000000001
 30
0.0
 11
74.744200000000006
 21
209.43600000000001
 31
0.0
  0
LINE
  5
37A
  8
_________1
 62
     7
 10
74.744200000000006
 20
209.43600000000001
 30
0.0
 11
74.744200000000006
 21
208.43600000000001
 31
0.0
  0
LINE
  5
37B
  8
_________1
 62
     7
 10
74.744200000000006
 20
206.10300000000001
 30
0.0
 11
74.744200000000006
 21
205.10300000000001
 31
0.0
  0
LINE
  5
37C
  8
_________1
 62
     7
 10
42.410800000000002
 20
205.10300000000001
 30
0.0
 11
36.077300000000001
 21
205.10300000000001
 31
0.0
  0
LINE
  5
37D
  8
_________1
 62
     7
 10
42.410800000000002
 20
206.10300000000001
 30
0.0
 11
36.077300000000001
 21
206.10300000000001
 31
0.0
  0
LINE
  5
37E
  8
_________1
 62
     7
 10
42.410800000000002
 20
208.43600000000001
 30
0.0
 11
36.077300000000001
 21
208.43600000000001
 31
0.0
  0
LINE
  5
37F
  8
_________1
 62
     7
 10
42.410800000000002
 20
209.43600000000001
 30
0.0
 11
36.077300000000001
 21
209.43600000000001
 31
0.0
  0
LINE
  5
380
  8
_________1
 62
     7
 10
65.077200000000005
 20
209.43600000000001
 30
0.0
 11
65.077200000000005
 21
208.43600000000001
 31
0.0
  0
LINE
  5
381
  8
_________1
 62
     7
 10
65.077200000000005
 20
206.10300000000001
 30
0.0
 11
65.077200000000005
 21
205.10300000000001
 31
0.0
  0
LINE
  5
382
  8
_________1
 62
     7
 10
81.077399999999983
 20
209.43600000000001
 30
0.0
 11
81.077399999999983
 21
208.43600000000001
 31
0.0
  0
LINE
  5
383
  8
_________1
 62
     7
 10
81.077399999999983
 20
206.10300000000001
 30
0.0
 11
81.077399999999983
 21
205.10300000000001
 31
0.0
  0
LINE
  5
384
  8
_________1
 62
     7
 10
52.077399999999997
 20
209.43600000000001
 30
0.0
 11
52.077399999999997
 21
208.43600000000001
 31
0.0
  0
LINE
  5
385
  8
_________1
 62
     7
 10
52.077399999999997
 20
206.10300000000001
 30
0.0
 11
52.077399999999997
 21
205.10300000000001
 31
0.0
  0
LINE
  5
386
  8
_________1
 62
     7
 10
36.077300000000001
 20
209.43600000000001
 30
0.0
 11
36.077300000000001
 21
208.43600000000001
 31
0.0
  0
LINE
  5
387
  8
_________1
 62
     7
 10
36.077300000000001
 20
206.10300000000001
 30
0.0
 11
36.077300000000001
 21
205.10300000000001
 31
0.0
  0
LINE
  5
388
  8
_________1
 62
     7
 10
65.077200000000005
 20
205.10300000000001
 30
0.0
 11
52.077399999999997
 21
205.10300000000001
 31
0.0
  0
LINE
  5
389
  8
_________1
 62
     7
 10
65.077200000000005
 20
206.10300000000001
 30
0.0
 11
52.077399999999997
 21
206.10300000000001
 31
0.0
  0
LINE
  5
38A
  8
_________1
 62
     7
 10
65.077200000000005
 20
208.43600000000001
 30
0.0
 11
52.077399999999997
 21
208.43600000000001
 31
0.0
  0
LINE
  5
38B
  8
_________1
 62
     7
 10
65.077200000000005
 20
209.43600000000001
 30
0.0
 11
52.077399999999997
 21
209.43600000000001
 31
0.0
  0
LINE
  5
38C
  8
_________1
 62
     7
 10
79.243899999999996
 20
208.43600000000001
 30
0.0
 11
79.243899999999996
 21
206.10300000000001
 31
0.0
  0
LINE
  5
38D
  8
_________1
 62
     7
 10
37.91040000000001
 20
208.43600000000001
 30
0.0
 11
37.91040000000001
 21
206.10300000000001
 31
0.0
  0
LINE
  5
38E
  8
_________1
 62
     7
 10
161.11099999999999
 20
155.57900000000001
 30
0.0
 11
161.44399999999999
 21
155.91300000000001
 31
0.0
  0
LINE
  5
38F
  8
_________1
 62
     7
 10
161.11099999999999
 20
155.57900000000001
 30
0.0
 11
161.11099999999999
 21
152.24600000000001
 31
0.0
  0
LINE
  5
390
  8
_________1
 62
     7
 10
154.77799999999999
 20
155.57900000000001
 30
0.0
 11
154.4439999999999
 21
155.91300000000001
 31
0.0
  0
LINE
  5
391
  8
_________1
 62
     7
 10
157.94399999999999
 20
158.91300000000001
 30
0.0
 11
157.94399999999999
 21
155.91300000000001
 31
0.0
  0
LINE
  5
392
  8
_________1
 62
     7
 10
162.44399999999999
 20
158.91300000000001
 30
0.0
 11
162.44399999999999
 21
155.91300000000001
 31
0.0
  0
LINE
  5
393
  8
_________1
 62
     7
 10
153.44399999999999
 20
158.91300000000001
 30
0.0
 11
153.44399999999999
 21
155.91300000000001
 31
0.0
  0
LINE
  5
394
  8
_________1
 62
     7
 10
162.44399999999999
 20
158.91300000000001
 30
0.0
 11
153.44399999999999
 21
158.91300000000001
 31
0.0
  0
LINE
  5
395
  8
_________1
 62
     7
 10
162.44399999999999
 20
155.91300000000001
 30
0.0
 11
153.44399999999999
 21
155.91300000000001
 31
0.0
  0
LINE
  5
396
  8
_________1
 62
     7
 10
161.44399999999999
 20
155.91300000000001
 30
0.0
 11
161.44399999999999
 21
152.24600000000001
 31
0.0
  0
LINE
  5
397
  8
_________1
 62
     7
 10
154.77799999999999
 20
155.57900000000001
 30
0.0
 11
154.77799999999999
 21
152.24600000000001
 31
0.0
  0
LINE
  5
398
  8
_________1
 62
     7
 10
154.4439999999999
 20
155.91300000000001
 30
0.0
 11
154.4439999999999
 21
152.24600000000001
 31
0.0
  0
LINE
  5
399
  8
_________1
 62
     7
 10
154.77799999999999
 20
155.57900000000001
 30
0.0
 11
161.11099999999999
 21
155.57900000000001
 31
0.0
  0
LINE
  5
39A
  8
_________1
 62
     7
 10
154.4439999999999
 20
152.24600000000001
 30
0.0
 11
161.44399999999999
 21
152.24600000000001
 31
0.0
  0
INSERT
  5
39B
  8
_________1
 62
     7
  2
AIGNBL0201000A
 10
0.0
 20
0.0
 30
0.0
  0
LINE
  5
39C
  8
_________1
 62
     7
 10
83.577500000000015
 20
120.678
 30
0.0
 11
83.577500000000015
 21
105.944
 31
0.0
  0
LINE
  5
39D
  8
_________1
 62
     7
 10
33.577100000000002
 20
120.678
 30
0.0
 11
33.577100000000002
 21
105.944
 31
0.0
  0
INSERT
  5
39E
  8
_________1
 62
     7
  2
AIGNBL0201000B
 10
0.0
 20
0.0
 30
0.0
  0
INSERT
  5
39F
  8
_________1
 62
     7
  2
AIGNBL0201000C
 10
0.0
 20
0.0
 30
0.0
  0
LINE
  5
3A0
  8
_________1
 62
     7
 10
169.72399999999999
 20
155.91300000000001
 30
0.0
 11
163.14400000000001
 21
155.91300000000001
 31
0.0
  0
LINE
  5
3A1
  8
_________1
 62
     7
 10
176.40899999999999
 20
152.24600000000001
 30
0.0
 11
162.14400000000001
 21
152.24600000000001
 31
0.0
  0
LINE
  5
3A2
  8
_________1
 62
     7
 10
176.40899999999999
 20
158.91300000000001
 30
0.0
 11
163.14400000000001
 21
158.91300000000001
 31
0.0
  0
INSERT
  5
3A3
  8
_________1
 62
     7
  2
AIGNBL0201000D
 10
0.0
 20
0.0
 30
0.0
  0
LINE
  5
3A4
  8
_________1
 62
     7
 10
154.4439999999999
 20
143.50800000000001
 30
0.0
 11
154.4439999999999
 21
151.54599999999999
 31
0.0
  0
LINE
  5
3A5
  8
_________1
 62
     7
 10
161.44399999999999
 20
143.50800000000001
 30
0.0
 11
161.44399999999999
 21
151.54599999999999
 31
0.0
  0
INSERT
  5
3A6
  8
_________1
 62
     7
  2
AIGNBL0201000E
 10
0.0
 20
0.0
 30
0.0
  0
LINE
  5
3A7
  8
_________1
 62
     7
 10
55.077100000000002
 20
44.051999999999992
 30
0.0
 11
55.077100000000002
 21
52.17349999999999
 31
0.0
  0
LINE
  5
3A8
  8
_________1
 62
     7
 10
62.077199999999998
 20
44.051999999999992
 30
0.0
 11
62.077199999999998
 21
52.17349999999999
 31
0.0
  0
INSERT
  5
3A9
  8
_________1
 62
     7
  2
AIGNBL0201000F
 10
0.0
 20
0.0
 30
0.0
  0
LINE
  5
3AA
  8
_________1
 62
     7
 10
23.821999999999999
 20
83.707400000000007
 30
0.0
 11
30.543700000000001
 21
83.707400000000007
 31
0.0
  0
LINE
  5
3AB
  8
_________1
 62
     7
 10
23.821999999999999
 20
76.707599999999999
 30
0.0
 11
30.543700000000001
 21
76.707599999999999
 31
0.0
  0
INSERT
  5
3AC
  8
_________1
 62
     7
  2
AIGNBL02010010
 10
0.0
 20
0.0
 30
0.0
  0
LINE
  5
3AD
  8
_________1
 62
     7
 10
62.077199999999998
 20
114.96299999999999
 30
0.0
 11
62.077199999999998
 21
108.241
 31
0.0
  0
LINE
  5
3AE
  8
_________1
 62
     7
 10
55.077399999999997
 20
114.96299999999999
 30
0.0
 11
55.077399999999997
 21
108.241
 31
0.0
  0
INSERT
  5
3AF
  8
_________1
 62
     7
  2
AIGNBL02010011
 10
0.0
 20
0.0
 30
0.0
  0
LINE
  5
3B0
  8
_________1
 62
     7
 10
94.382800000000003
 20
76.707599999999999
 30
0.0
 11
86.610899999999987
 21
76.707599999999999
 31
0.0
  0
LINE
  5
3B1
  8
_________1
 62
     7
 10
94.382800000000003
 20
83.707400000000007
 30
0.0
 11
86.610899999999987
 21
83.707400000000007
 31
0.0
  0
INSERT
  5
3B2
  8
_________1
 62
     7
  2
AIGNBL02010012
 10
0.0
 20
0.0
 30
0.0
  0
LINE
  5
3B3
  8
_________1
 62
     7
 10
55.910800000000002
 20
55.207299999999996
 30
0.0
 11
55.910800000000002
 21
52.873600000000003
 31
0.0
  0
LINE
  5
3B4
  8
_________1
 62
     7
 10
61.244199999999999
 20
55.207299999999996
 30
0.0
 11
61.244199999999999
 21
52.873600000000003
 31
0.0
  0
LINE
  5
3B5
  8
_________1
 62
     7
 10
53.57739999999999
 20
55.207299999999996
 30
0.0
 11
53.57739999999999
 21
52.873600000000003
 31
0.0
  0
LINE
  5
3B6
  8
_________1
 62
     7
 10
63.577199999999998
 20
55.207299999999996
 30
0.0
 11
63.577199999999998
 21
52.873600000000003
 31
0.0
  0
LINE
  5
3B7
  8
_________1
 62
     7
 10
63.577199999999998
 20
52.873600000000003
 30
0.0
 11
53.57739999999999
 21
52.873600000000003
 31
0.0
  0
LINE
  5
3B8
  8
_________1
 62
     7
 10
33.577100000000002
 20
82.873700000000014
 30
0.0
 11
31.2438
 21
82.873700000000014
 31
0.0
  0
LINE
  5
3B9
  8
_________1
 62
     7
 10
33.577100000000002
 20
77.540599999999984
 30
0.0
 11
31.2438
 21
77.540599999999984
 31
0.0
  0
LINE
  5
3BA
  8
_________1
 62
     7
 10
33.577100000000002
 20
85.207400000000007
 30
0.0
 11
31.2438
 21
85.207400000000007
 31
0.0
  0
LINE
  5
3BB
  8
_________1
 62
     7
 10
33.577100000000002
 20
75.206900000000005
 30
0.0
 11
31.2438
 21
75.206900000000005
 31
0.0
  0
LINE
  5
3BC
  8
_________1
 62
     7
 10
31.2438
 20
75.206900000000005
 30
0.0
 11
31.2438
 21
85.207400000000007
 31
0.0
  0
LINE
  5
3BD
  8
_________1
 62
     7
 10
61.24349999999999
 20
105.208
 30
0.0
 11
61.24349999999999
 21
107.541
 31
0.0
  0
LINE
  5
3BE
  8
_________1
 62
     7
 10
55.910499999999999
 20
105.208
 30
0.0
 11
55.910499999999999
 21
107.541
 31
0.0
  0
LINE
  5
3BF
  8
_________1
 62
     7
 10
63.577199999999998
 20
105.208
 30
0.0
 11
63.577199999999998
 21
107.541
 31
0.0
  0
LINE
  5
3C0
  8
_________1
 62
     7
 10
53.577100000000002
 20
105.208
 30
0.0
 11
53.577100000000002
 21
107.541
 31
0.0
  0
LINE
  5
3C1
  8
_________1
 62
     7
 10
53.577100000000002
 20
107.541
 30
0.0
 11
63.577199999999998
 21
107.541
 31
0.0
  0
LINE
  5
3C2
  8
_________1
 62
     7
 10
83.577500000000015
 20
77.540599999999984
 30
0.0
 11
85.910899999999984
 21
77.540599999999984
 31
0.0
  0
LINE
  5
3C3
  8
_________1
 62
     7
 10
83.577500000000015
 20
82.874399999999994
 30
0.0
 11
85.910899999999984
 21
82.874399999999994
 31
0.0
  0
LINE
  5
3C4
  8
_________1
  6
AIGENLINE001
 62
     7
 10
157.94399999999999
 20
110.524
 30
0.0
 11
157.94399999999999
 21
49.924599999999998
 31
0.0
  0
ARC
  5
3C5
  8
_________1
 62
     7
 10
159.76111499999999
 20
80.274349000000015
 30
0.0
 40
1.8182130000000001
 50
182.12886499999991
 51
267.88244600000002
  0
ARC
  5
3C6
  8
_________1
 62
     7
 10
159.69444899999999
 20
80.207324999999983
 30
0.0
 40
1.7502919999999991
 50
90.016915999999995
 51
180.01692600000001
  0
ARC
  5
3C7
  8
_________1
 62
     7
 10
159.62667099999999
 20
80.140263000000004
 30
0.0
 40
1.8185990000000001
 50
2.097029
 51
87.880409
  0
ARC
  5
3C8
  8
_________1
 62
     7
 10
159.627779
 20
80.273677000000006
 30
0.0
 40
1.8175039999999989
 50
272.08592299999998
 51
357.891525
  0
ARC
  5
3C9
  8
_________1
 62
     7
 10
157.94381200000001
 20
80.207497000000004
 30
0.0
 40
3.4998939999999998
 50
180.00565
 51
270.00565999999998
  0
ARC
  5
3CA
  8
_________1
 62
     7
 10
157.94415799999999
 20
80.207152000000008
 30
0.0
 40
3.5002399999999998
 50
90.0
 51
179.99996999999999
  0
ARC
  5
3CB
  8
_________1
 62
     7
 10
157.943984
 20
80.207324999999983
 30
0.0
 40
3.500067
 50
359.99718999999999
 51
89.997159999999994
  0
ARC
  5
3CC
  8
_________1
 62
     7
 10
157.94432900000001
 20
80.207325999999995
 30
0.0
 40
3.4997229999999999
 50
269.99720000000002
 51
359.9971700000001
  0
ARC
  5
3CD
  8
_________1
 62
     7
 10
157.943984
 20
80.207324999999983
 30
0.0
 40
3.9999530000000001
 50
180.002477
 51
270.00248699999997
  0
ARC
  5
3CE
  8
_________1
 62
     7
 10
157.94433000000001
 20
80.207324999999983
 30
0.0
 40
4.000299
 50
90.00246700000001
 51
180.002477
  0
ARC
  5
3CF
  8
_________1
 62
     7
 10
157.94381200000001
 20
80.207497000000004
 30
0.0
 40
4.000125999999999
 50
359.99507499999999
 51
89.995045999999988
  0
ARC
  5
3D0
  8
_________1
 62
     7
 10
157.94415599999999
 20
80.207154000000003
 30
0.0
 40
3.9997820000000002
 50
270.00002000000001
 51
359.99999000000003
  0
LINE
  5
3D1
  8
_________1
 62
     7
 10
153.44399999999999
 20
77.540599999999984
 30
0.0
 11
157.94399999999999
 21
75.207599999999999
 31
0.0
  0
LINE
  5
3D2
  8
_________1
 62
     7
 10
162.44399999999999
 20
77.540599999999984
 30
0.0
 11
157.94399999999999
 21
75.207599999999999
 31
0.0
  0
LINE
  5
3D3
  8
_________1
 62
     7
 10
153.44399999999999
 20
82.873700000000014
 30
0.0
 11
157.94399999999999
 21
85.207400000000007
 31
0.0
  0
ARC
  5
3D4
  8
_________1
 62
     7
 10
155.46400299999999
 20
55.896064000000003
 30
0.0
 40
3.461835999999999
 50
97.509446999999994
 51
125.694574
  0
ARC
  5
3D5
  8
_________1
 62
     7
 10
155.615531
 20
55.034275000000001
 30
0.0
 40
4.3361989999999988
 50
73.118713999999997
 51
98.006287
  0
ARC
  5
3D6
  8
_________1
 62
     7
 10
155.68363099999999
 20
55.068725000000001
 30
0.0
 40
4.2838129999999994
 50
58.150478
 51
73.856527999999983
  0
LINE
  5
3D7
  8
_________1
 62
     7
 10
153.44399999999999
 20
58.707599999999999
 30
0.0
 11
154.27799999999999
 21
59.540599999999998
 31
0.0
  0
LINE
  5
3D8
  8
_________1
 62
     7
 10
153.44399999999999
 20
58.707599999999999
 30
0.0
 11
153.44399999999999
 21
52.873600000000003
 31
0.0
  0
ARC
  5
3D9
  8
_________1
 62
     7
 10
160.424407
 20
55.896195999999989
 30
0.0
 40
3.4616720000000001
 50
54.305418000000003
 51
82.494292999999999
  0
ARC
  5
3DA
  8
_________1
 62
     7
 10
160.27268599999999
 20
55.034339000000003
 30
0.0
 40
4.3361279999999987
 50
81.994272999999993
 51
106.881096
  0
ARC
  5
3DB
  8
_________1
 62
     7
 10
160.204656
 20
55.068947999999999
 30
0.0
 40
4.2836099999999986
 50
106.144761
 51
121.850765
  0
LINE
  5
3DC
  8
_________1
 62
     7
 10
162.44399999999999
 20
58.707599999999999
 30
0.0
 11
161.61099999999999
 21
59.540599999999998
 31
0.0
  0
LINE
  5
3DD
  8
_________1
 62
     7
 10
157.94399999999999
 20
58.707599999999999
 30
0.0
 11
157.94399999999999
 21
52.873600000000003
 31
0.0
  0
LINE
  5
3DE
  8
_________1
 62
     7
 10
162.44399999999999
 20
58.707599999999999
 30
0.0
 11
162.44399999999999
 21
52.873600000000003
 31
0.0
  0
LINE
  5
3DF
  8
_________1
 62
     7
 10
162.44399999999999
 20
52.873600000000003
 30
0.0
 11
153.44399999999999
 21
52.873600000000003
 31
0.0
  0
ARC
  5
3E0
  8
_________1
 62
     7
 10
155.46348399999999
 20
104.51759199999999
 30
0.0
 40
3.4604449999999991
 50
234.29945900000001
 51
262.49617999999998
  0
ARC
  5
3E1
  8
_________1
 62
     7
 10
155.61545599999999
 20
105.38167900000001
 30
0.0
 40
4.3371440000000003
 50
261.996467
 51
286.87853200000001
  0
ARC
  5
3E2
  8
_________1
 62
     7
 10
155.68314799999999
 20
105.347308
 30
0.0
 40
4.2849500000000003
 50
286.14579400000002
 51
301.84768200000002
  0
LINE
  5
3E3
  8
_________1
 62
     7
 10
153.44399999999999
 20
101.70699999999999
 30
0.0
 11
154.27799999999999
 21
100.874
 31
0.0
  0
LINE
  5
3E4
  8
_________1
 62
     7
 10
153.44399999999999
 20
77.540599999999984
 30
0.0
 11
153.44399999999999
 21
82.873700000000014
 31
0.0
  0
LINE
  5
3E5
  8
_________1
 62
     7
 10
162.44399999999999
 20
82.873700000000014
 30
0.0
 11
157.94399999999999
 21
85.207400000000007
 31
0.0
  0
LINE
  5
3E6
  8
_________1
 62
     7
 10
153.44399999999999
 20
101.70699999999999
 30
0.0
 11
153.44399999999999
 21
107.541
 31
0.0
  0
ARC
  5
3E7
  8
_________1
 62
     7
 10
160.424925
 20
104.51746
 30
0.0
 40
3.460281999999999
 50
277.50008000000003
 51
305.70054900000002
  0
ARC
  5
3E8
  8
_________1
 62
     7
 10
160.272761
 20
105.381615
 30
0.0
 40
4.3370730000000002
 50
253.121658
 51
278.00297399999999
  0
ARC
  5
3E9
  8
_________1
 62
     7
 10
160.205139
 20
105.347086
 30
0.0
 40
4.2847460000000002
 50
238.15107499999999
 51
253.85291699999999
  0
LINE
  5
3EA
  8
_________1
 62
     7
 10
162.44399999999999
 20
101.70699999999999
 30
0.0
 11
161.61099999999999
 21
100.874
 31
0.0
  0
LINE
  5
3EB
  8
_________1
 62
     7
 10
157.94399999999999
 20
101.70699999999999
 30
0.0
 11
157.94399999999999
 21
107.541
 31
0.0
  0
LINE
  5
3EC
  8
_________1
 62
     7
 10
162.44399999999999
 20
77.540599999999984
 30
0.0
 11
162.44399999999999
 21
82.873700000000014
 31
0.0
  0
LINE
  5
3ED
  8
_________1
 62
     7
 10
162.44399999999999
 20
101.70699999999999
 30
0.0
 11
162.44399999999999
 21
107.541
 31
0.0
  0
LINE
  5
3EE
  8
_________1
 62
     7
 10
162.44399999999999
 20
107.541
 30
0.0
 11
153.44399999999999
 21
107.541
 31
0.0
  0
LINE
  5
3EF
  8
_________1
 62
     7
 10
168.27699999999999
 20
73.874300000000005
 30
0.0
 11
164.94399999999999
 21
73.874300000000005
 31
0.0
  0
LINE
  5
3F0
  8
_________1
 62
     7
 10
168.27699999999999
 20
86.540700000000001
 30
0.0
 11
164.94399999999999
 21
86.540700000000001
 31
0.0
  0
LINE
  5
3F1
  8
_________1
 62
     7
 10
168.27699999999999
 20
66.040800000000004
 30
0.0
 11
164.94399999999999
 21
66.040800000000004
 31
0.0
  0
LINE
  5
3F2
  8
_________1
 62
     7
 10
168.27699999999999
 20
94.374200000000016
 30
0.0
 11
164.94399999999999
 21
94.374200000000016
 31
0.0
  0
LINE
  5
3F3
  8
_________1
 62
     7
 10
168.27699999999999
 20
60.207599999999999
 30
0.0
 11
164.94399999999999
 21
60.207599999999999
 31
0.0
  0
LINE
  5
3F4
  8
_________1
 62
     7
 10
168.27699999999999
 20
100.20699999999999
 30
0.0
 11
164.94399999999999
 21
100.20699999999999
 31
0.0
  0
LINE
  5
3F5
  8
_________1
 62
     7
 10
168.27699999999999
 20
57.707099999999997
 30
0.0
 11
164.94399999999999
 21
57.707099999999997
 31
0.0
  0
LINE
  5
3F6
  8
_________1
 62
     7
 10
168.27699999999999
 20
102.70699999999999
 30
0.0
 11
164.94399999999999
 21
102.70699999999999
 31
0.0
  0
LINE
  5
3F7
  8
_________1
 62
     7
 10
164.94399999999999
 20
57.707099999999997
 30
0.0
 11
164.94399999999999
 21
73.874300000000005
 31
0.0
  0
LINE
  5
3F8
  8
_________1
 62
     7
 10
105.611
 20
41.122300000000003
 30
0.0
 11
105.611
 21
60.1738
 31
0.0
  0
LINE
  5
3F9
  8
_________1
 62
     7
 10
133.27699999999999
 20
47.85199999999999
 30
0.0
 11
133.27699999999999
 21
54.403199999999991
 31
0.0
  0
LINE
  5
3FA
  8
_________1
 62
     7
 10
143.27699999999999
 20
41.122300000000003
 30
0.0
 11
143.27699999999999
 21
54.403199999999991
 31
0.0
  0
LINE
  5
3FB
  8
_________1
 62
     7
 10
133.27699999999999
 20
106.02800000000001
 30
0.0
 11
133.27699999999999
 21
127.34399999999999
 31
0.0
  0
LINE
  5
3FC
  8
_________1
 62
     7
 10
143.27699999999999
 20
105.964
 30
0.0
 11
143.27699999999999
 21
122.10299999999999
 31
0.0
  0
LINE
  5
3FD
  8
_________1
 62
     7
 10
157.94399999999999
 20
111.224
 30
0.0
 11
157.94399999999999
 21
116.86199999999999
 31
0.0
  0
LINE
  5
3FE
  8
_________1
 62
     7
 10
168.27699999999999
 20
103.407
 30
0.0
 11
168.27699999999999
 21
127.34399999999999
 31
0.0
  0
LINE
  5
3FF
  8
_________1
 62
     7
 10
164.94399999999999
 20
86.540700000000001
 30
0.0
 11
164.94399999999999
 21
102.70699999999999
 31
0.0
  0
LINE
  5
400
  8
_________1
 62
     7
 10
168.27699999999999
 20
57.707099999999997
 30
0.0
 11
168.27699999999999
 21
102.70699999999999
 31
0.0
  0
LINE
  5
401
  8
_________1
 62
     7
 10
164.94399999999999
 20
59.540599999999998
 30
0.0
 11
150.94399999999999
 21
59.540599999999998
 31
0.0
  0
INSERT
  5
402
  8
_________1
 62
     7
  2
AIGNBL02010013
 10
0.0
 20
0.0
 30
0.0
  0
INSERT
  5
403
  8
_________1
 62
     7
  2
AIGNBL02010014
 10
0.0
 20
0.0
 30
0.0
  0
INSERT
  5
404
  8
_________1
 62
     7
  2
AIGNBL02010015
 10
0.0
 20
0.0
 30
0.0
  0
INSERT
  5
405
  8
_________1
 62
     7
  2
AIGNBL02010016
 10
0.0
 20
0.0
 30
0.0
  0
INSERT
  5
406
  8
_________1
 62
     7
  2
AIGNBL02010017
 10
0.0
 20
0.0
 30
0.0
  0
INSERT
  5
407
  8
_________1
 62
     7
  2
AIGNBL02010018
 10
0.0
 20
0.0
 30
0.0
  0
LINE
  5
408
  8
_________1
 62
     7
 10
121.283
 20
109.925
 30
0.0
 11
106.2
 21
109.925
 31
0.0
  0
INSERT
  5
409
  8
_________1
 62
     7
  2
AIGNBL02010019
 10
0.0
 20
0.0
 30
0.0
  0
INSERT
  5
40A
  8
_________1
 62
     7
  2
AIGNBL0201001A
 10
0.0
 20
0.0
 30
0.0
  0
LINE
  5
40B
  8
_________1
 62
     7
 10
95.101799999999997
 20
160.71199999999999
 30
0.0
 11
71.144400000000005
 21
160.71199999999999
 31
0.0
  0
INSERT
  5
40C
  8
_________1
 62
     7
  2
AIGNBL0201001B
 10
0.0
 20
0.0
 30
0.0
  0
INSERT
  5
40D
  8
_________1
 62
     7
  2
AIGNBL0201001C
 10
0.0
 20
0.0
 30
0.0
  0
LINE
  5
40E
  8
_________1
 62
     7
 10
99.306700000000006
 20
199.988
 30
0.0
 11
82.476600000000005
 21
199.988
 31
0.0
  0
LINE
  5
40F
  8
_________1
 62
     7
 10
94.897599999999997
 20
177.24299999999999
 30
0.0
 11
70.940299999999993
 21
177.24299999999999
 31
0.0
  0
INSERT
  5
410
  8
_________1
 62
     7
  2
AIGNBL0201001D
 10
0.0
 20
0.0
 30
0.0
  0
INSERT
  5
411
  8
_________1
 62
     7
  2
AIGNBL0201001E
 10
0.0
 20
0.0
 30
0.0
  0
INSERT
  5
412
  8
_________1
 62
     7
  2
AIGNBL0201001F
 10
0.0
 20
0.0
 30
0.0
  0
LINE
  5
413
  8
_________1
 62
     7
 10
118.952
 20
154.17099999999999
 30
0.0
 11
102.259
 21
154.17099999999999
 31
0.0
  0
INSERT
  5
414
  8
_________1
 62
     7
  2
AIGNBL02010020
 10
0.0
 20
0.0
 30
0.0
  0
LINE
  5
415
  8
_________1
 62
     7
 10
48.67329999999999
 20
48.551999999999992
 30
0.0
 11
30.9892
 21
48.551999999999992
 31
0.0
  0
LINE
  5
416
  8
_________1
 62
     7
 10
86.397300000000001
 20
48.551999999999992
 30
0.0
 11
71.3001
 21
48.551999999999992
 31
0.0
  0
LINE
  5
417
  8
_________1
 62
     7
 10
100.211
 20
55.207299999999996
 30
0.0
 11
84.427099999999996
 21
55.207299999999996
 31
0.0
  0
LINE
  5
418
  8
_________1
 62
     7
 10
100.211
 20
105.208
 30
0.0
 11
84.427099999999996
 21
105.208
 31
0.0
  0
LINE
  5
419
  8
_________1
 62
     7
 10
146.61099999999999
 20
59.540599999999998
 30
0.0
 11
133.27699999999999
 21
59.540599999999998
 31
0.0
  0
LINE
  5
41A
  8
_________1
 62
     7
 10
164.94399999999999
 20
100.874
 30
0.0
 11
150.94399999999999
 21
100.874
 31
0.0
  0
LINE
  5
41B
  8
_________1
 62
     7
 10
146.61099999999999
 20
100.874
 30
0.0
 11
133.27699999999999
 21
100.874
 31
0.0
  0
LINE
  5
41C
  8
_________1
  6
AIGENLINE001
 62
     7
 10
28.2606
 20
80.2072
 30
0.0
 11
88.860299999999995
 21
80.2072
 31
0.0
  0
LINE
  5
41D
  8
_________1
 62
     7
 10
83.577500000000015
 20
75.207599999999999
 30
0.0
 11
85.910899999999984
 21
75.207599999999999
 31
0.0
  0
LINE
  5
41E
  8
_________1
 62
     7
 10
83.577500000000015
 20
85.207400000000007
 30
0.0
 11
85.910899999999984
 21
85.207400000000007
 31
0.0
  0
LINE
  5
41F
  8
_________1
 62
     7
 10
85.910899999999984
 20
85.207400000000007
 30
0.0
 11
85.910899999999984
 21
75.207599999999999
 31
0.0
  0
LINE
  5
420
  8
_________1
  6
AIGENLINE001
 62
     7
 10
28.2606
 20
216.43600000000001
 30
0.0
 11
88.860299999999995
 21
216.43600000000001
 31
0.0
  0
ARC
  5
421
  8
_________1
 62
     7
 10
58.510269999999998
 20
218.25340399999999
 30
0.0
 40
1.818422
 50
272.11340300000001
 51
357.880968
  0
ARC
  5
422
  8
_________1
 62
     7
 10
58.644936999999999
 20
218.253953
 30
0.0
 40
1.818991
 50
182.13570999999999
 51
267.86995999999999
  0
ARC
  5
423
  8
_________1
 62
     7
 10
58.644540999999997
 20
218.118955
 30
0.0
 40
1.8185739999999999
 50
92.118047000000004
 51
177.881923
  0
ARC
  5
424
  8
_________1
 62
     7
 10
58.509709000000001
 20
218.11854600000001
 30
0.0
 40
1.818997
 50
2.1304270000000001
 51
87.869563000000014
  0
ARC
  5
425
  8
_________1
 62
     7
 10
58.577241999999998
 20
216.43613400000001
 30
0.0
 40
3.4999809999999991
 50
270.00143000000003
 51
0.0014
  0
ARC
  5
426
  8
_________1
 62
     7
 10
58.577413999999997
 20
216.43613300000001
 30
0.0
 40
3.4999799999999999
 50
179.99856
 51
269.99860999999999
  0
ARC
  5
427
  8
_________1
 62
     7
 10
58.577415999999999
 20
216.436305
 30
0.0
 40
3.4999809999999991
 50
90.001410000000007
 51
180.00142
  0
ARC
  5
428
  8
_________1
 62
     7
 10
58.577241999999998
 20
216.436305
 30
0.0
 40
3.4999809999999991
 50
359.99860000000001
 51
89.998570000000001
  0
ARC
  5
429
  8
_________1
 62
     7
 10
58.577413999999997
 20
216.436306
 30
0.0
 40
4.0000400000000003
 50
269.998786
 51
359.99875600000001
  0
ARC
  5
42A
  8
_________1
 62
     7
 10
58.577241999999998
 20
216.436305
 30
0.0
 40
4.0000390000000001
 50
180.00124400000001
 51
270.00125400000002
  0
ARC
  5
42B
  8
_________1
 62
     7
 10
58.577243000000003
 20
216.43613199999999
 30
0.0
 40
4.0000400000000003
 50
89.998766000000003
 51
179.99873700000001
  0
ARC
  5
42C
  8
_________1
 62
     7
 10
58.577413999999997
 20
216.43613199999999
 30
0.0
 40
4.0000400000000003
 50
0.001244
 51
90.001214000000004
  0
LINE
  5
42D
  8
_________1
 62
     7
 10
162.44399999999999
 20
171.68899999999999
 30
0.0
 11
157.94399999999999
 21
174.023
 31
0.0
  0
LINE
  5
42E
  8
_________1
 62
     7
 10
153.44399999999999
 20
171.68899999999999
 30
0.0
 11
157.94399999999999
 21
174.023
 31
0.0
  0
LINE
  5
42F
  8
_________1
 62
     7
 10
162.44399999999999
 20
166.35599999999999
 30
0.0
 11
157.94399999999999
 21
164.02199999999999
 31
0.0
  0
LINE
  5
430
  8
_________1
 62
     7
 10
162.44399999999999
 20
171.68899999999999
 30
0.0
 11
162.44399999999999
 21
166.35599999999999
 31
0.0
  0
LINE
  5
431
  8
_________1
 62
     7
 10
153.44399999999999
 20
166.35599999999999
 30
0.0
 11
157.94399999999999
 21
164.02199999999999
 31
0.0
  0
LINE
  5
432
  8
_________1
 62
     7
 10
153.44399999999999
 20
171.68899999999999
 30
0.0
 11
153.44399999999999
 21
166.35599999999999
 31
0.0
  0
LINE
  5
433
  8
_________1
  6
AIGENLINE001
 62
     7
 10
157.94399999999999
 20
160.56999999999999
 30
0.0
 11
157.94399999999999
 21
150.29599999999999
 31
0.0
  0
LINE
  5
434
  8
_________1
  6
AIGENLINE001
 62
     7
 10
157.94399999999999
 20
175.89599999999999
 30
0.0
 11
157.94399999999999
 21
161.99600000000001
 31
0.0
  0
LINE
  5
435
  8
_________1
 62
     7
 10
61.244199999999999
 20
211.93600000000001
 30
0.0
 11
63.577199999999998
 21
216.43600000000001
 31
0.0
  0
LINE
  5
436
  8
_________1
 62
     7
 10
61.244199999999999
 20
220.93600000000001
 30
0.0
 11
63.577199999999998
 21
216.43600000000001
 31
0.0
  0
LINE
  5
437
  8
_________1
 62
     7
 10
55.910499999999999
 20
211.93600000000001
 30
0.0
 11
53.57739999999999
 21
216.43600000000001
 31
0.0
  0
ARC
  5
438
  8
_________1
 62
     7
 10
82.886764999999997
 20
213.955253
 30
0.0
 40
3.459738999999999
 50
187.4992179999999
 51
215.702977
  0
ARC
  5
439
  8
_________1
 62
     7
 10
83.750622000000007
 20
214.10763399999999
 30
0.0
 40
4.336263999999999
 50
163.11908399999999
 51
188.00573299999999
  0
ARC
  5
43A
  8
_________1
 62
     7
 10
83.716373000000004
 20
214.17553699999999
 30
0.0
 40
4.2841259999999997
 50
148.15060099999999
 51
163.855099
  0
LINE
  5
43B
  8
_________1
 62
     7
 10
80.077299999999994
 20
211.93600000000001
 30
0.0
 11
79.244200000000006
 21
212.77000000000001
 31
0.0
  0
LINE
  5
43C
  8
_________1
 62
     7
 10
80.077299999999994
 20
211.93600000000001
 30
0.0
 11
85.910899999999984
 21
211.93600000000001
 31
0.0
  0
ARC
  5
43D
  8
_________1
 62
     7
 10
82.886764999999997
 20
218.91718599999999
 30
0.0
 40
3.459738999999999
 50
144.297023
 51
172.50078199999999
  0
ARC
  5
43E
  8
_________1
 62
     7
 10
83.750622000000007
 20
218.764805
 30
0.0
 40
4.336263999999999
 50
171.99426700000001
 51
196.8809159999999
  0
ARC
  5
43F
  8
_________1
 62
     7
 10
83.716373000000004
 20
218.69690199999999
 30
0.0
 40
4.2841259999999997
 50
196.144901
 51
211.84939900000001
  0
LINE
  5
440
  8
_________1
 62
     7
 10
80.077299999999994
 20
220.93600000000001
 30
0.0
 11
79.244200000000006
 21
220.10300000000001
 31
0.0
  0
LINE
  5
441
  8
_________1
 62
     7
 10
80.077299999999994
 20
216.43600000000001
 30
0.0
 11
85.910899999999984
 21
216.43600000000001
 31
0.0
  0
LINE
  5
442
  8
_________1
 62
     7
 10
80.077299999999994
 20
220.93600000000001
 30
0.0
 11
85.910899999999984
 21
220.93600000000001
 31
0.0
  0
LINE
  5
443
  8
_________1
 62
     7
 10
85.910899999999984
 20
220.93600000000001
 30
0.0
 11
85.910899999999984
 21
211.93600000000001
 31
0.0
  0
ARC
  5
444
  8
_________1
 62
     7
 10
34.268709000000001
 20
213.955299
 30
0.0
 40
3.458823999999999
 50
324.28519399999999
 51
352.49802399999999
  0
ARC
  5
445
  8
_________1
 62
     7
 10
33.405110999999998
 20
214.10767799999999
 30
0.0
 40
4.3350929999999988
 50
351.99151899999998
 51
16.884981
  0
ARC
  5
446
  8
_________1
 62
     7
 10
33.439782999999998
 20
214.17554999999999
 30
0.0
 40
4.2825550000000003
 50
16.150791999999999
 51
31.862241999999998
  0
LINE
  5
447
  8
_________1
 62
     7
 10
37.076999999999998
 20
211.93600000000001
 30
0.0
 11
37.91040000000001
 21
212.77000000000001
 31
0.0
  0
LINE
  5
448
  8
_________1
 62
     7
 10
61.244199999999999
 20
211.93600000000001
 30
0.0
 11
55.910499999999999
 21
211.93600000000001
 31
0.0
  0
LINE
  5
449
  8
_________1
 62
     7
 10
55.910499999999999
 20
220.93600000000001
 30
0.0
 11
53.57739999999999
 21
216.43600000000001
 31
0.0
  0
LINE
  5
44A
  8
_________1
 62
     7
 10
37.076999999999998
 20
211.93600000000001
 30
0.0
 11
31.2438
 21
211.93600000000001
 31
0.0
  0
ARC
  5
44B
  8
_________1
 62
     7
 10
34.268709000000001
 20
218.91713899999999
 30
0.0
 40
3.458823999999999
 50
7.5019759999999991
 51
35.71480600000001
  0
ARC
  5
44C
  8
_________1
 62
     7
 10
33.405110999999998
 20
218.76476099999999
 30
0.0
 40
4.3350929999999988
 50
343.11501900000002
 51
8.0084809999999997
  0
ARC
  5
44D
  8
_________1
 62
     7
 10
33.439782999999998
 20
218.696889
 30
0.0
 40
4.2825550000000003
 50
328.13775800000002
 51
343.84920799999998
  0
LINE
  5
44E
  8
_________1
 62
     7
 10
37.076999999999998
 20
220.93600000000001
 30
0.0
 11
37.91040000000001
 21
220.10300000000001
 31
0.0
  0
LINE
  5
44F
  8
_________1
 62
     7
 10
37.076999999999998
 20
216.43600000000001
 30
0.0
 11
31.2438
 21
216.43600000000001
 31
0.0
  0
LINE
  5
450
  8
_________1
 62
     7
 10
61.244199999999999
 20
220.93600000000001
 30
0.0
 11
55.910499999999999
 21
220.93600000000001
 31
0.0
  0
LINE
  5
451
  8
_________1
 62
     7
 10
37.076999999999998
 20
220.93600000000001
 30
0.0
 11
31.2438
 21
220.93600000000001
 31
0.0
  0
LINE
  5
452
  8
_________1
 62
     7
 10
31.2438
 20
220.93600000000001
 30
0.0
 11
31.2438
 21
211.93600000000001
 31
0.0
  0
LINE
  5
453
  8
_________1
 62
     7
 10
64.910499999999999
 20
226.77000000000001
 30
0.0
 11
64.910499999999999
 21
223.43600000000001
 31
0.0
  0
LINE
  5
454
  8
_________1
 62
     7
 10
52.2438
 20
226.77000000000001
 30
0.0
 11
52.2438
 21
223.43600000000001
 31
0.0
  0
LINE
  5
455
  8
_________1
 62
     7
 10
72.743999999999986
 20
226.77000000000001
 30
0.0
 11
72.743999999999986
 21
223.43600000000001
 31
0.0
  0
LINE
  5
456
  8
_________1
 62
     7
 10
44.410699999999991
 20
226.77000000000001
 30
0.0
 11
44.410699999999991
 21
223.43600000000001
 31
0.0
  0
LINE
  5
457
  8
_________1
 62
     7
 10
78.577299999999994
 20
226.77000000000001
 30
0.0
 11
78.577299999999994
 21
223.43600000000001
 31
0.0
  0
LINE
  5
458
  8
_________1
 62
     7
 10
38.576999999999998
 20
226.77000000000001
 30
0.0
 11
38.576999999999998
 21
223.43600000000001
 31
0.0
  0
LINE
  5
459
  8
_________1
 62
     7
 10
81.077399999999983
 20
226.77000000000001
 30
0.0
 11
81.077399999999983
 21
223.43600000000001
 31
0.0
  0
LINE
  5
45A
  8
_________1
 62
     7
 10
36.077300000000001
 20
226.77000000000001
 30
0.0
 11
36.077300000000001
 21
223.43600000000001
 31
0.0
  0
ARC
  5
45B
  8
_________1
 62
     7
 10
59.897443999999993
 20
164.44910200000001
 30
0.0
 40
0.346531
 50
272.17400199999997
 51
357.85562599999997
  0
ARC
  5
45C
  8
_________1
 62
     7
 10
57.25719999999999
 20
164.44944599999999
 30
0.0
 40
0.3468739999999999
 50
182.19913
 51
267.83050200000002
  0
ARC
  5
45D
  8
_________1
 62
     7
 10
58.577329000000013
 20
171.652795
 30
0.0
 40
1.666747999999999
 50
90.0
 51
179.99996999999999
  0
ARC
  5
45E
  8
_________1
 62
     7
 10
58.577329000000013
 20
171.652795
 30
0.0
 40
1.666747999999999
 50
0.00001
 51
89.999980000000008
  0
ARC
  5
45F
  8
_________1
 62
     7
 10
67.224386999999993
 20
177.95547300000001
 30
0.0
 40
0.519724
 50
272.14793900000001
 51
357.87181099999998
  0
ARC
  5
460
  8
_________1
 62
     7
 10
49.929769
 20
177.95531500000001
 30
0.0
 40
0.5195610000000001
 50
182.11152200000001
 51
267.86876799999999
  0
ARC
  5
461
  8
_________1
 62
     7
 10
59.210570999999987
 20
181.810562
 30
0.0
 40
9.2389139999999994
 50
208.26413700000001
 51
210.636899
  0
ARC
  5
462
  8
_________1
 62
     7
 10
59.199860999999999
 20
181.09907799999999
 30
0.0
 40
7.7957899999999993
 50
329.15558900000002
 51
331.968772
  0
LINE
  5
463
  8
_________1
 62
     7
 10
69.074299999999994
 20
172.446
 30
0.0
 11
68.078599999999994
 21
173.018
 31
0.0
  0
ARC
  5
464
  8
_________1
 62
     7
 10
68.382733999999999
 20
171.27305899999999
 30
0.0
 40
1.3613459999999991
 50
0.67054
 51
59.471328
  0
ARC
  5
465
  8
_________1
 62
     7
 10
68.425229000000002
 20
173.605076
 30
0.0
 40
0.6815310000000001
 50
180.718467
 51
239.43084099999999
  0
ARC
  5
466
  8
_________1
 62
     7
 10
49.583486999999998
 20
176.92987299999999
 30
0.0
 40
0.173036
 50
92.047434999999993
 51
177.95253500000001
  0
ARC
  5
467
  8
_________1
 62
     7
 10
67.570433999999992
 20
176.92948100000001
 30
0.0
 40
0.173443
 50
2.172350999999999
 51
87.827639000000005
  0
LINE
  5
468
  8
_________1
 62
     7
 10
67.243899999999996
 20
177.43599999999989
 30
0.0
 11
49.910400000000003
 21
177.43599999999989
 31
0.0
  0
LINE
  5
469
  8
_________1
 62
     7
 10
67.576999999999984
 20
177.10300000000001
 30
0.0
 11
49.577300000000001
 21
177.10300000000001
 31
0.0
  0
ARC
  5
46A
  8
_________1
 62
     7
 10
49.756849000000003
 20
164.44910200000001
 30
0.0
 40
0.346531
 50
182.14439400000001
 51
267.82601800000009
  0
ARC
  5
46B
  8
_________1
 62
     7
 10
69.397918000000004
 20
164.44889699999999
 30
0.0
 40
0.346304
 50
272.08211299999999
 51
357.88829399999997
  0
LINE
  5
46C
  8
_________1
 62
     7
 10
67.743799999999993
 20
171.86699999999999
 30
0.0
 11
67.743799999999993
 21
165.34800000000001
 31
0.0
  0
LINE
  5
46D
  8
_________1
 62
     7
 10
69.744
 20
171.28899999999999
 30
0.0
 11
69.744
 21
164.43599999999989
 31
0.0
  0
ARC
  5
46E
  8
_________1
 62
     7
 10
33.75719500000001
 20
191.590227
 30
0.0
 40
0.180144
 50
95.555441999999985
 51
178.14353399999999
  0
ARC
  5
46F
  8
_________1
 62
     7
 10
34.186940999999997
 20
187.95374000000001
 30
0.0
 40
0.517991
 50
183.32022900000001
 51
267.94075699999991
  0
LINE
  5
470
  8
_________1
 62
     7
 10
33.577100000000002
 20
191.596
 30
0.0
 11
33.669800000000002
 21
187.92400000000001
 31
0.0
  0
ARC
  5
471
  8
_________1
 62
     7
 10
83.397462000000004
 20
191.590227
 30
0.0
 40
0.180144
 50
1.856463999999999
 51
84.444520999999995
  0
ARC
  5
472
  8
_________1
 62
     7
 10
82.967708000000002
 20
187.953383
 30
0.0
 40
0.5176350000000002
 50
272.06161700000001
 51
356.717037
  0
LINE
  5
473
  8
_________1
 62
     7
 10
83.577500000000015
 20
191.596
 30
0.0
 11
83.484499999999997
 21
187.92400000000001
 31
0.0
  0
LINE
  5
474
  8
_________1
 62
     7
 10
69.410499999999999
 20
164.10299999999989
 30
0.0
 11
49.743699999999997
 21
164.10299999999989
 31
0.0
  0
LINE
  5
475
  8
_________1
 62
     7
 10
82.986300000000014
 20
187.43600000000001
 30
0.0
 11
34.168300000000002
 21
187.43600000000001
 31
0.0
  0
LINE
  5
476
  8
_________1
 62
     7
 10
81.077399999999983
 20
223.43600000000001
 30
0.0
 11
64.910499999999999
 21
223.43600000000001
 31
0.0
  0
LINE
  5
477
  8
_________1
 62
     7
 10
52.2438
 20
223.43600000000001
 30
0.0
 11
36.077300000000001
 21
223.43600000000001
 31
0.0
  0
LINE
  5
478
  8
_________1
 62
     7
 10
81.077399999999983
 20
226.77000000000001
 30
0.0
 11
36.077300000000001
 21
226.77000000000001
 31
0.0
  0
LINE
  5
479
  8
_________1
 62
     7
 10
83.414900000000003
 20
191.77000000000001
 30
0.0
 11
33.739800000000002
 21
191.77000000000001
 31
0.0
  0
LINE
  5
47A
  8
_________1
 62
     7
 10
60.243699999999997
 20
171.65299999999999
 30
0.0
 11
60.243699999999997
 21
164.43599999999989
 31
0.0
  0
LINE
  5
47B
  8
_________1
 62
     7
 10
56.910600000000002
 20
171.65299999999999
 30
0.0
 11
56.910600000000002
 21
164.43599999999989
 31
0.0
  0
LINE
  5
47C
  8
_________1
 62
     7
 10
79.243899999999996
 20
223.43600000000001
 30
0.0
 11
79.243899999999996
 21
209.43600000000001
 31
0.0
  0
LINE
  5
47D
  8
_________1
 62
     7
 10
79.243899999999996
 20
205.10300000000001
 30
0.0
 11
79.243899999999996
 21
191.77000000000001
 31
0.0
  0
LINE
  5
47E
  8
_________1
 62
     7
 10
37.91040000000001
 20
223.43600000000001
 30
0.0
 11
37.91040000000001
 21
209.43600000000001
 31
0.0
  0
LINE
  5
47F
  8
_________1
 62
     7
 10
37.91040000000001
 20
205.10300000000001
 30
0.0
 11
37.91040000000001
 21
191.77000000000001
 31
0.0
  0
LINE
  5
480
  8
_________1
 62
     7
 10
67.743799999999993
 20
187.43600000000001
 30
0.0
 11
67.743799999999993
 21
177.93600000000001
 31
0.0
  0
LINE
  5
481
  8
_________1
 62
     7
 10
49.410600000000002
 20
187.43600000000001
 30
0.0
 11
49.410600000000002
 21
177.93600000000001
 31
0.0
  0
LINE
  5
482
  8
_________1
 62
     7
 10
67.743799999999993
 20
176.93599999999989
 30
0.0
 11
67.743799999999993
 21
173.43600000000001
 31
0.0
  0
LINE
  5
483
  8
_________1
 62
     7
 10
49.410600000000002
 20
176.93599999999989
 30
0.0
 11
49.410600000000002
 21
164.43599999999989
 31
0.0
  0
LINE
  5
484
  8
_________1
  6
AIGENLINE001
 62
     7
 10
58.577300000000001
 20
228.94200000000001
 30
0.0
 11
58.577300000000001
 21
161.68000000000001
 31
0.0
  0
ARC
  5
485
  8
_________1
 62
     7
 10
119.46327700000001
 20
78.854911000000001
 30
0.0
 40
0.5195720000000001
 50
92.133097000000006
 51
177.90634700000001
  0
ARC
  5
486
  8
_________1
 62
     7
 10
119.46359699999999
 20
61.560119999999998
 30
0.0
 40
0.519904
 50
182.12754899999999
 51
267.83300800000001
  0
ARC
  5
487
  8
_________1
 62
     7
 10
122.651634
 20
69.666631999999993
 30
0.0
 40
7.889111999999999
 50
239.18436500000001
 51
241.96535399999999
  0
ARC
  5
488
  8
_________1
 62
     7
 10
123.48366900000001
 20
69.281284999999997
 30
0.0
 40
9.5751270000000002
 50
118.3057699999999
 51
120.595206
  0
LINE
  5
489
  8
_________1
 62
     7
 10
113.953
 20
80.704599999999999
 30
0.0
 11
114.526
 21
79.709000000000003
 31
0.0
  0
ARC
  5
48A
  8
_________1
 62
     7
 10
112.781036
 20
80.012073999999998
 30
0.0
 40
1.361688999999999
 50
30.570587
 51
89.331263000000007
  0
ARC
  5
48B
  8
_________1
 62
     7
 10
115.111857
 20
80.053904000000017
 30
0.0
 40
0.679821
 50
210.48828700000001
 51
269.37726400000003
  0
ARC
  5
48C
  8
_________1
 62
     7
 10
107.45008300000001
 20
59.880248999999999
 30
0.0
 40
0.173032
 50
182.04603499999999
 51
267.95399500000002
  0
ARC
  5
48D
  8
_________1
 62
     7
 10
107.35863999999999
 20
60.959747999999998
 30
0.0
 40
0.114777
 50
120.20872900000001
 51
135.22558100000001
  0
ARC
  5
48E
  8
_________1
 62
     7
 10
107.426709
 20
60.846201000000001
 30
0.0
 40
0.247159
 50
108.061577
 51
120.60124399999999
  0
ARC
  5
48F
  8
_________1
 62
     7
 10
107.532527
 20
60.531907999999987
 30
0.0
 40
0.5787810000000001
 50
99.808769000000012
 51
108.374455
  0
ARC
  5
490
  8
_________1
 62
     7
 10
107.65392300000001
 20
59.858027999999997
 30
0.0
 40
1.2635000000000001
 50
94.369972999999987
 51
100.02728499999991
  0
ARC
  5
491
  8
_________1
 62
     7
 10
107.754648
 20
58.561763999999997
 30
0.0
 40
2.5636709999999989
 50
89.499358000000001
 51
94.407106999999996
  0
ARC
  5
492
  8
_________1
 62
     7
 10
114.69570400000001
 20
60.959747999999998
 30
0.0
 40
0.114777
 50
44.774399000000003
 51
59.791251000000003
  0
ARC
  5
493
  8
_________1
 62
     7
 10
114.627662
 20
60.846371999999988
 30
0.0
 40
0.246998
 50
59.383940000000003
 51
71.924937999999997
  0
ARC
  5
494
  8
_________1
 62
     7
 10
114.522006
 20
60.532733999999998
 30
0.0
 40
0.577947
 50
71.614456000000004
 51
80.188374999999994
  0
ARC
  5
495
  8
_________1
 62
     7
 10
114.40079299999999
 20
59.860768000000007
 30
0.0
 40
1.2607509999999991
 50
79.964258999999998
 51
85.631001999999995
  0
ARC
  5
496
  8
_________1
 62
     7
 10
114.29982200000001
 20
58.561769999999989
 30
0.0
 40
2.5636669999999988
 50
85.592547999999994
 51
90.503434999999996
  0
ARC
  5
497
  8
_________1
 62
     7
 10
114.60426099999999
 20
59.880248999999999
 30
0.0
 40
0.173032
 50
272.046042
 51
357.95396799999997
  0
ARC
  5
498
  8
_________1
 62
     7
 10
118.43764299999999
 20
61.213508999999988
 30
0.0
 40
0.173032
 50
272.046042
 51
357.95396799999997
  0
ARC
  5
499
  8
_________1
 62
     7
 10
118.437257
 20
79.200817000000001
 30
0.0
 40
0.173431
 50
2.1688740000000002
 51
87.831116000000009
  0
LINE
  5
49A
  8
_________1
 62
     7
 10
118.944
 20
78.873900000000006
 30
0.0
 11
118.944
 21
61.540799999999997
 31
0.0
  0
LINE
  5
49B
  8
_________1
 62
     7
 10
118.611
 20
79.207400000000007
 30
0.0
 11
118.611
 21
61.207299999999996
 31
0.0
  0
ARC
  5
49C
  8
_________1
 62
     7
 10
105.957384
 20
61.3872
 30
0.0
 40
0.3468739999999999
 50
182.16842600000001
 51
267.77238299999999
  0
ARC
  5
49D
  8
_________1
 62
     7
 10
105.95661800000001
 20
81.027796999999993
 30
0.0
 40
0.346106
 50
92.105590000000007
 51
177.83509799999999
  0
LINE
  5
49E
  8
_________1
 62
     7
 10
113.375
 20
79.374099999999984
 30
0.0
 11
106.855
 21
79.374099999999984
 31
0.0
  0
LINE
  5
49F
  8
_________1
 62
     7
 10
112.797
 20
81.373699999999999
 30
0.0
 11
105.944
 21
81.373699999999999
 31
0.0
  0
INSERT
  5
4A0
  8
_________1
 62
     7
  2
AIGNBL02010021
 10
0.0
 20
0.0
 30
0.0
  0
ARC
  5
4A1
  8
_________1
  6
AIGENLINE002
 62
     7
 10
143.09814
 20
105.027827
 30
0.0
 40
0.179948
 50
5.4988970000000004
 51
88.143289999999993
  0
ARC
  5
4A2
  8
_________1
  6
AIGENLINE002
 62
     7
 10
139.46128400000001
 20
104.597894
 30
0.0
 40
0.5176270000000001
 50
93.301315000000002
 51
177.94024899999999
  0
LINE
  5
4A3
  8
_________1
  6
AIGENLINE002
 62
     7
 10
143.10400000000001
 20
105.208
 30
0.0
 11
139.43100000000001
 21
105.11499999999999
 31
0.0
  0
LINE
  5
4A4
  8
_________1
  6
AIGENLINE002
 62
     7
 10
138.94399999999999
 20
104.616
 30
0.0
 11
138.94399999999999
 21
55.798499999999997
 31
0.0
  0
LINE
  5
4A5
  8
_________1
  6
AIGENLINE002
 62
     7
 10
143.27699999999999
 20
105.045
 30
0.0
 11
143.27699999999999
 21
55.369900000000001
 31
0.0
  0
INSERT
  5
4A6
  8
_________1
 62
     7
  2
AIGNBL02010022
 10
0.0
 20
0.0
 30
0.0
  0
INSERT
  5
4A7
  8
_________1
 62
     7
  2
AIGNBL02010023
 10
0.0
 20
0.0
 30
0.0
  0
LINE
  5
4A8
  8
_________1
 62
     7
 10
60.244100000000003
 20
58.207299999999996
 30
0.0
 11
56.910600000000002
 21
58.207299999999996
 31
0.0
  0
LINE
  5
4A9
  8
_________1
 62
     7
 10
56.910600000000002
 20
58.207299999999996
 30
0.0
 11
56.910600000000002
 21
59.20709999999999
 31
0.0
  0
LINE
  5
4AA
  8
_________1
 62
     7
 10
56.910600000000002
 20
59.20709999999999
 30
0.0
 11
60.244100000000003
 21
59.20709999999999
 31
0.0
  0
LINE
  5
4AB
  8
_________1
 62
     7
 10
60.244100000000003
 20
59.20709999999999
 30
0.0
 11
60.244100000000003
 21
58.207299999999996
 31
0.0
  0
ARC
  5
4AC
  8
_________1
 62
     7
 10
61.281170999999993
 20
80.072947999999997
 30
0.0
 40
1.0617769999999991
 50
187.95345900000001
 51
252.07920300000001
  0
ARC
  5
4AD
  8
_________1
 62
     7
 10
55.873778000000001
 20
80.072283999999996
 30
0.0
 40
1.061054999999999
 50
287.91686900000002
 51
352.07733500000001
  0
ARC
  5
4AE
  8
_________1
 62
     7
 10
58.624518000000002
 20
79.652663000000004
 30
0.0
 40
1.721652999999999
 50
91.570612999999994
 51
170.863753
  0
ARC
  5
4AF
  8
_________1
 62
     7
 10
58.527999000000001
 20
79.650623999999993
 30
0.0
 40
1.7237509999999989
 50
9.1936559999999972
 51
88.360096999999996
  0
ARC
  5
4B0
  8
_________1
 62
     7
 10
58.314757999999991
 20
70.007974000000004
 30
0.0
 40
9.4314460000000011
 50
1.211327
 51
73.751131000000001
  0
ARC
  5
4B1
  8
_________1
 62
     7
 10
58.577326999999997
 20
70.207357000000002
 30
0.0
 40
9.1667699999999996
 50
270.00002000000001
 51
359.99999000000003
  0
ARC
  5
4B2
  8
_________1
 62
     7
 10
58.577326999999997
 20
70.207354000000009
 30
0.0
 40
9.1667660000000009
 50
179.99996999999999
 51
270.00002000000001
  0
ARC
  5
4B3
  8
_________1
 62
     7
 10
58.849060999999999
 20
70.001155000000011
 30
0.0
 40
9.4407519999999998
 50
106.294664
 51
178.74845300000001
  0
ARC
  5
4B4
  8
_________1
 62
     7
 10
82.885078000000007
 20
55.899774999999991
 30
0.0
 40
0.6929280000000001
 50
272.10555099999999
 51
357.835238
  0
ARC
  5
4B5
  8
_________1
 62
     7
 10
34.26892500000001
 20
55.899106000000003
 30
0.0
 40
0.6922480000000001
 50
182.11154300000001
 51
267.91810500000003
  0
LINE
  5
4B6
  8
_________1
 62
     7
 10
128.94399999999999
 20
79.374099999999984
 30
0.0
 11
119.444
 21
79.374099999999984
 31
0.0
  0
LINE
  5
4B7
  8
_________1
 62
     7
 10
128.94399999999999
 20
61.040599999999998
 30
0.0
 11
119.444
 21
61.040599999999998
 31
0.0
  0
LINE
  5
4B8
  8
_________1
 62
     7
 10
118.444
 20
79.374099999999984
 30
0.0
 11
114.944
 21
79.374099999999984
 31
0.0
  0
LINE
  5
4B9
  8
_________1
 62
     7
 10
118.444
 20
61.040599999999998
 30
0.0
 11
114.777
 21
61.040599999999998
 31
0.0
  0
LINE
  5
4BA
  8
_________1
 62
     7
 10
107.277
 20
61.040599999999998
 30
0.0
 11
105.944
 21
61.040599999999998
 31
0.0
  0
LINE
  5
4BB
  8
_________1
 62
     7
 10
34.2438
 20
55.207299999999996
 30
0.0
 11
82.910499999999999
 21
55.207299999999996
 31
0.0
  0
ARC
  5
4BC
  8
_________1
 62
     7
 10
82.88503
 20
104.515198
 30
0.0
 40
0.692951
 50
2.1094970000000002
 51
87.890493000000006
  0
ARC
  5
4BD
  8
_________1
 62
     7
 10
34.269612000000002
 20
104.51522799999999
 30
0.0
 40
0.6929340000000001
 50
92.13669800000001
 51
177.892875
  0
LINE
  5
4BE
  8
_________1
 62
     7
 10
83.577500000000015
 20
104.541
 30
0.0
 11
83.577500000000015
 21
55.873600000000003
 31
0.0
  0
LINE
  5
4BF
  8
_________1
  6
AIGENLINE001
 62
     7
 10
58.577300000000001
 20
109.544
 30
0.0
 11
58.577300000000001
 21
50.3187
 31
0.0
  0
LINE
  5
4C0
  8
_________1
 62
     7
 10
59.827199999999998
 20
61.125300000000003
 30
0.0
 11
59.827199999999998
 21
59.707299999999989
 31
0.0
  0
LINE
  5
4C1
  8
_________1
 62
     7
 10
57.327100000000002
 20
61.125300000000003
 30
0.0
 11
57.327100000000002
 21
59.707299999999989
 31
0.0
  0
LINE
  5
4C2
  8
_________1
 62
     7
 10
33.577100000000002
 20
104.541
 30
0.0
 11
33.577100000000002
 21
55.873600000000003
 31
0.0
  0
LINE
  5
4C3
  8
_________1
 62
     7
 10
114.277
 20
61.125300000000003
 30
0.0
 11
107.777
 21
61.125300000000003
 31
0.0
  0
LINE
  5
4C4
  8
_________1
 62
     7
 10
114.61
 20
59.707299999999989
 30
0.0
 11
107.444
 21
59.707299999999989
 31
0.0
  0
LINE
  5
4C5
  8
_________1
 62
     7
 10
57.327100000000002
 20
59.707299999999989
 30
0.0
 11
59.827199999999998
 21
59.707299999999989
 31
0.0
  0
LINE
  5
4C6
  8
_________1
  6
AIGENLINE001
 62
     7
 10
51.898600000000002
 20
93.540400000000005
 30
0.0
 11
64.995900000000006
 21
93.540400000000005
 31
0.0
  0
LINE
  5
4C7
  8
_________1
  6
AIGENLINE001
 62
     7
 10
131.83799999999999
 20
70.207400000000007
 30
0.0
 11
103.05800000000001
 21
70.207400000000007
 31
0.0
  0
LINE
  5
4C8
  8
_________1
  6
AIGENLINE001
 62
     7
 10
46.489400000000003
 20
70.207400000000007
 30
0.0
 11
70.966300000000004
 21
70.207400000000007
 31
0.0
  0
LINE
  5
4C9
  8
_________1
 62
     7
 10
34.2438
 20
105.208
 30
0.0
 11
82.910499999999999
 21
105.208
 31
0.0
  0
TEXT
  5
4CA
  8
_________2
 62
     7
 10
90.549158666666656
 20
13.2182
 30
0.0
 40
3.6545800000000002
  1
1 ： 3
 41
0.5
 72
     1
 11
93.960099999999997
 21
13.2182
 31
0.0
  0
LINE
  5
4CB
  8
_________2
 62
     7
 10
205.30099999999999
 20
127.41200000000001
 30
0.0
 11
183.55000000000001
 21
127.41200000000001
 31
0.0
  0
LINE
  5
4CC
  8
_________2
 62
     7
 10
100.3
 20
-4.0903900000000002
 30
0.0
 11
100.3
 21
-21.070699999999999
 31
0.0
  0
LINE
  5
4CD
  8
_________2
 62
     7
 10
100.3
 20
275.93099999999998
 30
0.0
 11
100.3
 21
258.911
 31
0.0
  0
LINE
  5
4CE
  8
_________2
 62
     7
 10
17.049499999999998
 20
127.41200000000001
 30
0.0
 11
-4.70052
 21
127.41200000000001
 31
0.0
  0
INSERT
  5
4CF
  8
_________2
 62
     7
  2
AIGNBL03010002
 10
0.0
 20
0.0
 30
0.0
  0
TEXT
  5
4D0
  8
_________2
 62
     7
 10
104.605
 20
1.6794899999999999
 30
0.0
 40
3.0923400000000001
  1
図番
 41
0.5
  0
LINE
  5
4D1
  8
_________2
 62
     7
 10
103.55
 20
5.9087199999999989
 30
0.0
 11
183.55099999999999
 21
5.9087199999999989
 31
0.0
  0
TEXT
  5
4D2
  8
_________2
 62
     7
 10
104.605
 20
11.679600000000001
 30
0.0
 40
3.0923400000000001
  1
品番
 41
0.5
  0
TEXT
  5
4D3
  8
_________2
 62
     7
 10
104.605
 20
31.8184
 30
0.0
 40
3.0923400000000001
  1
名称
 41
0.5
  0
TEXT
  5
4D4
  8
_________2
 62
     7
 10
91.84545833333334
 20
26.822299999999998
 30
0.0
 40
3.6545800000000002
  1
mm
 41
0.5
 72
     1
 11
93.368200000000016
 21
26.822299999999998
 31
0.0
  0
TEXT
  5
4D5
  8
_________2
 62
     7
 10
85.643199999999993
 20
31.8184
 30
0.0
 40
3.0923400000000001
  1
単位
 41
0.5
  0
TEXT
  5
4D6
  8
_________2
 62
     7
 10
85.643199999999993
 20
19.411200000000001
 30
0.0
 40
3.0923400000000001
  1
尺度
 41
0.5
  0
TEXT
  5
4D7
  8
_________2
 62
     7
 10
125.642565
 20
9.1082000000000001
 30
0.0
 40
3.9357000000000002
  1
KW0004801＋KW9999900
 41
0.5
 72
     1
 11
143.55000000000001
 21
9.1082000000000001
 31
0.0
  0
TEXT
  5
4D8
  8
_________2
 62
     7
 10
134.69467499999999
 20
-0.8919409999999999
 30
0.0
 40
3.9357000000000002
  1
KW0004801C
 41
0.5
 72
     1
 11
143.55000000000001
 21
-0.8919409999999999
 31
0.0
  0
TEXT
  5
4D9
  8
_________2
 62
     7
 10
28.402799999999999
 20
3.6835199999999988
 30
0.0
 40
3.9357000000000002
  1
（社）日本水道協会認証品・逆止弁付
 41
0.5
  0
TEXT
  5
4DA
  8
_________2
 62
     7
 10
28.402799999999999
 20
-1.23611
 30
0.0
 40
3.9357000000000002
  1
止水・切替機能付（2方向）
 41
0.5
  0
TEXT
  5
4DB
  8
_________2
 62
     7
 10
109.179
 20
25.276499999999999
 30
0.0
 40
3.9357000000000002
  1
アヴァ サーモスタット式
 41
0.5
  0
TEXT
  5
4DC
  8
_________2
 62
     7
 10
109.179
 20
20.3569
 30
0.0
 40
3.9357000000000002
  1
シャワバス用湯水混合水栓カバー部＋埋込部
 41
0.5
  0
TEXT
  5
4DD
  8
_________2
 62
     7
 10
39.425300333333333
 20
13.603400000000001
 30
0.0
 40
3.6545800000000002
  1
井田
 41
0.5
 72
     1
 11
41.313499999999998
 21
13.603400000000001
 31
0.0
  0
TEXT
  5
4DE
  8
_________2
 62
     7
 10
20.79039066666666
 20
13.603400000000001
 30
0.0
 40
3.6545800000000002
  1
恋塚
 41
0.5
 72
     1
 11
22.7395
 21
13.603400000000001
 31
0.0
  0
TEXT
  5
4DF
  8
_________2
 62
     7
 10
67.785799999999995
 20
13.2182
 30
0.0
 40
3.6545800000000002
  1
19.02.13
 41
0.5
  0
TEXT
  5
4E0
  8
_________2
 62
     7
 10
66.593100000000007
 20
19.411200000000001
 30
0.0
 40
3.0923400000000001
  1
日付
 41
0.5
  0
TEXT
  5
4E1
  8
_________2
 62
     7
 10
29.639399999999998
 20
19.411200000000001
 30
0.0
 40
3.0923400000000001
  1
検図
 41
0.5
  0
TEXT
  5
4E2
  8
_________2
 62
     7
 10
18.0214
 20
5.2117699999999987
 30
0.0
 40
3.0923400000000001
  1
備考
 41
0.5
  0
TEXT
  5
4E3
  8
_________2
 62
     7
 10
18.0214
 20
19.411200000000001
 30
0.0
 40
3.0923400000000001
  1
製図
 41
0.5
  0
TEXT
  5
4E4
  8
_________2
 62
     7
 10
23.788865333333341
 20
27.936800000000002
 30
0.0
 40
4.4979399999999989
  1
セラトレーディング株式会社
 41
0.5
 72
     1
 11
41.180900000000001
 21
27.936800000000002
 31
0.0
  0
LINE
  5
4E5
  8
_________2
 62
     7
 10
183.55099999999999
 20
-4.0910799999999998
 30
0.0
 11
17.049499999999998
 21
-4.0910799999999998
 31
0.0
  0
LINE
  5
4E6
  8
_________2
 62
     7
 10
17.049499999999998
 20
-4.0910799999999998
 30
0.0
 11
17.049499999999998
 21
258.911
 31
0.0
  0
LINE
  5
4E7
  8
_________2
 62
     7
 10
17.049499999999998
 20
258.911
 30
0.0
 11
183.55099999999999
 21
258.911
 31
0.0
  0
LINE
  5
4E8
  8
_________2
 62
     7
 10
183.55099999999999
 20
258.911
 30
0.0
 11
183.55099999999999
 21
-4.0910799999999998
 31
0.0
  0
LINE
  5
4E9
  8
_________2
 62
     7
 10
65.549899999999994
 20
9.4096499999999992
 30
0.0
 11
65.549899999999994
 21
35.909500000000001
 31
0.0
  0
LINE
  5
4EA
  8
_________2
 62
     7
 10
84.550099999999986
 20
9.4096499999999992
 30
0.0
 11
84.550099999999986
 21
35.909500000000001
 31
0.0
  0
LINE
  5
4EB
  8
_________2
 62
     7
 10
103.55
 20
-4.0910799999999998
 30
0.0
 11
103.55
 21
35.909500000000001
 31
0.0
  0
LINE
  5
4EC
  8
_________2
 62
     7
 10
28.549700000000001
 20
9.4096499999999992
 30
0.0
 11
28.549700000000001
 21
23.409199999999998
 31
0.0
  0
LINE
  5
4ED
  8
_________2
 62
     7
 10
17.049499999999998
 20
9.4096499999999992
 30
0.0
 11
103.55
 21
9.4096499999999992
 31
0.0
  0
LINE
  5
4EE
  8
_________2
 62
     7
 10
17.049499999999998
 20
23.409199999999998
 30
0.0
 11
103.55
 21
23.409199999999998
 31
0.0
  0
LINE
  5
4EF
  8
_________2
 62
     7
 10
103.55
 20
15.9092
 30
0.0
 11
183.55099999999999
 21
15.9092
 31
0.0
  0
LINE
  5
4F0
  8
_________2
 62
     7
 10
17.049499999999998
 20
35.909500000000001
 30
0.0
 11
183.55099999999999
 21
35.909500000000001
 31
0.0
  0
ENDSEC
  0
EOF
