  0
SECTION
  2
HEADER
  9
$ACADVER
  1
AC1009
  9
$INSBASE
 10
0.0
 20
0.0
 30
0.0
  9
$EXTMIN
 10
-4.7012099999999988
 20
-21.071000000000002
 30
0.0
  9
$EXTMAX
 10
205.30099999999999
 20
275.93099999999998
 30
0.0
  9
$LIMMIN
 10
0.0
 20
0.0
  9
$LIMMAX
 10
12.0
 20
9.0
  9
$ORTHOMODE
 70
     0
  9
$REGENMODE
 70
     1
  9
$FILLMODE
 70
     1
  9
$QTEXTMODE
 70
     0
  9
$MIRRTEXT
 70
     1
  9
$DRAGMODE
 70
     2
  9
$LTSCALE
 40
1.0
  9
$OSMODE
 70
    37
  9
$ATTMODE
 70
     1
  9
$TEXTSIZE
 40
0.0
  9
$TRACEWID
 40
0.05
  9
$TEXTSTYLE
  7
STANDARD
  9
$CLAYER
  8
0
  9
$CELTYPE
  6
CONTINUOUS
  9
$CECOLOR
 62
   256
  9
$DIMSCALE
 40
1.0
  9
$DIMASZ
 40
0.18
  9
$DIMEXO
 40
0.0625
  9
$DIMDLI
 40
0.38
  9
$DIMRND
 40
0.0
  9
$DIMDLE
 40
0.0
  9
$DIMEXE
 40
0.18
  9
$DIMTP
 40
0.0
  9
$DIMTM
 40
0.0
  9
$DIMTXT
 40
0.18
  9
$DIMCEN
 40
0.09
  9
$DIMTSZ
 40
0.0
  9
$DIMTOL
 70
     0
  9
$DIMLIM
 70
     0
  9
$DIMTIH
 70
     1
  9
$DIMTOH
 70
     1
  9
$DIMSE1
 70
     0
  9
$DIMSE2
 70
     0
  9
$DIMTAD
 70
     0
  9
$DIMZIN
 70
     0
  9
$DIMBLK
  1

  9
$DIMASO
 70
     1
  9
$DIMSHO
 70
     1
  9
$DIMPOST
  1

  9
$DIMAPOST
  1

  9
$DIMALT
 70
     0
  9
$DIMALTD
 70
     2
  9
$DIMALTF
 40
25.399999999999999
  9
$DIMLFAC
 40
1.0
  9
$DIMTOFL
 70
     0
  9
$DIMTVP
 40
0.0
  9
$DIMTIX
 70
     0
  9
$DIMSOXD
 70
     0
  9
$DIMSAH
 70
     0
  9
$DIMBLK1
  1

  9
$DIMBLK2
  1

  9
$DIMSTYLE
  2
STANDARD
  9
$DIMCLRD
 70
     0
  9
$DIMCLRE
 70
     0
  9
$DIMCLRT
 70
     0
  9
$DIMTFAC
 40
1.0
  9
$DIMGAP
 40
0.09
  9
$LUNITS
 70
     2
  9
$LUPREC
 70
     4
  9
$SKETCHINC
 40
0.1
  9
$FILLETRAD
 40
0.0
  9
$AUNITS
 70
     0
  9
$AUPREC
 70
     0
  9
$MENU
  1
.
  9
$ELEVATION
 40
0.0
  9
$PELEVATION
 40
0.0
  9
$THICKNESS
 40
0.0
  9
$LIMCHECK
 70
     0
  9
$BLIPMODE
 70
     0
  9
$CHAMFERA
 40
0.0
  9
$CHAMFERB
 40
0.0
  9
$SKPOLY
 70
     0
  9
$TDCREATE
 40
2444972.375
  9
$TDUPDATE
 40
2457850.2516433331
  9
$TDINDWG
 40
0.0000428472
  9
$TDUSRTIMER
 40
0.0000428472
  9
$USRTIMER
 70
     1
  9
$ANGBASE
 50
0.0
  9
$ANGDIR
 70
     0
  9
$PDMODE
 70
     0
  9
$PDSIZE
 40
0.0
  9
$PLINEWID
 40
0.0
  9
$COORDS
 70
     1
  9
$SPLFRAME
 70
     0
  9
$SPLINETYPE
 70
     6
  9
$SPLINESEGS
 70
     8
  9
$ATTDIA
 70
     1
  9
$ATTREQ
 70
     1
  9
$HANDLING
 70
     1
  9
$HANDSEED
  5
BED
  9
$SURFTAB1
 70
     6
  9
$SURFTAB2
 70
     6
  9
$SURFTYPE
 70
     6
  9
$SURFU
 70
     6
  9
$SURFV
 70
     6
  9
$UCSNAME
  2

  9
$UCSORG
 10
0.0
 20
0.0
 30
0.0
  9
$UCSXDIR
 10
1.0
 20
0.0
 30
0.0
  9
$UCSYDIR
 10
0.0
 20
1.0
 30
0.0
  9
$PUCSNAME
  2

  9
$PUCSORG
 10
0.0
 20
0.0
 30
0.0
  9
$PUCSXDIR
 10
1.0
 20
0.0
 30
0.0
  9
$PUCSYDIR
 10
0.0
 20
1.0
 30
0.0
  9
$USERI1
 70
     0
  9
$USERI2
 70
     0
  9
$USERI3
 70
     0
  9
$USERI4
 70
     0
  9
$USERI5
 70
     0
  9
$USERR1
 40
0.0
  9
$USERR2
 40
0.0
  9
$USERR3
 40
0.0
  9
$USERR4
 40
0.0
  9
$USERR5
 40
0.0
  9
$WORLDVIEW
 70
     1
  9
$SHADEDGE
 70
     3
  9
$SHADEDIF
 70
    70
  9
$TILEMODE
 70
     1
  9
$MAXACTVP
 70
    48
  9
$PLIMCHECK
 70
     0
  9
$PEXTMIN
 10
1.0000000000000000E+020
 20
1.0000000000000000E+020
 30
1.0000000000000000E+020
  9
$PEXTMAX
 10
-1.0000000000000000E+020
 20
-1.0000000000000000E+020
 30
-1.0000000000000000E+020
  9
$PLIMMIN
 10
0.0
 20
0.0
  9
$PLIMMAX
 10
12.0
 20
9.0
  9
$UNITMODE
 70
     0
  9
$VISRETAIN
 70
     1
  9
$PLINEGEN
 70
     0
  9
$PSLTSCALE
 70
     1
  0
ENDSEC
  0
SECTION
  2
TABLES
  0
TABLE
  2
VPORT
 70
     1
  0
VPORT
  2
*ACTIVE
 70
     0
 10
0.0
 20
0.0
 11
1.0
 21
1.0
 12
226.67841874411221
 22
127.42999999999989
 13
0.0
 23
0.0
 14
1.0
 24
1.0
 15
0.0
 25
0.0
 16
0.0
 26
0.0
 36
1.0
 17
0.0
 27
0.0
 37
0.0
 40
272.82183069028122
 41
1.479591836734693
 42
50.0
 43
0.0
 44
0.0
 50
0.0
 51
0.0
 71
     0
 72
   100
 73
     1
 74
     1
 75
     0
 76
     0
 77
     0
 78
     0
  0
ENDTAB
  0
TABLE
  2
LTYPE
 70
     3
  0
LTYPE
  2
CONTINUOUS
 70
     0
  3
Solid line
 72
    65
 73
     0
 40
0.0
  0
LTYPE
  2
AIGENLINE001
 70
     0
  3
generate AI->DXF Converter
 72
    65
 73
     6
 40
7.4083750000000004
 49
3.5278
 49
-0.776115
 49
0.776115
 49
-0.776115
 49
0.776115
 49
-0.776115
  0
LTYPE
  2
AIGENLINE002
 70
     0
  3
generate AI->DXF Converter
 72
    65
 73
     4
 40
5.8561449999999988
 49
3.5278
 49
-0.776115
 49
0.776115
 49
-0.776115
  0
ENDTAB
  0
TABLE
  2
LAYER
 70
     4
  0
LAYER
  2
0
 70
     0
 62
     7
  6
CONTINUOUS
  0
LAYER
  2
____
 70
     0
 62
     7
  6
CONTINUOUS
  0
LAYER
  2
_________1
 70
     0
 62
     7
  6
CONTINUOUS
  0
LAYER
  2
_________2
 70
     0
 62
     7
  6
CONTINUOUS
  0
ENDTAB
  0
TABLE
  2
STYLE
 70
     1
  0
STYLE
  2
STANDARD
 70
     0
 40
0.0
 41
0.0
 50
0.0
 71
     0
 42
0.0
  3
TXT
  4
EXTFONT.SHX
  0
ENDTAB
  0
TABLE
  2
VIEW
 70
     0
  0
ENDTAB
  0
TABLE
  2
UCS
 70
     0
  0
ENDTAB
  0
TABLE
  2
APPID
 70
     3
  0
APPID
  2
ACAD
 70
     0
  0
APPID
  2
ACAD_NAV_VCDISPLAY
 70
     0
  0
APPID
  2
ACAD_MLEADERVER
 70
     0
  0
ENDTAB
  0
TABLE
  2
DIMSTYLE
 70
     1
  0
DIMSTYLE
  2
STANDARD
 70
     0
  3

  4

  5

  6

  7

 40
1.0
 41
0.18
 42
0.0625
 43
0.38
 44
0.18
 45
0.0
 46
0.0
 47
0.0
 48
0.0
140
0.18
141
0.09
142
0.0
143
25.399999999999999
144
1.0
145
0.0
146
1.0
147
0.09
 71
     0
 72
     0
 73
     1
 74
     1
 75
     0
 76
     0
 77
     0
 78
     0
170
     0
171
     2
172
     0
173
     0
174
     0
175
     0
176
     0
177
     0
178
     0
  0
ENDTAB
  0
ENDSEC
  0
SECTION
  2
BLOCKS
  0
BLOCK
  8
0
  2
$MODEL_SPACE
 70
     0
 10
0.0
 20
0.0
 30
0.0
  3
$MODEL_SPACE
  1

  0
ENDBLK
  5
1A
  8
0
  0
BLOCK
 67
     1
  8
0
  2
$PAPER_SPACE
 70
     0
 10
0.0
 20
0.0
 30
0.0
  3
$PAPER_SPACE
  1

  0
ENDBLK
  5
17
 67
     1
  8
0
  0
BLOCK
  8
_________1
  2
AIGNBL02020003
 70
     0
 10
0.0
 20
0.0
 30
0.0
  3
AIGNBL02020003
  1

  0
LINE
  5
27
  8
_________1
 62
     7
 10
155.608
 20
118.361
 30
0.0
 11
156.208
 21
118.761
 31
0.0
  0
LINE
  5
28
  8
_________1
 62
     7
 10
155.608
 20
114.56
 30
0.0
 11
155.608
 21
118.361
 31
0.0
  0
LINE
  5
29
  8
_________1
 62
     7
 10
154.40799999999999
 20
114.56
 30
0.0
 11
154.40799999999999
 21
118.761
 31
0.0
  0
LINE
  5
2A
  8
_________1
 62
     7
 10
153.80799999999999
 20
114.56
 30
0.0
 11
153.80799999999999
 21
118.761
 31
0.0
  0
LINE
  5
2B
  8
_________1
 62
     7
 10
152.80799999999999
 20
114.56
 30
0.0
 11
152.80799999999999
 21
118.761
 31
0.0
  0
LINE
  5
2C
  8
_________1
 62
     7
 10
151.40799999999999
 20
114.56
 30
0.0
 11
151.40799999999999
 21
118.761
 31
0.0
  0
LINE
  5
2D
  8
_________1
 62
     7
 10
150.80799999999999
 20
114.56
 30
0.0
 11
150.80799999999999
 21
118.761
 31
0.0
  0
LINE
  5
2E
  8
_________1
 62
     7
 10
150.608
 20
114.56
 30
0.0
 11
150.608
 21
118.761
 31
0.0
  0
LINE
  5
2F
  8
_________1
 62
     7
 10
148.40799999999999
 20
114.56
 30
0.0
 11
148.40799999999999
 21
118.761
 31
0.0
  0
LINE
  5
30
  8
_________1
 62
     7
 10
148.00700000000001
 20
114.56
 30
0.0
 11
145.608
 21
118.761
 31
0.0
  0
LINE
  5
31
  8
_________1
 62
     7
 10
147.40799999999999
 20
114.56
 30
0.0
 11
145.00700000000001
 21
118.761
 31
0.0
  0
LINE
  5
32
  8
_________1
 62
     7
 10
146.608
 20
114.56
 30
0.0
 11
146.608
 21
115.95999999999999
 31
0.0
  0
LINE
  5
33
  8
_________1
 62
     7
 10
145.00700000000001
 20
114.56
 30
0.0
 11
155.608
 21
114.56
 31
0.0
  0
LINE
  5
34
  8
_________1
 62
     7
 10
145.00700000000001
 20
114.56
 30
0.0
 11
145.00700000000001
 21
118.761
 31
0.0
  0
ENDBLK
  5
35
  8
_________1
  0
BLOCK
  8
_________1
  2
AIGNBL02020005
 70
     0
 10
0.0
 20
0.0
 30
0.0
  3
AIGNBL02020005
  1

  0
LINE
  5
38
  8
_________1
 62
     7
 10
34.892699999999998
 20
118.761
 30
0.0
 11
38.49260000000001
 21
114.56
 31
0.0
  0
LINE
  5
39
  8
_________1
 62
     7
 10
51.692799999999998
 20
118.761
 30
0.0
 11
48.092799999999997
 21
114.56
 31
0.0
  0
LINE
  5
3A
  8
_________1
 62
     7
 10
45.392499999999998
 20
118.761
 30
0.0
 11
45.392499999999998
 21
114.56
 31
0.0
  0
LINE
  5
3B
  8
_________1
 62
     7
 10
41.192599999999992
 20
114.56
 30
0.0
 11
41.192599999999992
 21
118.761
 31
0.0
  0
LINE
  5
3C
  8
_________1
 62
     7
 10
44.792700000000004
 20
118.761
 30
0.0
 11
44.792700000000004
 21
114.56
 31
0.0
  0
LINE
  5
3D
  8
_________1
 62
     7
 10
41.792700000000004
 20
114.56
 30
0.0
 11
41.792700000000004
 21
118.761
 31
0.0
  0
LINE
  5
3E
  8
_________1
 62
     7
 10
44.392699999999991
 20
118.761
 30
0.0
 11
44.392699999999991
 21
114.56
 31
0.0
  0
LINE
  5
3F
  8
_________1
 62
     7
 10
42.192700000000002
 20
114.56
 30
0.0
 11
42.192700000000002
 21
118.761
 31
0.0
  0
LINE
  5
40
  8
_________1
 62
     7
 10
46.7926
 20
118.761
 30
0.0
 11
46.7926
 21
114.56
 31
0.0
  0
LINE
  5
41
  8
_________1
 62
     7
 10
39.792700000000011
 20
114.56
 30
0.0
 11
39.792700000000011
 21
118.761
 31
0.0
  0
LINE
  5
42
  8
_________1
 62
     7
 10
48.692599999999999
 20
115.26000000000001
 30
0.0
 11
48.692599999999999
 21
114.56
 31
0.0
  0
LINE
  5
43
  8
_________1
 62
     7
 10
48.692599999999999
 20
114.56
 30
0.0
 11
37.892699999999998
 21
114.56
 31
0.0
  0
LINE
  5
44
  8
_________1
 62
     7
 10
37.892699999999998
 20
114.56
 30
0.0
 11
37.892699999999998
 21
115.26000000000001
 31
0.0
  0
ENDBLK
  5
45
  8
_________1
  0
BLOCK
  8
_________1
  2
AIGNBL02020047
 70
     0
 10
0.0
 20
0.0
 30
0.0
  3
AIGNBL02020047
  1

  0
LINE
  5
48
  8
_________1
 62
     7
 10
148.22
 20
131.13499999999999
 30
0.0
 11
146.00800000000001
 21
131.72800000000001
 31
0.0
  0
LINE
  5
49
  8
_________1
 62
     7
 10
146.00800000000001
 20
131.72800000000001
 30
0.0
 11
148.22
 21
132.31999999999999
 31
0.0
  0
LINE
  5
4A
  8
_________1
 62
     7
 10
148.22
 20
132.31999999999999
 30
0.0
 11
148.22
 21
131.13499999999999
 31
0.0
  0
LINE
  5
4B
  8
_________1
 62
     7
 10
152.59899999999999
 20
132.30600000000001
 30
0.0
 11
154.81
 21
131.71299999999999
 31
0.0
  0
LINE
  5
4C
  8
_________1
 62
     7
 10
154.81
 20
131.71299999999999
 30
0.0
 11
152.59899999999999
 21
131.12100000000001
 31
0.0
  0
LINE
  5
4D
  8
_________1
 62
     7
 10
152.59899999999999
 20
131.12100000000001
 30
0.0
 11
152.59899999999999
 21
132.30600000000001
 31
0.0
  0
LINE
  5
4E
  8
_________1
 62
     7
 10
146.00899999999999
 20
131.721
 30
0.0
 11
154.809
 21
131.721
 31
0.0
  0
ENDBLK
  5
4F
  8
_________1
  0
BLOCK
  8
_________1
  2
AIGNBL020200C2
 70
     0
 10
0.0
 20
0.0
 30
0.0
  3
AIGNBL020200C2
  1

  0
LINE
  5
52
  8
_________1
 62
     7
 10
37.670299999999997
 20
63.225099999999998
 30
0.0
 11
35.459899999999998
 21
62.632899999999999
 31
0.0
  0
LINE
  5
53
  8
_________1
 62
     7
 10
35.459899999999998
 20
62.632899999999999
 30
0.0
 11
37.670299999999997
 21
62.040700000000001
 31
0.0
  0
LINE
  5
54
  8
_________1
 62
     7
 10
37.670299999999997
 20
62.040700000000001
 30
0.0
 11
37.670299999999997
 21
63.225099999999998
 31
0.0
  0
LINE
  5
55
  8
_________1
 62
     7
 10
29.901599999999998
 20
62.040700000000001
 30
0.0
 11
32.111899999999999
 21
62.632899999999999
 31
0.0
  0
LINE
  5
56
  8
_________1
 62
     7
 10
32.111899999999999
 20
62.632899999999999
 30
0.0
 11
29.901599999999998
 21
63.225099999999998
 31
0.0
  0
LINE
  5
57
  8
_________1
 62
     7
 10
29.901599999999998
 20
63.225099999999998
 30
0.0
 11
29.901599999999998
 21
62.040700000000001
 31
0.0
  0
LINE
  5
58
  8
_________1
 62
     7
 10
23.114699999999999
 20
62.632899999999999
 30
0.0
 11
38.3765
 21
62.632899999999999
 31
0.0
  0
ENDBLK
  5
59
  8
_________1
  0
BLOCK
  8
_________1
  2
AIGNBL020200C7
 70
     0
 10
0.0
 20
0.0
 30
0.0
  3
AIGNBL020200C7
  1

  0
LINE
  5
5C
  8
_________1
 62
     7
 10
136.126
 20
125.349
 30
0.0
 11
135.53299999999999
 21
127.56100000000001
 31
0.0
  0
LINE
  5
5D
  8
_________1
 62
     7
 10
135.53299999999999
 20
127.56100000000001
 30
0.0
 11
134.94
 21
125.349
 31
0.0
  0
LINE
  5
5E
  8
_________1
 62
     7
 10
134.94
 20
125.349
 30
0.0
 11
136.126
 21
125.349
 31
0.0
  0
LINE
  5
5F
  8
_________1
 62
     7
 10
134.95500000000001
 20
121.77200000000001
 30
0.0
 11
135.547
 21
119.56100000000001
 31
0.0
  0
LINE
  5
60
  8
_________1
 62
     7
 10
135.547
 20
119.56100000000001
 30
0.0
 11
136.13999999999999
 21
121.77200000000001
 31
0.0
  0
LINE
  5
61
  8
_________1
 62
     7
 10
136.13999999999999
 20
121.77200000000001
 30
0.0
 11
134.95500000000001
 21
121.77200000000001
 31
0.0
  0
LINE
  5
62
  8
_________1
 62
     7
 10
135.53299999999999
 20
127.56100000000001
 30
0.0
 11
135.53299999999999
 21
119.56100000000001
 31
0.0
  0
ENDBLK
  5
63
  8
_________1
  0
BLOCK
  8
_________1
  2
AIGNBL020200C9
 70
     0
 10
0.0
 20
0.0
 30
0.0
  3
AIGNBL020200C9
  1

  0
LINE
  5
66
  8
_________1
 62
     7
 10
145.79599999999999
 20
177.44999999999999
 30
0.0
 11
148.00800000000001
 21
178.042
 31
0.0
  0
LINE
  5
67
  8
_________1
 62
     7
 10
148.00800000000001
 20
178.042
 30
0.0
 11
145.79599999999999
 21
178.63499999999999
 31
0.0
  0
LINE
  5
68
  8
_________1
 62
     7
 10
145.79599999999999
 20
178.63499999999999
 30
0.0
 11
145.79599999999999
 21
177.44999999999999
 31
0.0
  0
LINE
  5
69
  8
_________1
 62
     7
 10
155.02000000000001
 20
178.63499999999999
 30
0.0
 11
152.80799999999999
 21
178.042
 31
0.0
  0
LINE
  5
6A
  8
_________1
 62
     7
 10
152.80799999999999
 20
178.042
 30
0.0
 11
155.02000000000001
 21
177.44999999999999
 31
0.0
  0
LINE
  5
6B
  8
_________1
 62
     7
 10
155.02000000000001
 20
177.44999999999999
 30
0.0
 11
155.02000000000001
 21
178.63499999999999
 31
0.0
  0
LINE
  5
6C
  8
_________1
 62
     7
 10
160.637
 20
178.042
 30
0.0
 11
143.952
 21
178.042
 31
0.0
  0
ENDBLK
  5
6D
  8
_________1
  0
BLOCK
  8
_________1
  2
AIGNBL02010002
 70
     0
 10
0.0
 20
0.0
 30
0.0
  3
AIGNBL02010002
  1

  0
LINE
  5
70
  8
_________1
 62
     7
 10
156.208
 20
118.761
 30
0.0
 11
144.608
 21
118.761
 31
0.0
  0
LINE
  5
71
  8
_________1
 62
     7
 10
144.608
 20
118.761
 30
0.0
 11
144.608
 21
119.56100000000001
 31
0.0
  0
LINE
  5
72
  8
_________1
 62
     7
 10
144.608
 20
119.56100000000001
 30
0.0
 11
156.208
 21
119.56100000000001
 31
0.0
  0
LINE
  5
73
  8
_________1
 62
     7
 10
156.208
 20
119.56100000000001
 30
0.0
 11
156.208
 21
118.761
 31
0.0
  0
INSERT
  5
74
  8
_________1
 62
     7
  2
AIGNBL02020003
 10
0.0
 20
0.0
 30
0.0
  0
ENDBLK
  5
75
  8
_________1
  0
BLOCK
  8
_________1
  2
AIGNBL02010004
 70
     0
 10
0.0
 20
0.0
 30
0.0
  3
AIGNBL02010004
  1

  0
LINE
  5
78
  8
_________1
 62
     7
 10
52.292700000000004
 20
118.761
 30
0.0
 11
34.292700000000011
 21
118.761
 31
0.0
  0
LINE
  5
79
  8
_________1
 62
     7
 10
34.292700000000011
 20
118.761
 30
0.0
 11
34.292700000000011
 21
119.56100000000001
 31
0.0
  0
LINE
  5
7A
  8
_________1
 62
     7
 10
34.292700000000011
 20
119.56100000000001
 30
0.0
 11
52.292700000000004
 21
119.56100000000001
 31
0.0
  0
LINE
  5
7B
  8
_________1
 62
     7
 10
52.292700000000004
 20
119.56100000000001
 30
0.0
 11
52.292700000000004
 21
118.761
 31
0.0
  0
INSERT
  5
7C
  8
_________1
 62
     7
  2
AIGNBL02020005
 10
0.0
 20
0.0
 30
0.0
  0
ENDBLK
  5
7D
  8
_________1
  0
BLOCK
  8
_________1
  2
AIGNBL02010006
 70
     0
 10
0.0
 20
0.0
 30
0.0
  3
AIGNBL02010006
  1

  0
LINE
  5
80
  8
_________1
 62
     7
 10
66.082499999999996
 20
135.20699999999999
 30
0.0
 11
68.292900000000003
 21
134.61500000000001
 31
0.0
  0
LINE
  5
81
  8
_________1
 62
     7
 10
68.292900000000003
 20
134.61500000000001
 30
0.0
 11
66.082499999999996
 21
134.02199999999999
 31
0.0
  0
LINE
  5
82
  8
_________1
 62
     7
 10
66.082499999999996
 20
134.02199999999999
 30
0.0
 11
66.082499999999996
 21
135.20699999999999
 31
0.0
  0
LINE
  5
83
  8
_________1
 62
     7
 10
45.503500000000003
 20
134.03700000000001
 30
0.0
 11
43.292700000000004
 21
134.62899999999999
 31
0.0
  0
LINE
  5
84
  8
_________1
 62
     7
 10
43.292700000000004
 20
134.62899999999999
 30
0.0
 11
45.503500000000003
 21
135.221
 31
0.0
  0
LINE
  5
85
  8
_________1
 62
     7
 10
45.503500000000003
 20
135.221
 30
0.0
 11
45.503500000000003
 21
134.03700000000001
 31
0.0
  0
LINE
  5
86
  8
_________1
 62
     7
 10
68.292900000000003
 20
134.62200000000001
 30
0.0
 11
43.292700000000004
 21
134.62200000000001
 31
0.0
  0
ENDBLK
  5
87
  8
_________1
  0
BLOCK
  8
_________1
  2
AIGNBL02010007
 70
     0
 10
0.0
 20
0.0
 30
0.0
  3
AIGNBL02010007
  1

  0
LINE
  5
8A
  8
_________1
 62
     7
 10
55.381999999999991
 20
174.81
 30
0.0
 11
57.592399999999998
 21
174.21799999999999
 31
0.0
  0
LINE
  5
8B
  8
_________1
 62
     7
 10
57.592399999999998
 20
174.21799999999999
 30
0.0
 11
55.381999999999991
 21
173.62599999999989
 31
0.0
  0
LINE
  5
8C
  8
_________1
 62
     7
 10
55.381999999999991
 20
173.62599999999989
 30
0.0
 11
55.381999999999991
 21
174.81
 31
0.0
  0
LINE
  5
8D
  8
_________1
 62
     7
 10
59.882699999999993
 20
159.108
 30
0.0
 11
62.0931
 21
158.51599999999999
 31
0.0
  0
LINE
  5
8E
  8
_________1
 62
     7
 10
62.0931
 20
158.51599999999999
 30
0.0
 11
59.882699999999993
 21
157.923
 31
0.0
  0
LINE
  5
8F
  8
_________1
 62
     7
 10
59.882699999999993
 20
157.923
 30
0.0
 11
59.882699999999993
 21
159.108
 31
0.0
  0
LINE
  5
90
  8
_________1
 62
     7
 10
45.503500000000003
 20
173.62599999999989
 30
0.0
 11
43.292700000000004
 21
174.21799999999999
 31
0.0
  0
LINE
  5
91
  8
_________1
 62
     7
 10
43.292700000000004
 20
174.21799999999999
 30
0.0
 11
45.503500000000003
 21
174.81
 31
0.0
  0
LINE
  5
92
  8
_________1
 62
     7
 10
45.503500000000003
 20
174.81
 30
0.0
 11
45.503500000000003
 21
173.62599999999989
 31
0.0
  0
LINE
  5
93
  8
_________1
 62
     7
 10
45.503500000000003
 20
157.93799999999999
 30
0.0
 11
43.292700000000004
 21
158.53
 31
0.0
  0
LINE
  5
94
  8
_________1
 62
     7
 10
43.292700000000004
 20
158.53
 30
0.0
 11
45.503500000000003
 21
159.12200000000001
 31
0.0
  0
LINE
  5
95
  8
_________1
 62
     7
 10
45.503500000000003
 20
159.12200000000001
 30
0.0
 11
45.503500000000003
 21
157.93799999999999
 31
0.0
  0
LINE
  5
96
  8
_________1
 62
     7
 10
62.0931
 20
158.523
 30
0.0
 11
43.292700000000004
 21
158.523
 31
0.0
  0
ENDBLK
  5
97
  8
_________1
  0
BLOCK
  8
_________1
  2
AIGNBL02010008
 70
     0
 10
0.0
 20
0.0
 30
0.0
  3
AIGNBL02010008
  1

  0
LINE
  5
9A
  8
_________1
 62
     7
 10
81.308400000000006
 20
162.751
 30
0.0
 11
81.900599999999997
 21
164.96100000000001
 31
0.0
  0
LINE
  5
9B
  8
_________1
 62
     7
 10
81.900599999999997
 20
164.96100000000001
 30
0.0
 11
82.492800000000003
 21
162.751
 31
0.0
  0
LINE
  5
9C
  8
_________1
 62
     7
 10
82.492800000000003
 20
162.751
 30
0.0
 11
81.308400000000006
 21
162.751
 31
0.0
  0
LINE
  5
9D
  8
_________1
 62
     7
 10
148.19800000000001
 20
161.55000000000001
 30
0.0
 11
150.40799999999999
 21
160.95699999999999
 31
0.0
  0
LINE
  5
9E
  8
_________1
 62
     7
 10
150.40799999999999
 20
160.95699999999999
 30
0.0
 11
148.19800000000001
 21
160.36500000000001
 31
0.0
  0
LINE
  5
9F
  8
_________1
 62
     7
 10
148.19800000000001
 20
160.36500000000001
 30
0.0
 11
148.19800000000001
 21
161.55000000000001
 31
0.0
  0
LINE
  5
A0
  8
_________1
 62
     7
 10
133.92099999999999
 20
160.37299999999999
 30
0.0
 11
131.71100000000001
 21
160.965
 31
0.0
  0
LINE
  5
A1
  8
_________1
 62
     7
 10
131.71100000000001
 20
160.965
 30
0.0
 11
133.92099999999999
 21
161.55699999999999
 31
0.0
  0
LINE
  5
A2
  8
_________1
 62
     7
 10
133.92099999999999
 20
161.55699999999999
 30
0.0
 11
133.92099999999999
 21
160.37299999999999
 31
0.0
  0
LINE
  5
A3
  8
_________1
 62
     7
 10
150.40799999999999
 20
160.965
 30
0.0
 11
131.71100000000001
 21
160.965
 31
0.0
  0
LINE
  5
A4
  8
_________1
 62
     7
 10
121.759
 20
154.727
 30
0.0
 11
122.351
 21
156.93700000000001
 31
0.0
  0
LINE
  5
A5
  8
_________1
 62
     7
 10
122.351
 20
156.93700000000001
 30
0.0
 11
122.943
 21
154.727
 31
0.0
  0
LINE
  5
A6
  8
_________1
 62
     7
 10
122.943
 20
154.727
 30
0.0
 11
121.759
 21
154.727
 31
0.0
  0
LINE
  5
A7
  8
_________1
 62
     7
 10
122.93600000000001
 20
129.77099999999999
 30
0.0
 11
122.34399999999999
 21
127.56100000000001
 31
0.0
  0
LINE
  5
A8
  8
_________1
 62
     7
 10
122.34399999999999
 20
127.56100000000001
 30
0.0
 11
121.751
 21
129.77099999999999
 31
0.0
  0
LINE
  5
A9
  8
_________1
 62
     7
 10
121.751
 20
129.77099999999999
 30
0.0
 11
122.93600000000001
 21
129.77099999999999
 31
0.0
  0
LINE
  5
AA
  8
_________1
 62
     7
 10
122.34399999999999
 20
156.93700000000001
 30
0.0
 11
122.34399999999999
 21
127.56100000000001
 31
0.0
  0
LINE
  5
AB
  8
_________1
 62
     7
 10
87.753899999999987
 20
164.351
 30
0.0
 11
88.346100000000007
 21
166.56100000000001
 31
0.0
  0
LINE
  5
AC
  8
_________1
 62
     7
 10
88.346100000000007
 20
166.56100000000001
 30
0.0
 11
88.938299999999984
 21
164.351
 31
0.0
  0
LINE
  5
AD
  8
_________1
 62
     7
 10
88.938299999999984
 20
164.351
 30
0.0
 11
87.753899999999987
 21
164.351
 31
0.0
  0
LINE
  5
AE
  8
_________1
 62
     7
 10
82.492800000000003
 20
129.77099999999999
 30
0.0
 11
81.900599999999997
 21
127.56100000000001
 31
0.0
  0
LINE
  5
AF
  8
_________1
 62
     7
 10
81.900599999999997
 20
127.56100000000001
 30
0.0
 11
81.308400000000006
 21
129.77099999999999
 31
0.0
  0
LINE
  5
B0
  8
_________1
 62
     7
 10
81.308400000000006
 20
129.77099999999999
 30
0.0
 11
82.492800000000003
 21
129.77099999999999
 31
0.0
  0
LINE
  5
B1
  8
_________1
 62
     7
 10
88.923800000000014
 20
129.77099999999999
 30
0.0
 11
88.331599999999995
 21
127.56100000000001
 31
0.0
  0
LINE
  5
B2
  8
_________1
 62
     7
 10
88.331599999999995
 20
127.56100000000001
 30
0.0
 11
87.739400000000003
 21
129.77099999999999
 31
0.0
  0
LINE
  5
B3
  8
_________1
 62
     7
 10
87.739400000000003
 20
129.77099999999999
 30
0.0
 11
88.923800000000014
 21
129.77099999999999
 31
0.0
  0
LINE
  5
B4
  8
_________1
 62
     7
 10
81.900599999999997
 20
164.96100000000001
 30
0.0
 11
81.900599999999997
 21
127.56100000000001
 31
0.0
  0
LINE
  5
B5
  8
_________1
 62
     7
 10
88.338800000000006
 20
166.56100000000001
 30
0.0
 11
88.338800000000006
 21
127.56100000000001
 31
0.0
  0
ENDBLK
  5
B6
  8
_________1
  0
BLOCK
  8
_________1
  2
AIGNBL02010009
 70
     0
 10
0.0
 20
0.0
 30
0.0
  3
AIGNBL02010009
  1

  0
LINE
  5
B9
  8
_________1
 62
     7
 10
75.743099999999998
 20
142.351
 30
0.0
 11
76.335400000000007
 21
144.56100000000001
 31
0.0
  0
LINE
  5
BA
  8
_________1
 62
     7
 10
76.335400000000007
 20
144.56100000000001
 30
0.0
 11
76.927599999999984
 21
142.351
 31
0.0
  0
LINE
  5
BB
  8
_________1
 62
     7
 10
76.927599999999984
 20
142.351
 30
0.0
 11
75.743099999999998
 21
142.351
 31
0.0
  0
LINE
  5
BC
  8
_________1
 62
     7
 10
76.9131
 20
129.77099999999999
 30
0.0
 11
76.320899999999995
 21
127.56100000000001
 31
0.0
  0
LINE
  5
BD
  8
_________1
 62
     7
 10
76.320899999999995
 20
127.56100000000001
 30
0.0
 11
75.728700000000003
 21
129.77099999999999
 31
0.0
  0
LINE
  5
BE
  8
_________1
 62
     7
 10
75.728700000000003
 20
129.77099999999999
 30
0.0
 11
76.9131
 21
129.77099999999999
 31
0.0
  0
LINE
  5
BF
  8
_________1
 62
     7
 10
76.328100000000006
 20
144.56100000000001
 30
0.0
 11
76.328100000000006
 21
127.56100000000001
 31
0.0
  0
ENDBLK
  5
C0
  8
_________1
  0
BLOCK
  8
_________1
  2
AIGNBL0201000A
 70
     0
 10
0.0
 20
0.0
 30
0.0
  3
AIGNBL0201000A
  1

  0
LINE
  5
C3
  8
_________1
 62
     7
 10
69.132300000000001
 20
172.678
 30
0.0
 11
70.934399999999997
 21
171.268
 31
0.0
  0
LINE
  5
C4
  8
_________1
 62
     7
 10
70.934399999999997
 20
171.268
 30
0.0
 11
68.668599999999984
 21
171.58799999999999
 31
0.0
  0
LINE
  5
C5
  8
_________1
 62
     7
 10
68.668599999999984
 20
171.58799999999999
 30
0.0
 11
69.132300000000001
 21
172.678
 31
0.0
  0
LINE
  5
C6
  8
_________1
 62
     7
 10
59.779699999999998
 20
173.54599999999999
 30
0.0
 11
57.592399999999998
 21
174.21799999999999
 31
0.0
  0
LINE
  5
C7
  8
_________1
 62
     7
 10
57.592399999999998
 20
174.21799999999999
 30
0.0
 11
59.823099999999997
 21
174.72999999999999
 31
0.0
  0
LINE
  5
C8
  8
_________1
 62
     7
 10
59.823099999999997
 20
174.72999999999999
 30
0.0
 11
59.779699999999998
 21
173.54599999999999
 31
0.0
  0
ENDBLK
  5
C9
  8
_________1
  0
BLOCK
  8
_________1
  2
AIGNBL0201000B
 70
     0
 10
0.0
 20
0.0
 30
0.0
  3
AIGNBL0201000B
  1

  0
ARC
  5
CC
  8
_________1
  6
AIGENLINE001
 62
     7
 10
67.503090999999984
 20
164.94516100000001
 30
0.0
 40
0.062224
 50
67.176851999999997
 51
153.008251
  0
ENDBLK
  5
CD
  8
_________1
  0
BLOCK
  8
_________1
  2
AIGNBL0201000C
 70
     0
 10
0.0
 20
0.0
 30
0.0
  3
AIGNBL0201000C
  1

  0
ARC
  5
D0
  8
_________1
  6
AIGENLINE001
 62
     7
 10
68.296099999999996
 20
164.57513399999999
 30
0.0
 40
0.062449
 50
337.29609399999998
 51
62.670113999999998
  0
ENDBLK
  5
D1
  8
_________1
  0
BLOCK
  8
_________1
  2
AIGNBL0201000D
 70
     0
 10
0.0
 20
0.0
 30
0.0
  3
AIGNBL0201000D
  1

  0
LINE
  5
D4
  8
_________1
  6
AIGENLINE001
 62
     7
 10
68.324799999999996
 20
164.63099999999989
 30
0.0
 11
67.527600000000007
 21
165.00200000000001
 31
0.0
  0
ENDBLK
  5
D5
  8
_________1
  0
BLOCK
  8
_________1
  2
AIGNBL0201000E
 70
     0
 10
0.0
 20
0.0
 30
0.0
  3
AIGNBL0201000E
  1

  0
LINE
  5
D8
  8
_________1
  6
AIGENLINE001
 62
     7
 10
68.353700000000003
 20
164.5509999999999
 30
0.0
 11
67.447599999999994
 21
164.97300000000001
 31
0.0
  0
ENDBLK
  5
D9
  8
_________1
  0
BLOCK
  8
_________1
  2
AIGNBL0201000F
 70
     0
 10
0.0
 20
0.0
 30
0.0
  3
AIGNBL0201000F
  1

  0
LINE
  5
DC
  8
_________1
  6
AIGENLINE001
 62
     7
 10
65.877700000000004
 20
159.24199999999999
 30
0.0
 11
64.971999999999994
 21
159.66399999999999
 31
0.0
  0
ENDBLK
  5
DD
  8
_________1
  0
BLOCK
  8
_________1
  2
AIGNBL02010010
 70
     0
 10
0.0
 20
0.0
 30
0.0
  3
AIGNBL02010010
  1

  0
LINE
  5
E0
  8
_________1
  6
AIGENLINE001
 62
     7
 10
68.305300000000003
 20
165.63
 30
0.0
 11
65.089500000000001
 21
158.733
 31
0.0
  0
ENDBLK
  5
E1
  8
_________1
  0
BLOCK
  8
_________1
  2
AIGNBL02010011
 70
     0
 10
0.0
 20
0.0
 30
0.0
  3
AIGNBL02010011
  1

  0
LINE
  5
E4
  8
_________1
  6
AIGENLINE001
 62
     7
 10
68.353700000000003
 20
164.5509999999999
 30
0.0
 11
65.877700000000004
 21
159.24199999999999
 31
0.0
  0
ENDBLK
  5
E5
  8
_________1
  0
BLOCK
  8
_________1
  2
AIGNBL02010012
 70
     0
 10
0.0
 20
0.0
 30
0.0
  3
AIGNBL02010012
  1

  0
LINE
  5
E8
  8
_________1
  6
AIGENLINE001
 62
     7
 10
60.816000000000003
 20
148.85900000000001
 30
0.0
 11
65.696799999999996
 21
159.32599999999999
 31
0.0
  0
ENDBLK
  5
E9
  8
_________1
  0
BLOCK
  8
_________1
  2
AIGNBL02010013
 70
     0
 10
0.0
 20
0.0
 30
0.0
  3
AIGNBL02010013
  1

  0
LINE
  5
EC
  8
_________1
  6
AIGENLINE001
 62
     7
 10
60.153999999999989
 20
148.85900000000001
 30
0.0
 11
65.153199999999998
 21
159.58000000000001
 31
0.0
  0
ENDBLK
  5
ED
  8
_________1
  0
BLOCK
  8
_________1
  2
AIGNBL02010014
 70
     0
 10
0.0
 20
0.0
 30
0.0
  3
AIGNBL02010014
  1

  0
LINE
  5
F0
  8
_________1
  6
AIGENLINE001
 62
     7
 10
67.447599999999994
 20
164.97300000000001
 30
0.0
 11
64.971999999999994
 21
159.66399999999999
 31
0.0
  0
ENDBLK
  5
F1
  8
_________1
  0
BLOCK
  8
_________1
  2
AIGNBL02010015
 70
     0
 10
0.0
 20
0.0
 30
0.0
  3
AIGNBL02010015
  1

  0
LINE
  5
F4
  8
_________1
 62
     7
 10
57.592399999999998
 20
174.91800000000001
 30
0.0
 11
57.592399999999998
 21
168.52799999999999
 31
0.0
  0
ENDBLK
  5
F5
  8
_________1
  0
BLOCK
  8
_________1
  2
AIGNBL02010016
 70
     0
 10
0.0
 20
0.0
 30
0.0
  3
AIGNBL02010016
  1

  0
LINE
  5
F8
  8
_________1
 62
     7
 10
48.092500000000001
 20
140.262
 30
0.0
 11
48.092100000000002
 21
140.26300000000001
 31
0.0
  0
LINE
  5
F9
  8
_________1
 62
     7
 10
48.092100000000002
 20
140.26300000000001
 30
0.0
 11
48.091799999999999
 21
140.26300000000001
 31
0.0
  0
LINE
  5
FA
  8
_________1
 62
     7
 10
48.091799999999999
 20
140.26300000000001
 30
0.0
 11
48.089700000000001
 21
140.26499999999999
 31
0.0
  0
ARC
  5
FB
  8
_________1
 62
     7
 10
48.110678
 20
140.29055
 30
0.0
 40
0.033041
 50
222.345113
 51
230.59251800000001
  0
LINE
  5
FC
  8
_________1
 62
     7
 10
48.086300000000001
 20
140.268
 30
0.0
 11
48.081099999999999
 21
140.273
 31
0.0
  0
LINE
  5
FD
  8
_________1
 62
     7
 10
48.081099999999999
 20
140.273
 30
0.0
 11
48.0749
 21
140.279
 31
0.0
  0
LINE
  5
FE
  8
_________1
 62
     7
 10
48.0749
 20
140.279
 30
0.0
 11
48.067
 21
140.286
 31
0.0
  0
LINE
  5
FF
  8
_________1
 62
     7
 10
48.067
 20
140.286
 30
0.0
 11
48.05769999999999
 21
140.29499999999999
 31
0.0
  0
ARC
  5
100
  8
_________1
 62
     7
 10
46.694915000000002
 20
138.87347399999999
 30
0.0
 40
1.969088999999999
 50
46.205770999999999
 51
46.634749999999997
  0
ARC
  5
101
  8
_________1
 62
     7
 10
48.360126999999999
 20
140.64918499999999
 30
0.0
 40
0.4653310000000001
 50
225.66437300000001
 51
227.70502500000001
  0
ARC
  5
102
  8
_________1
 62
     7
 10
48.240565999999987
 20
140.55249000000001
 30
0.0
 40
0.313127
 50
225.51349200000001
 51
228.94888599999999
  0
ARC
  5
103
  8
_________1
 62
     7
 10
46.900804999999991
 20
139.129828
 30
0.0
 40
1.6411629999999999
 50
46.948925000000003
 51
47.685189999999999
  0
ARC
  5
104
  8
_________1
 62
     7
 10
47.246583999999999
 20
139.55919299999999
 30
0.0
 40
1.0913959999999989
 50
45.933501999999997
 51
47.129703000000013
  0
ARC
  5
105
  8
_________1
 62
     7
 10
54.315829999999998
 20
147.08369099999999
 30
0.0
 40
9.2329810000000005
 50
226.59046599999999
 51
226.74623800000001
  0
ARC
  5
106
  8
_________1
 62
     7
 10
48.550821999999997
 20
141.0192679999999
 30
0.0
 40
0.8659
 50
226.142134
 51
227.948713
  0
LINE
  5
107
  8
_________1
 62
     7
 10
47.950899999999997
 20
140.39500000000001
 30
0.0
 11
47.929200000000002
 21
140.41499999999999
 31
0.0
  0
ARC
  5
108
  8
_________1
 62
     7
 10
46.746809999999989
 20
139.170714
 30
0.0
 40
1.7164900000000001
 50
46.463327999999997
 51
47.517006000000002
  0
LINE
  5
109
  8
_________1
 62
     7
 10
47.906100000000002
 20
140.43700000000001
 30
0.0
 11
47.881300000000003
 21
140.46000000000001
 31
0.0
  0
ARC
  5
10A
  8
_________1
 62
     7
 10
49.613636
 20
142.33926700000001
 30
0.0
 40
2.5559090000000002
 50
226.51489900000001
 51
227.32904199999999
  0
ARC
  5
10B
  8
_________1
 62
     7
 10
15.878240999999999
 20
106.045315
 30
0.0
 40
46.995493000000003
 50
47.123803999999993
 51
47.171357
  0
LINE
  5
10C
  8
_________1
 62
     7
 10
47.8262
 20
140.511
 30
0.0
 11
47.796199999999999
 21
140.53999999999999
 31
0.0
  0
ARC
  5
10D
  8
_________1
 62
     7
 10
51.029516999999998
 20
143.99050299999999
 30
0.0
 40
4.7289779999999988
 50
226.33577500000001
 51
226.864304
  0
ARC
  5
10E
  8
_________1
 62
     7
 10
51.235172999999989
 20
144.320652
 30
0.0
 40
5.1104120000000002
 50
226.70559900000001
 51
227.22347099999999
  0
ARC
  5
10F
  8
_________1
 62
     7
 10
49.823421000000003
 20
142.85878600000001
 30
0.0
 40
3.078403999999999
 50
226.264759
 51
227.171986
  0
LINE
  5
110
  8
_________1
 62
     7
 10
47.695199999999993
 20
140.63499999999999
 30
0.0
 11
47.657299999999999
 21
140.66999999999999
 31
0.0
  0
ARC
  5
111
  8
_________1
 62
     7
 10
40.144162999999992
 20
132.74153000000001
 30
0.0
 40
10.922587999999999
 50
46.539293000000001
 51
46.822462999999999
  0
ARC
  5
112
  8
_________1
 62
     7
 10
42.853107999999999
 20
135.668633
 30
0.0
 40
6.9344649999999994
 50
46.595737
 51
47.067978999999987
  0
LINE
  5
113
  8
_________1
 62
     7
 10
47.5764
 20
140.74600000000001
 30
0.0
 11
47.533000000000001
 21
140.78700000000001
 31
0.0
  0
LINE
  5
114
  8
_________1
 62
     7
 10
47.533000000000001
 20
140.78700000000001
 30
0.0
 11
47.487200000000001
 21
140.83000000000001
 31
0.0
  0
ARC
  5
115
  8
_________1
 62
     7
 10
55.783642000000007
 20
149.68434600000001
 30
0.0
 40
12.134123000000001
 50
226.555623
 51
226.864035
  0
LINE
  5
116
  8
_________1
 62
     7
 10
47.439599999999999
 20
140.874
 30
0.0
 11
47.389699999999998
 21
140.92099999999999
 31
0.0
  0
LINE
  5
117
  8
_________1
 62
     7
 10
47.389699999999998
 20
140.92099999999999
 30
0.0
 11
47.337299999999999
 21
140.971
 31
0.0
  0
LINE
  5
118
  8
_________1
 62
     7
 10
47.337299999999999
 20
140.971
 30
0.0
 11
47.282899999999998
 21
141.02199999999999
 31
0.0
  0
ARC
  5
119
  8
_________1
 62
     7
 10
51.575509999999987
 20
145.647381
 30
0.0
 40
6.3102010000000002
 50
226.42252300000001
 51
227.135107
  0
LINE
  5
11A
  8
_________1
 62
     7
 10
47.225700000000003
 20
141.07599999999999
 30
0.0
 11
47.166800000000002
 21
141.13200000000001
 31
0.0
  0
ARC
  5
11B
  8
_________1
 62
     7
 10
52.122709
 20
146.44436099999999
 30
0.0
 40
7.2651779999999988
 50
226.32299900000001
 51
226.98800399999999
  0
LINE
  5
11C
  8
_________1
 62
     7
 10
47.105400000000003
 20
141.19
 30
0.0
 11
47.041699999999999
 21
141.25
 31
0.0
  0
LINE
  5
11D
  8
_________1
 62
     7
 10
47.041699999999999
 20
141.25
 30
0.0
 11
46.9756
 21
141.31299999999999
 31
0.0
  0
ARC
  5
11E
  8
_________1
 62
     7
 10
40.623671999999992
 20
134.69565700000001
 30
0.0
 40
9.1724409999999992
 50
46.171966999999988
 51
46.765624000000003
  0
ARC
  5
11F
  8
_________1
 62
     7
 10
17.972149000000002
 20
110.97727500000001
 30
0.0
 40
41.969372999999997
 50
46.415826999999993
 51
46.55072899999999
  0
ARC
  5
120
  8
_________1
 62
     7
 10
39.469144
 20
133.79534899999999
 30
0.0
 40
10.620430000000001
 50
46.087856000000002
 51
46.639989
  0
ARC
  5
121
  8
_________1
 62
     7
 10
-67.317080000000004
 20
22.134501
 30
0.0
 40
165.12409199999999
 50
46.30159299999999
 51
46.338287999999991
  0
ARC
  5
122
  8
_________1
 62
     7
 10
-67.571189000000004
 20
22.171928999999999
 30
0.0
 40
165.27258499999999
 50
46.265601000000011
 51
46.303276000000011
  0
LINE
  5
123
  8
_________1
 62
     7
 10
46.605899999999998
 20
141.66499999999999
 30
0.0
 11
46.524900000000002
 21
141.74299999999999
 31
0.0
  0
LINE
  5
124
  8
_________1
 62
     7
 10
46.524900000000002
 20
141.74299999999999
 30
0.0
 11
46.441600000000001
 21
141.82300000000001
 31
0.0
  0
LINE
  5
125
  8
_________1
 62
     7
 10
46.441600000000001
 20
141.82300000000001
 30
0.0
 11
46.355400000000003
 21
141.90600000000001
 31
0.0
  0
ARC
  5
126
  8
_________1
 62
     7
 10
35.62605700000001
 20
130.92007699999999
 30
0.0
 40
15.355809000000001
 50
45.67578799999999
 51
46.135775000000002
  0
ARC
  5
127
  8
_________1
 62
     7
 10
29.181909000000001
 20
124.465897
 30
0.0
 40
24.475269000000001
 50
45.729163000000007
 51
46.026882000000008
  0
ARC
  5
128
  8
_________1
 62
     7
 10
60.621197000000002
 20
157.00193300000001
 30
0.0
 40
20.768778999999999
 50
225.56984800000001
 51
225.92942500000001
  0
ARC
  5
129
  8
_________1
 62
     7
 10
33.542012999999997
 20
129.44844900000001
 30
0.0
 40
17.863842000000002
 50
45.413196999999982
 51
45.841394999999999
  0
LINE
  5
12A
  8
_________1
 62
     7
 10
45.986800000000002
 20
142.26400000000001
 30
0.0
 11
45.889299999999999
 21
142.36000000000001
 31
0.0
  0
ARC
  5
12B
  8
_________1
 62
     7
 10
210.43333899999999
 20
308.44426600000008
 30
0.0
 40
233.79192900000001
 50
225.23265699999999
 51
225.266896
  0
ARC
  5
12C
  8
_________1
 62
     7
 10
58.045458999999987
 20
154.85681199999999
 30
0.0
 40
17.433060000000001
 50
224.86376799999999
 51
225.332145
  0
ARC
  5
12D
  8
_________1
 62
     7
 10
67.972470999999985
 20
164.79487599999999
 30
0.0
 40
31.479759999999999
 50
224.67541499999999
 51
224.93878699999999
  0
LINE
  5
12E
  8
_________1
 62
     7
 10
45.587200000000003
 20
142.66200000000001
 30
0.0
 11
45.48449999999999
 21
142.76599999999999
 31
0.0
  0
ARC
  5
12F
  8
_________1
 62
     7
 10
62.531731999999991
 20
159.44522900000001
 30
0.0
 40
23.849502000000001
 50
224.01958500000001
 51
224.37456700000001
  0
ARC
  5
130
  8
_________1
 62
     7
 10
52.318407999999998
 20
149.63126600000001
 30
0.0
 40
9.6853949999999998
 50
223.38220200000001
 51
224.25642400000001
  0
ARC
  5
131
  8
_________1
 62
     7
 10
55.568796999999989
 20
152.80302399999999
 30
0.0
 40
14.226483999999999
 50
223.08482799999999
 51
223.67470800000001
  0
ARC
  5
132
  8
_________1
 62
     7
 10
52.719791000000001
 20
150.18021999999999
 30
0.0
 40
10.354191
 50
222.46069700000001
 51
223.25389200000001
  0
ARC
  5
133
  8
_________1
 62
     7
 10
61.968344999999992
 20
158.52730099999999
 30
0.0
 40
22.812369
 50
221.89841000000001
 51
222.24578
  0
ARC
  5
134
  8
_________1
 62
     7
 10
52.076332000000001
 20
149.65083799999999
 30
0.0
 40
9.5216390000000004
 50
221.100685
 51
221.89228299999999
  0
ARC
  5
135
  8
_________1
 62
     7
 10
50.862428000000001
 20
148.549767
 30
0.0
 40
7.8831309999999988
 50
219.982033
 51
220.87015500000001
  0
ARC
  5
136
  8
_________1
 62
     7
 10
47.772387000000002
 20
146.00469099999989
 30
0.0
 40
3.880228999999999
 50
218.838379
 51
220.503906
  0
ARC
  5
137
  8
_________1
 62
     7
 10
47.696587999999998
 20
145.98421400000001
 30
0.0
 40
3.808476999999999
 50
217.76628199999999
 51
219.31357199999999
  0
ARC
  5
138
  8
_________1
 62
     7
 10
47.157620999999999
 20
145.60310699999999
 30
0.0
 40
3.1491410000000002
 50
216.58924500000001
 51
218.290549
  0
ARC
  5
139
  8
_________1
 62
     7
 10
52.052861
 20
149.20456999999999
 30
0.0
 40
9.2264499999999998
 50
215.90446499999999
 51
216.42652000000001
  0
ARC
  5
13A
  8
_________1
 62
     7
 10
50.489235999999998
 20
147.932492
 30
0.0
 40
7.2148199999999987
 50
214.403077
 51
215.00376700000001
  0
ARC
  5
13B
  8
_________1
 62
     7
 10
45.788469999999997
 20
144.72932700000001
 30
0.0
 40
1.526529
 50
212.32520700000001
 51
214.895028
  0
ARC
  5
13C
  8
_________1
 62
     7
 10
68.344331000000011
 20
158.86318499999999
 30
0.0
 40
28.144794000000001
 50
211.95868399999989
 51
212.08565999999999
  0
ARC
  5
13D
  8
_________1
 62
     7
 10
55.088869999999993
 20
150.239407
 30
0.0
 40
12.337491
 50
210.29785799999999
 51
210.56319999999999
  0
ARC
  5
13E
  8
_________1
 62
     7
 10
46.872923
 20
145.38587000000001
 30
0.0
 40
2.795510999999999
 50
208.27700100000001
 51
209.36097100000001
  0
ARC
  5
13F
  8
_________1
 62
     7
 10
45.377752999999998
 20
144.587739
 30
0.0
 40
1.100673999999999
 50
206.016604
 51
208.559405
  0
ARC
  5
140
  8
_________1
 62
     7
 10
45.333950000000002
 20
144.58295799999999
 30
0.0
 40
1.0593170000000001
 50
204.36461800000001
 51
206.823474
  0
ARC
  5
141
  8
_________1
 62
     7
 10
46.116439999999997
 20
144.94920099999999
 30
0.0
 40
1.923238999999999
 50
203.42792800000001
 51
204.68680599999999
  0
ARC
  5
142
  8
_________1
 62
     7
 10
45.442537999999992
 20
144.644293
 30
0.0
 40
1.1837219999999991
 50
200.932166
 51
202.8552149999999
  0
ARC
  5
143
  8
_________1
 62
     7
 10
44.864584999999998
 20
144.43797699999999
 30
0.0
 40
0.570369
 50
198.5490179999999
 51
202.31667400000001
  0
ARC
  5
144
  8
_________1
 62
     7
 10
45.349032000000001
 20
144.62768299999999
 30
0.0
 40
1.090303
 50
198.00667100000001
 51
199.90182799999999
  0
ARC
  5
145
  8
_________1
 62
     7
 10
41.837140000000012
 20
143.57895500000001
 30
0.0
 40
2.5752830000000002
 50
16.042619999999999
 51
16.801752
  0
ARC
  5
146
  8
_________1
 62
     7
 10
47.271956000000003
 20
145.11493999999999
 30
0.0
 40
3.0731639999999989
 50
194.31554299999999
 51
194.926242
  0
ARC
  5
147
  8
_________1
 62
     7
 10
44.828625000000002
 20
144.497345
 30
0.0
 40
0.553024
 50
191.64424099999999
 51
194.90859
  0
ARC
  5
148
  8
_________1
 62
     7
 10
44.975093999999999
 20
144.52776800000001
 30
0.0
 40
0.702619
 50
189.17806899999991
 51
191.66339300000001
  0
ARC
  5
149
  8
_________1
 62
     7
 10
45.646379000000003
 20
144.653099
 30
0.0
 40
1.3854010000000001
 50
188.625394
 51
189.86686900000001
  0
ARC
  5
14A
  8
_________1
 62
     7
 10
44.931871000000001
 20
144.53725600000001
 30
0.0
 40
0.6616410000000002
 50
185.43308200000001
 51
187.98662999999999
  0
ARC
  5
14B
  8
_________1
 62
     7
 10
45.432965000000003
 20
144.59966399999999
 30
0.0
 40
1.1664859999999999
 50
184.72640000000001
 51
186.154302
  0
LINE
  5
14C
  8
_________1
 62
     7
 10
44.270400000000002
 20
144.50399999999999
 30
0.0
 11
44.269100000000002
 21
144.53200000000001
 31
0.0
  0
ARC
  5
14D
  8
_________1
 62
     7
 10
44.905858000000002
 20
144.554115
 30
0.0
 40
0.637169
 50
179.404414
 51
181.97613999999999
  0
ARC
  5
14E
  8
_________1
 62
     7
 10
45.315277999999999
 20
144.56242800000001
 30
0.0
 40
1.046556
 50
178.52689100000001
 51
180.092555
  0
ARC
  5
14F
  8
_________1
 62
     7
 10
45.422967
 20
144.54805300000001
 30
0.0
 40
1.1546369999999999
 50
176.53056900000001
 51
177.951176
  0
ARC
  5
150
  8
_________1
 62
     7
 10
45.877070000000003
 20
144.496827
 30
0.0
 40
1.611181999999999
 50
174.66897399999999
 51
175.68945500000001
  0
ARC
  5
151
  8
_________1
 62
     7
 10
44.916468999999999
 20
144.576956
 30
0.0
 40
0.6473600000000001
 50
171.24772300000001
 51
173.831107
  0
ARC
  5
152
  8
_________1
 62
     7
 10
45.274670999999998
 20
144.538782
 30
0.0
 40
1.0073389999999991
 50
170.507203
 51
172.20191399999999
  0
ARC
  5
153
  8
_________1
 62
     7
 10
44.995606999999993
 20
144.58086299999999
 30
0.0
 40
0.725171
 50
167.737021
 51
170.150116
  0
ARC
  5
154
  8
_________1
 62
     7
 10
45.073390000000003
 20
144.57427300000001
 30
0.0
 40
0.8026419999999999
 50
166.21318299999999
 51
168.45665299999999
  0
ARC
  5
155
  8
_________1
 62
     7
 10
44.848564000000003
 20
144.63777400000001
 30
0.0
 40
0.5692180000000001
 50
163.73033000000001
 51
167.027885
  0
ARC
  5
156
  8
_________1
 62
     7
 10
45.179552000000001
 20
144.54877300000001
 30
0.0
 40
0.9119149999999999
 50
162.02803499999999
 51
164.18853799999999
  0
ARC
  5
157
  8
_________1
 62
     7
 10
45.232782999999998
 20
144.54980900000001
 30
0.0
 40
0.962387
 50
160.940223
 51
163.064571
  0
ARC
  5
158
  8
_________1
 62
     7
 10
40.449216
 20
146.313458
 30
0.0
 40
4.136194999999999
 50
339.48740299999997
 51
340.01133499999997
  0
ARC
  5
159
  8
_________1
 62
     7
 10
45.49635
 20
144.44635199999999
 30
0.0
 40
1.245487999999999
 50
156.82009500000001
 51
158.66107099999999
  0
ARC
  5
15A
  8
_________1
 62
     7
 10
45.564132000000001
 20
144.418342
 30
0.0
 40
1.3188239999999991
 50
155.02470199999999
 51
156.86056400000001
  0
ARC
  5
15B
  8
_________1
 62
     7
 10
45.781733000000003
 20
144.3236
 30
0.0
 40
1.556090999999999
 50
153.59996799999999
 51
155.24541600000001
  0
ARC
  5
15C
  8
_________1
 62
     7
 10
46.857353000000003
 20
143.778323
 30
0.0
 40
2.7620040000000001
 50
152.38572300000001
 51
153.38935000000001
  0
ARC
  5
15D
  8
_________1
 62
     7
 10
46.292811
 20
144.044949
 30
0.0
 40
2.1383349999999992
 50
150.295548
 51
151.704588
  0
ARC
  5
15E
  8
_________1
 62
     7
 10
45.600687999999991
 20
144.452629
 30
0.0
 40
1.3351930000000001
 50
148.29512800000001
 51
150.77374900000001
  0
ARC
  5
15F
  8
_________1
 62
     7
 10
45.758698999999993
 20
144.387022
 30
0.0
 40
1.504348999999999
 50
146.92157599999999
 51
149.33211800000001
  0
ARC
  5
160
  8
_________1
 62
     7
 10
46.717475
 20
143.77889400000001
 30
0.0
 40
2.6396739999999999
 50
145.716759
 51
147.21940599999999
  0
ARC
  5
161
  8
_________1
 62
     7
 10
47.601194999999997
 20
143.18341599999999
 30
0.0
 40
3.705287999999999
 50
144.638418
 51
145.80588800000001
  0
ARC
  5
162
  8
_________1
 62
     7
 10
48.134247999999992
 20
142.77931899999999
 30
0.0
 40
4.3739169999999987
 50
143.26952900000001
 51
144.362649
  0
ARC
  5
163
  8
_________1
 62
     7
 10
46.901307000000003
 20
143.722419
 30
0.0
 40
2.821804999999999
 50
141.763182
 51
143.645025
  0
ARC
  5
164
  8
_________1
 62
     7
 10
48.646871000000012
 20
142.38538199999999
 30
0.0
 40
5.0204750000000002
 50
140.93214599999999
 51
142.107426
  0
ARC
  5
165
  8
_________1
 62
     7
 10
55.702072999999992
 20
136.531586
 30
0.0
 40
14.187773999999999
 50
140.077245
 51
140.534696
  0
ARC
  5
166
  8
_________1
 62
     7
 10
48.972631999999997
 20
142.172111
 30
0.0
 40
5.40707
 50
138.854219
 51
140.15281100000001
  0
ARC
  5
167
  8
_________1
 62
     7
 10
49.552520000000001
 20
141.70276299999989
 30
0.0
 40
6.1526319999999988
 50
137.89098200000001
 51
139.11605
  0
ARC
  5
168
  8
_________1
 62
     7
 10
52.849982999999987
 20
138.82469499999999
 30
0.0
 40
10.529066
 50
137.55159599999999
 51
138.304215
  0
ARC
  5
169
  8
_________1
 62
     7
 10
53.951343999999992
 20
137.81152700000001
 30
0.0
 40
12.025558
 50
136.84771900000001
 51
137.531273
  0
ARC
  5
16A
  8
_________1
 62
     7
 10
62.477778999999998
 20
129.81567000000001
 30
0.0
 40
23.714604999999999
 50
136.48938799999999
 51
136.84356099999999
  0
ARC
  5
16B
  8
_________1
 62
     7
 10
62.693798999999999
 20
129.47776200000001
 30
0.0
 40
24.104111
 50
135.908547
 51
136.26038700000001
  0
ARC
  5
16C
  8
_________1
 62
     7
 10
58.081741999999998
 20
134.04436899999999
 30
0.0
 40
17.614265
 50
135.65892299999999
 51
136.13878500000001
  0
ARC
  5
16D
  8
_________1
 62
     7
 10
-14.797824
 20
205.846675
 30
0.0
 40
84.694279000000009
 50
315.37828500000001
 51
315.47757999999999
  0
ARC
  5
16E
  8
_________1
 62
     7
 10
280.41380400000003
 20
-87.476274000000004
 30
0.0
 40
331.46605099999999
 50
135.083753
 51
135.10880800000001
  0
ARC
  5
16F
  8
_________1
 62
     7
 10
74.151910999999998
 20
118.20087100000001
 30
0.0
 40
40.180871999999987
 50
134.89855299999999
 51
135.101417
  0
ARC
  5
170
  8
_________1
 62
     7
 10
100.305313
 20
91.769924000000003
 30
0.0
 40
77.364021999999991
 50
134.698489
 51
134.80195800000001
  0
ARC
  5
171
  8
_________1
 62
     7
 10
28.227136999999999
 20
164.806714
 30
0.0
 40
25.250278000000002
 50
314.38563700000009
 51
314.69602800000001
  0
ARC
  5
172
  8
_________1
 62
     7
 10
37.727221999999998
 20
155.3955
 30
0.0
 40
11.879244999999999
 50
314.05074400000001
 51
314.69466399999999
  0
ARC
  5
173
  8
_________1
 62
     7
 10
61.860075999999992
 20
130.817431
 30
0.0
 40
22.566148999999999
 50
134.03075899999999
 51
134.361391
  0
ARC
  5
174
  8
_________1
 62
     7
 10
57.417068000000008
 20
135.54167699999999
 30
0.0
 40
16.081733
 50
133.89540400000001
 51
134.348512
  0
ARC
  5
175
  8
_________1
 62
     7
 10
2.0297789999999991
 20
192.785742
 30
0.0
 40
63.571562
 50
314.09605099999999
 51
314.207269
  0
ARC
  5
176
  8
_________1
 62
     7
 10
36.579984000000003
 20
157.483845
 30
0.0
 40
14.176854000000001
 50
313.59336999999999
 51
314.07786400000009
  0
LINE
  5
177
  8
_________1
 62
     7
 10
46.441899999999997
 20
147.29900000000001
 30
0.0
 11
46.525300000000001
 21
147.37899999999999
 31
0.0
  0
ARC
  5
178
  8
_________1
 62
     7
 10
68.659118000000007
 20
124.342828
 30
0.0
 40
31.946656000000001
 50
133.65410900000001
 51
133.855133
  0
ARC
  5
179
  8
_________1
 62
     7
 10
55.204152999999998
 20
138.56169299999999
 30
0.0
 40
12.371275000000001
 50
133.524821
 51
134.02643399999999
  0
ARC
  5
17A
  8
_________1
 62
     7
 10
65.374865999999997
 20
128.03631999999999
 30
0.0
 40
27.007518999999998
 50
133.56786299999999
 51
133.792216
  0
ARC
  5
17B
  8
_________1
 62
     7
 10
39.666941999999999
 20
155.11902499999999
 30
0.0
 40
10.333802
 50
313.35235399999999
 51
313.91980099999989
  0
LINE
  5
17C
  8
_________1
 62
     7
 10
46.835000000000001
 20
147.67500000000001
 30
0.0
 11
46.906599999999997
 21
147.744
 31
0.0
  0
LINE
  5
17D
  8
_________1
 62
     7
 10
46.906599999999997
 20
147.744
 30
0.0
 11
46.975900000000003
 21
147.809
 31
0.0
  0
LINE
  5
17E
  8
_________1
 62
     7
 10
46.975900000000003
 20
147.809
 30
0.0
 11
47.042000000000002
 21
147.87200000000001
 31
0.0
  0
LINE
  5
17F
  8
_________1
 62
     7
 10
47.042000000000002
 20
147.87200000000001
 30
0.0
 11
47.105400000000003
 21
147.93199999999999
 31
0.0
  0
ARC
  5
180
  8
_________1
 62
     7
 10
41.418087
 20
154.01943399999999
 30
0.0
 40
8.3307369999999992
 50
313.05454600000002
 51
313.63449199999991
  0
LINE
  5
181
  8
_________1
 62
     7
 10
47.166800000000002
 20
147.99000000000001
 30
0.0
 11
47.225999999999999
 21
148.04599999999999
 31
0.0
  0
LINE
  5
182
  8
_________1
 62
     7
 10
47.225999999999999
 20
148.04599999999999
 30
0.0
 11
47.282899999999998
 21
148.09999999999999
 31
0.0
  0
LINE
  5
183
  8
_________1
 62
     7
 10
47.282899999999998
 20
148.09999999999999
 30
0.0
 11
47.337299999999999
 21
148.15100000000001
 31
0.0
  0
ARC
  5
184
  8
_________1
 62
     7
 10
69.966138999999984
 20
124.15031399999999
 30
0.0
 40
32.986249999999998
 50
133.190079
 51
133.31496200000001
  0
LINE
  5
185
  8
_________1
 62
     7
 10
47.389699999999998
 20
148.19999999999999
 30
0.0
 11
47.439599999999999
 21
148.24700000000001
 31
0.0
  0
ARC
  5
186
  8
_________1
 62
     7
 10
42.60105699999999
 20
153.43129500000001
 30
0.0
 40
7.0911770000000001
 50
313.026319
 51
313.55406299999999
  0
ARC
  5
187
  8
_________1
 62
     7
 10
44.763306999999998
 20
151.24787499999999
 30
0.0
 40
4.0194119999999991
 50
312.662035
 51
313.556714
  0
ARC
  5
188
  8
_________1
 62
     7
 10
52.076014999999998
 20
143.56823499999999
 30
0.0
 40
6.584954999999999
 50
133.10364799999999
 51
133.62316899999999
  0
ARC
  5
189
  8
_________1
 62
     7
 10
45.872801000000003
 20
150.23395500000001
 30
0.0
 40
2.5207250000000001
 50
312.51856600000002
 51
313.81771800000001
  0
ARC
  5
18A
  8
_________1
 62
     7
 10
50.174371999999991
 20
145.720191
 30
0.0
 40
3.7144879999999989
 50
132.65112199999999
 51
133.487674
  0
ARC
  5
18B
  8
_________1
 62
     7
 10
52.009039000000001
 20
143.83982800000001
 30
0.0
 40
6.3409760000000004
 50
132.86752200000001
 51
133.33222699999999
  0
ARC
  5
18C
  8
_________1
 62
     7
 10
50.013746000000012
 20
146.060937
 30
0.0
 40
3.3560050000000001
 50
132.86553599999999
 51
133.69771800000001
  0
LINE
  5
18D
  8
_________1
 62
     7
 10
47.730699999999992
 20
148.52099999999999
 30
0.0
 11
47.764499999999991
 21
148.55199999999999
 31
0.0
  0
ARC
  5
18E
  8
_________1
 62
     7
 10
46.202134999999998
 20
150.245867
 30
0.0
 40
2.3040590000000001
 50
312.69421999999997
 51
313.77607499999999
  0
LINE
  5
18F
  8
_________1
 62
     7
 10
47.796199999999999
 20
148.58199999999999
 30
0.0
 11
47.826500000000003
 21
148.61000000000001
 31
0.0
  0
LINE
  5
190
  8
_________1
 62
     7
 10
47.826500000000003
 20
148.61000000000001
 30
0.0
 11
47.854700000000001
 21
148.637
 31
0.0
  0
LINE
  5
191
  8
_________1
 62
     7
 10
47.854700000000001
 20
148.637
 30
0.0
 11
47.881300000000003
 21
148.66200000000001
 31
0.0
  0
LINE
  5
192
  8
_________1
 62
     7
 10
47.881300000000003
 20
148.66200000000001
 30
0.0
 11
47.906100000000002
 21
148.685
 31
0.0
  0
LINE
  5
193
  8
_________1
 62
     7
 10
47.906100000000002
 20
148.685
 30
0.0
 11
47.929200000000002
 21
148.70699999999999
 31
0.0
  0
LINE
  5
194
  8
_________1
 62
     7
 10
47.929200000000002
 20
148.70699999999999
 30
0.0
 11
47.950899999999997
 21
148.727
 31
0.0
  0
LINE
  5
195
  8
_________1
 62
     7
 10
47.950899999999997
 20
148.727
 30
0.0
 11
47.970500000000001
 21
148.74600000000001
 31
0.0
  0
LINE
  5
196
  8
_________1
 62
     7
 10
47.970500000000001
 20
148.74600000000001
 30
0.0
 11
47.989100000000001
 21
148.76300000000001
 31
0.0
  0
ARC
  5
197
  8
_________1
 62
     7
 10
48.373740999999988
 20
148.36528000000001
 30
0.0
 40
0.5529810000000001
 50
131.685362
 51
134.072416
  0
ARC
  5
198
  8
_________1
 62
     7
 10
48.376159999999999
 20
148.40562399999999
 30
0.0
 40
0.525242
 50
132.52471
 51
134.810821
  0
ARC
  5
199
  8
_________1
 62
     7
 10
49.721786999999999
 20
146.96801099999999
 30
0.0
 40
2.4943430000000002
 50
132.553212
 51
132.98441
  0
LINE
  5
19A
  8
_________1
 62
     7
 10
48.0349
 20
148.80500000000001
 30
0.0
 11
48.046999999999997
 21
148.81700000000001
 31
0.0
  0
ARC
  5
19B
  8
_________1
 62
     7
 10
47.83101099999999
 20
149.054483
 30
0.0
 40
0.321124
 50
312.26440600000001
 51
314.89507400000002
  0
LINE
  5
19C
  8
_________1
 62
     7
 10
48.05769999999999
 20
148.827
 30
0.0
 11
48.067
 21
148.83600000000001
 31
0.0
  0
LINE
  5
19D
  8
_________1
 62
     7
 10
48.067
 20
148.83600000000001
 30
0.0
 11
48.0749
 21
148.84299999999999
 31
0.0
  0
LINE
  5
19E
  8
_________1
 62
     7
 10
48.0749
 20
148.84299999999999
 30
0.0
 11
48.081099999999999
 21
148.84899999999999
 31
0.0
  0
LINE
  5
19F
  8
_________1
 62
     7
 10
48.081099999999999
 20
148.84899999999999
 30
0.0
 11
48.086300000000001
 21
148.85400000000001
 31
0.0
  0
LINE
  5
1A0
  8
_________1
 62
     7
 10
48.086300000000001
 20
148.85400000000001
 30
0.0
 11
48.089700000000001
 21
148.857
 31
0.0
  0
LINE
  5
1A1
  8
_________1
 62
     7
 10
48.089700000000001
 20
148.857
 30
0.0
 11
48.091799999999999
 21
148.85900000000001
 31
0.0
  0
LINE
  5
1A2
  8
_________1
 62
     7
 10
48.091799999999999
 20
148.85900000000001
 30
0.0
 11
48.092500000000001
 21
148.85900000000001
 31
0.0
  0
ENDBLK
  5
1A3
  8
_________1
  0
BLOCK
  8
_________1
  2
AIGNBL02010017
 70
     0
 10
0.0
 20
0.0
 30
0.0
  3
AIGNBL02010017
  1

  0
LINE
  5
1A6
  8
_________1
 62
     7
 10
47.692500000000003
 20
139.86199999999999
 30
0.0
 11
47.692100000000003
 21
139.863
 31
0.0
  0
LINE
  5
1A7
  8
_________1
 62
     7
 10
47.692100000000003
 20
139.863
 30
0.0
 11
47.690100000000001
 21
139.86500000000001
 31
0.0
  0
ARC
  5
1A8
  8
_________1
 62
     7
 10
47.739247999999989
 20
139.912766
 30
0.0
 40
0.068288
 50
220.04243500000001
 51
223.93202000000011
  0
ARC
  5
1A9
  8
_________1
 62
     7
 10
47.583565
 20
139.780632
 30
0.0
 40
0.13591
 50
40.463535
 51
43.292194999999992
  0
ARC
  5
1AA
  8
_________1
 62
     7
 10
47.765058000000003
 20
139.953598
 30
0.0
 40
0.114807
 50
219.62794
 51
224.01242999999999
  0
ARC
  5
1AB
  8
_________1
 62
     7
 10
47.787548000000001
 20
139.98590200000001
 30
0.0
 40
0.153096
 50
219.692487
 51
223.57462200000001
  0
ARC
  5
1AC
  8
_________1
 62
     7
 10
47.90925399999999
 20
140.11451500000001
 30
0.0
 40
0.329572
 50
221.16066599999999
 51
223.386742
  0
LINE
  5
1AD
  8
_________1
 62
     7
 10
47.661099999999998
 20
139.898
 30
0.0
 11
47.651499999999999
 21
139.90799999999999
 31
0.0
  0
LINE
  5
1AE
  8
_________1
 62
     7
 10
47.651499999999999
 20
139.90799999999999
 30
0.0
 11
47.640500000000003
 21
139.92099999999999
 31
0.0
  0
LINE
  5
1AF
  8
_________1
 62
     7
 10
47.640500000000003
 20
139.92099999999999
 30
0.0
 11
47.628100000000003
 21
139.935
 31
0.0
  0
ARC
  5
1B0
  8
_________1
 62
     7
 10
48.027794
 20
140.30780799999999
 30
0.0
 40
0.546853
 50
220.871678
 51
223.03160199999999
  0
LINE
  5
1B1
  8
_________1
 62
     7
 10
47.614299999999993
 20
139.94999999999999
 30
0.0
 11
47.59879999999999
 21
139.96700000000001
 31
0.0
  0
ARC
  5
1B2
  8
_________1
 62
     7
 10
48.606009
 20
140.88734099999999
 30
0.0
 40
1.3643739999999991
 50
221.37840700000001
 51
222.418295
  0
LINE
  5
1B3
  8
_________1
 62
     7
 10
47.5822
 20
139.98500000000001
 30
0.0
 11
47.564300000000003
 21
140.006
 31
0.0
  0
ARC
  5
1B4
  8
_________1
 62
     7
 10
48.649591000000001
 20
140.98971299999999
 30
0.0
 40
1.465017999999999
 50
221.06569300000001
 51
222.20141599999999
  0
ARC
  5
1B5
  8
_________1
 62
     7
 10
48.25593099999999
 20
140.69087500000001
 30
0.0
 40
0.9724719999999999
 50
221.180871
 51
223.027635
  0
ARC
  5
1B6
  8
_________1
 62
     7
 10
49.387971999999991
 20
141.7327949999999
 30
0.0
 40
2.5108250000000001
 50
221.29801800000001
 51
222.06645099999989
  0
ARC
  5
1B7
  8
_________1
 62
     7
 10
48.528168999999998
 20
141.02123
 30
0.0
 40
1.395637
 50
221.16479000000001
 51
222.64712499999999
  0
ARC
  5
1B8
  8
_________1
 62
     7
 10
48.949258999999998
 20
141.44041200000001
 30
0.0
 40
1.988929999999999
 50
221.16733600000001
 51
222.27093300000001
  0
LINE
  5
1B9
  8
_________1
 62
     7
 10
47.451999999999991
 20
140.131
 30
0.0
 11
47.424500000000002
 21
140.161
 31
0.0
  0
ARC
  5
1BA
  8
_________1
 62
     7
 10
59.877596999999987
 20
151.244957
 30
0.0
 40
16.671052
 50
221.52148
 51
221.66951399999999
  0
LINE
  5
1BB
  8
_________1
 62
     7
 10
47.39589999999999
 20
140.19399999999999
 30
0.0
 11
47.365200000000002
 21
140.22800000000001
 31
0.0
  0
ARC
  5
1BC
  8
_________1
 62
     7
 10
40.484414000000001
 20
134.136505
 30
0.0
 40
9.1896240000000002
 50
41.517308
 51
41.817788999999998
  0
LINE
  5
1BD
  8
_________1
 62
     7
 10
47.333199999999991
 20
140.26400000000001
 30
0.0
 11
47.298999999999992
 21
140.30199999999999
 31
0.0
  0
LINE
  5
1BE
  8
_________1
 62
     7
 10
47.298999999999992
 20
140.30199999999999
 30
0.0
 11
47.26359999999999
 21
140.34200000000001
 31
0.0
  0
ARC
  5
1BF
  8
_________1
 62
     7
 10
49.87173099999999
 20
142.719458
 30
0.0
 40
3.5292449999999991
 50
221.43943900000011
 51
222.35238000000001
  0
ARC
  5
1C0
  8
_________1
 62
     7
 10
42.483975999999991
 20
136.19986700000001
 30
0.0
 40
6.3238760000000003
 50
41.421543
 51
41.956563999999993
  0
ARC
  5
1C1
  8
_________1
 62
     7
 10
40.27879999999999
 20
134.28318300000001
 30
0.0
 40
9.2453199999999995
 50
41.653129999999997
 51
42.037174999999991
  0
ARC
  5
1C2
  8
_________1
 62
     7
 10
44.4375
 20
138.1081659999999
 30
0.0
 40
3.5957910000000002
 50
41.142662000000001
 51
42.175010999999991
  0
LINE
  5
1C3
  8
_________1
 62
     7
 10
47.1023
 20
140.52199999999999
 30
0.0
 11
47.057200000000002
 21
140.57300000000001
 31
0.0
  0
ARC
  5
1C4
  8
_________1
 62
     7
 10
43.304550999999996
 20
137.27124699999999
 30
0.0
 40
4.9984049999999991
 50
41.342911000000001
 51
42.155421999999987
  0
ARC
  5
1C5
  8
_________1
 62
     7
 10
42.548421999999988
 20
136.712738
 30
0.0
 40
5.93452
 50
41.253315000000001
 51
41.969561999999989
  0
LINE
  5
1C6
  8
_________1
 62
     7
 10
46.960700000000003
 20
140.68100000000001
 30
0.0
 11
46.909399999999998
 21
140.739
 31
0.0
  0
ARC
  5
1C7
  8
_________1
 62
     7
 10
55.184690000000003
 20
148.14372700000001
 30
0.0
 40
11.104241999999999
 50
221.405721
 51
221.820616
  0
LINE
  5
1C8
  8
_________1
 62
     7
 10
46.855999999999987
 20
140.80000000000001
 30
0.0
 11
46.8005
 21
140.86199999999999
 31
0.0
  0
ARC
  5
1C9
  8
_________1
 62
     7
 10
39.858134999999997
 20
134.78935200000001
 30
0.0
 40
9.2233710000000002
 50
41.175443999999992
 51
41.712184000000001
  0
LINE
  5
1CA
  8
_________1
 62
     7
 10
46.743399999999987
 20
140.92599999999999
 30
0.0
 11
46.683799999999991
 21
140.994
 31
0.0
  0
LINE
  5
1CB
  8
_________1
 62
     7
 10
46.683799999999991
 20
140.994
 30
0.0
 11
46.62169999999999
 21
141.06399999999999
 31
0.0
  0
ARC
  5
1CC
  8
_________1
 62
     7
 10
60.089387000000002
 20
153.01632900000001
 30
0.0
 40
18.00647
 50
221.276858
 51
221.58829499999999
  0
LINE
  5
1CD
  8
_________1
 62
     7
 10
46.556999999999988
 20
141.137
 30
0.0
 11
46.489800000000002
 21
141.21299999999999
 31
0.0
  0
LINE
  5
1CE
  8
_________1
 62
     7
 10
46.489800000000002
 20
141.21299999999999
 30
0.0
 11
46.420900000000003
 21
141.292
 31
0.0
  0
LINE
  5
1CF
  8
_________1
 62
     7
 10
46.420900000000003
 20
141.292
 30
0.0
 11
46.349899999999998
 21
141.37299999999999
 31
0.0
  0
LINE
  5
1D0
  8
_________1
 62
     7
 10
46.349899999999998
 20
141.37299999999999
 30
0.0
 11
46.277200000000001
 21
141.45599999999999
 31
0.0
  0
ARC
  5
1D1
  8
_________1
 62
     7
 10
36.323446999999987
 20
132.83452399999999
 30
0.0
 40
13.168317
 50
40.896926999999998
 51
41.393574000000001
  0
LINE
  5
1D2
  8
_________1
 62
     7
 10
46.202100000000002
 20
141.542
 30
0.0
 11
46.124999999999993
 21
141.631
 31
0.0
  0
LINE
  5
1D3
  8
_________1
 62
     7
 10
46.124999999999993
 20
141.631
 30
0.0
 11
46.044699999999999
 21
141.7229999999999
 31
0.0
  0
LINE
  5
1D4
  8
_________1
 62
     7
 10
46.044699999999999
 20
141.7229999999999
 30
0.0
 11
45.962699999999991
 21
141.8179999999999
 31
0.0
  0
ARC
  5
1D5
  8
_________1
 62
     7
 10
69.627867000000009
 20
162.31844699999999
 30
0.0
 40
31.31006
 50
220.66533799999999
 51
220.90180000000001
  0
ARC
  5
1D6
  8
_________1
 62
     7
 10
15.353865000000001
 20
115.733816
 30
0.0
 40
40.214731
 50
40.620733999999999
 51
40.808855999999999
  0
ARC
  5
1D7
  8
_________1
 62
     7
 10
33.717849000000001
 20
131.83002300000001
 30
0.0
 40
15.796709
 50
40.150282999999988
 51
40.640042000000001
  0
ARC
  5
1D8
  8
_________1
 62
     7
 10
57.093408999999987
 20
151.88598300000001
 30
0.0
 40
15.003590000000001
 50
220.08954
 51
220.61781999999999
  0
ARC
  5
1D9
  8
_________1
 62
     7
 10
78.951532
 20
170.43383800000001
 30
0.0
 40
43.670574999999999
 50
220.053449
 51
220.238529
  0
LINE
  5
1DA
  8
_________1
 62
     7
 10
45.524099999999997
 20
142.33199999999999
 30
0.0
 11
45.432099999999998
 21
142.44200000000001
 31
0.0
  0
ARC
  5
1DB
  8
_________1
 62
     7
 10
263.089159
 20
323.08145999999999
 30
0.0
 40
282.85200800000001
 50
219.660731
 51
219.69024400000009
  0
LINE
  5
1DC
  8
_________1
 62
     7
 10
45.339100000000002
 20
142.554
 30
0.0
 11
45.245800000000003
 21
142.66800000000001
 31
0.0
  0
ARC
  5
1DD
  8
_________1
 62
     7
 10
102.71728299999999
 20
189.22179299999999
 30
0.0
 40
73.961239000000006
 50
218.89419799999999
 51
219.00881999999999
  0
ARC
  5
1DE
  8
_________1
 62
     7
 10
199.01890399999999
 20
265.87780800000002
 30
0.0
 40
197.04618500000001
 50
218.61748
 51
218.660315
  0
ARC
  5
1DF
  8
_________1
 62
     7
 10
62.955249000000002
 20
156.949634
 30
0.0
 40
22.752306999999998
 50
217.77588299999999
 51
218.14119400000001
  0
ARC
  5
1E0
  8
_________1
 62
     7
 10
53.919131999999998
 20
149.973502
 30
0.0
 40
11.336664000000001
 50
217.168736
 51
217.883364
  0
ARC
  5
1E1
  8
_________1
 62
     7
 10
53.321779999999997
 20
149.533683
 30
0.0
 40
10.594941
 50
216.485839
 51
217.225109
  0
ARC
  5
1E2
  8
_________1
 62
     7
 10
52.818816000000012
 20
149.14071200000001
 30
0.0
 40
9.9568999999999992
 50
215.64363499999999
 51
216.38872799999999
  0
ARC
  5
1E3
  8
_________1
 62
     7
 10
50.727934000000012
 20
147.65048400000001
 30
0.0
 40
7.3893139999999988
 50
214.76566299999999
 51
215.70101
  0
ARC
  5
1E4
  8
_________1
 62
     7
 10
49.758196000000012
 20
146.97462899999999
 30
0.0
 40
6.2072969999999996
 50
213.72181900000001
 51
214.74495999999999
  0
ARC
  5
1E5
  8
_________1
 62
     7
 10
51.857433
 20
148.33236099999999
 30
0.0
 40
8.7071570000000005
 50
212.81661099999999
 51
213.48406299999999
  0
ARC
  5
1E6
  8
_________1
 62
     7
 10
49.718198999999991
 20
146.90015600000001
 30
0.0
 40
6.133297999999999
 50
211.53987900000001
 51
212.4029810000001
  0
ARC
  5
1E7
  8
_________1
 62
     7
 10
46.667254999999997
 20
145.03629900000001
 30
0.0
 40
2.5580940000000001
 50
209.81980899999999
 51
211.7056629999999
  0
ARC
  5
1E8
  8
_________1
 62
     7
 10
47.868347999999997
 20
145.73984899999999
 30
0.0
 40
3.9500329999999999
 50
208.90250800000001
 51
210.010167
  0
ARC
  5
1E9
  8
_________1
 62
     7
 10
46.785119999999999
 20
145.144057
 30
0.0
 40
2.7137699999999998
 50
207.46652
 51
208.94397499999991
  0
ARC
  5
1EA
  8
_________1
 62
     7
 10
46.235988999999996
 20
144.86063999999999
 30
0.0
 40
2.0958169999999989
 50
205.750991
 51
207.51588899999999
  0
ARC
  5
1EB
  8
_________1
 62
     7
 10
48.017350999999998
 20
145.712502
 30
0.0
 40
4.0703789999999991
 50
204.81542899999999
 51
205.6571330000001
  0
ARC
  5
1EC
  8
_________1
 62
     7
 10
45.385855999999997
 20
144.50146799999999
 30
0.0
 40
1.17361
 50
202.35109199999999
 51
205.070066
  0
ARC
  5
1ED
  8
_________1
 62
     7
 10
46.867004999999992
 20
145.117017
 30
0.0
 40
2.777569999999999
 50
201.41093100000001
 51
202.4759159999999
  0
ARC
  5
1EE
  8
_________1
 62
     7
 10
47.371360999999993
 20
145.30838600000001
 30
0.0
 40
3.316983
 50
200.47362699999999
 51
201.30805699999999
  0
ARC
  5
1EF
  8
_________1
 62
     7
 10
52.141533000000003
 20
146.80856399999999
 30
0.0
 40
8.3147289999999998
 50
198.34633199999999
 51
198.66050899999999
  0
ARC
  5
1F0
  8
_________1
 62
     7
 10
45.415653999999989
 20
144.57222899999999
 30
0.0
 40
1.226821999999999
 50
196.05520799999999
 51
198.08344899999989
  0
ARC
  5
1F1
  8
_________1
 62
     7
 10
45.02599
 20
144.47907799999999
 30
0.0
 40
0.826795
 50
194.44036
 51
197.319953
  0
LINE
  5
1F2
  8
_________1
 62
     7
 10
44.225299999999997
 20
144.273
 30
0.0
 11
44.216000000000001
 21
144.31100000000001
 31
0.0
  0
ARC
  5
1F3
  8
_________1
 62
     7
 10
46.384818000000003
 20
144.78873300000001
 30
0.0
 40
2.2206939999999991
 50
191.42005800000001
 51
192.41027299999999
  0
ARC
  5
1F4
  8
_________1
 62
     7
 10
45.337269999999997
 20
144.57028099999999
 30
0.0
 40
1.150652
 50
189.23837399999991
 51
191.08582999999999
  0
LINE
  5
1F5
  8
_________1
 62
     7
 10
44.201500000000003
 20
144.386
 30
0.0
 11
44.196399999999997
 21
144.42099999999999
 31
0.0
  0
ARC
  5
1F6
  8
_________1
 62
     7
 10
46.031240999999987
 20
144.636155
 30
0.0
 40
1.847391999999999
 50
185.57464100000001
 51
186.676141
  0
ARC
  5
1F7
  8
_________1
 62
     7
 10
7.4573289999999988
 20
141.21700300000001
 30
0.0
 40
36.877836000000002
 50
5.0398899999999989
 51
5.0944320000000003
  0
ARC
  5
1F8
  8
_________1
 62
     7
 10
45.112229999999997
 20
144.54563300000001
 30
0.0
 40
0.9243219999999999
 50
181.18862799999999
 51
183.34732099999999
  0
ARC
  5
1F9
  8
_________1
 62
     7
 10
44.648740999999987
 20
144.552944
 30
0.0
 40
0.461394
 50
178.98935
 51
183.29077799999999
  0
ARC
  5
1FA
  8
_________1
 62
     7
 10
45.736809000000001
 20
144.562816
 30
0.0
 40
1.5493909999999991
 50
178.79000199999999
 51
180.06412
  0
ARC
  5
1FB
  8
_________1
 62
     7
 10
45.155538999999997
 20
144.56474
 30
0.0
 40
0.968266
 50
176.12607399999999
 51
178.17751100000001
  0
ARC
  5
1FC
  8
_________1
 62
     7
 10
44.773401999999997
 20
144.595316
 30
0.0
 40
0.584955
 50
173.17996299999999
 51
176.58536899999999
  0
ARC
  5
1FD
  8
_________1
 62
     7
 10
45.178764999999999
 20
144.57620199999999
 30
0.0
 40
0.990149
 50
172.82215500000001
 51
174.86747
  0
ARC
  5
1FE
  8
_________1
 62
     7
 10
44.862408000000002
 20
144.6210439999999
 30
0.0
 40
0.6706870000000001
 50
170.18231
 51
173.246058
  0
ARC
  5
1FF
  8
_________1
 62
     7
 10
45.915303999999992
 20
144.447068
 30
0.0
 40
1.7378469999999999
 50
169.22630000000001
 51
170.44949600000001
  0
ARC
  5
200
  8
_________1
 62
     7
 10
45.284574999999997
 20
144.56438700000001
 30
0.0
 40
1.0963080000000001
 50
167.08190099999999
 51
169.08776700000001
  0
ARC
  5
201
  8
_________1
 62
     7
 10
45.025390000000002
 20
144.63571999999999
 30
0.0
 40
0.8278169999999999
 50
165.124763
 51
167.883734
  0
ARC
  5
202
  8
_________1
 62
     7
 10
45.460425000000001
 20
144.53055699999999
 30
0.0
 40
1.2753099999999991
 50
163.705859
 51
165.575898
  0
ARC
  5
203
  8
_________1
 62
     7
 10
45.415089999999999
 20
144.54268200000001
 30
0.0
 40
1.2283939999999991
 50
161.609656
 51
163.65540899999999
  0
ARC
  5
204
  8
_________1
 62
     7
 10
45.282865999999999
 20
144.60986399999999
 30
0.0
 40
1.081952
 50
160.35340299999999
 51
162.77666400000001
  0
ARC
  5
205
  8
_________1
 62
     7
 10
45.881461999999992
 20
144.38451900000001
 30
0.0
 40
1.7214999999999989
 50
158.37518299999999
 51
159.98835800000001
  0
ARC
  5
206
  8
_________1
 62
     7
 10
45.760933000000001
 20
144.441596
 30
0.0
 40
1.5884439999999991
 50
156.847612
 51
158.686879
  0
ARC
  5
207
  8
_________1
 62
     7
 10
45.350482999999997
 20
144.63581600000001
 30
0.0
 40
1.1348180000000001
 50
154.942905
 51
157.71598399999999
  0
ARC
  5
208
  8
_________1
 62
     7
 10
45.506
 20
144.597195
 30
0.0
 40
1.292424
 50
153.67427000000001
 51
156.31195299999999
  0
ARC
  5
209
  8
_________1
 62
     7
 10
48.097729999999991
 20
143.326303
 30
0.0
 40
4.1789789999999991
 50
152.91953699999999
 51
153.81519499999999
  0
ARC
  5
20A
  8
_________1
 62
     7
 10
48.687629999999999
 20
142.96513400000001
 30
0.0
 40
4.8689150000000003
 50
151.461206
 51
152.295523
  0
ARC
  5
20B
  8
_________1
 62
     7
 10
47.199638999999998
 20
143.749717
 30
0.0
 40
3.18696
 50
149.6935
 51
151.07213200000001
  0
ARC
  5
20C
  8
_________1
 62
     7
 10
46.979234999999989
 20
143.905925
 30
0.0
 40
2.9179459999999988
 50
148.52584100000001
 51
150.15765400000001
  0
ARC
  5
20D
  8
_________1
 62
     7
 10
47.570948999999999
 20
143.56169
 30
0.0
 40
3.6023669999999992
 50
147.31037599999999
 51
148.77002400000001
  0
ARC
  5
20E
  8
_________1
 62
     7
 10
50.770610999999988
 20
141.497827
 30
0.0
 40
7.409902999999999
 50
146.45751000000001
 51
147.241815
  0
ARC
  5
20F
  8
_________1
 62
     7
 10
49.359355000000001
 20
142.417821
 30
0.0
 40
5.7253210000000001
 50
145.211893
 51
146.327383
  0
ARC
  5
210
  8
_________1
 62
     7
 10
48.852311
 20
142.79531700000001
 30
0.0
 40
5.0935680000000003
 50
144.08819500000001
 51
145.445132
  0
ARC
  5
211
  8
_________1
 62
     7
 10
67.735672999999991
 20
129.18414300000001
 30
0.0
 40
28.371130999999998
 50
143.93211299999999
 51
144.192913
  0
ARC
  5
212
  8
_________1
 62
     7
 10
73.664265
 20
124.303915
 30
0.0
 40
36.039397000000001
 50
142.99262300000001
 51
143.209734
  0
ARC
  5
213
  8
_________1
 62
     7
 10
56.665218999999993
 20
137.043646
 30
0.0
 40
14.796516
 50
142.21575100000001
 51
142.76567600000001
  0
ARC
  5
214
  8
_________1
 62
     7
 10
54.838514000000004
 20
138.474153
 30
0.0
 40
12.476376
 50
141.60074900000001
 51
142.26791800000001
  0
ARC
  5
215
  8
_________1
 62
     7
 10
111.847115
 20
93.088332999999992
 30
0.0
 40
85.345090999999996
 50
141.39507599999999
 51
141.494156
  0
LINE
  5
216
  8
_________1
 62
     7
 10
45.152700000000003
 20
146.339
 30
0.0
 11
45.245800000000003
 21
146.45400000000001
 31
0.0
  0
ARC
  5
217
  8
_________1
 62
     7
 10
56.924995999999993
 20
136.95804999999999
 30
0.0
 40
15.052497000000001
 50
140.32674700000001
 51
140.88671299999999
  0
ARC
  5
218
  8
_________1
 62
     7
 10
100.047698
 20
101.35158199999999
 30
0.0
 40
70.975522999999995
 50
140.30886000000001
 51
140.426582
  0
LINE
  5
219
  8
_________1
 62
     7
 10
45.432099999999998
 20
146.68000000000001
 30
0.0
 11
45.524099999999997
 21
146.78999999999999
 31
0.0
  0
ARC
  5
21A
  8
_________1
 62
     7
 10
145.980738
 20
62.152166999999999
 30
0.0
 40
131.35869400000001
 50
139.82324600000001
 51
139.88477599999999
  0
ARC
  5
21B
  8
_________1
 62
     7
 10
90.697824999999995
 20
108.74557799999999
 30
0.0
 40
59.059753000000001
 50
139.62530599999999
 51
139.759638
  0
ARC
  5
21C
  8
_________1
 62
     7
 10
74.403122999999994
 20
122.534997
 30
0.0
 40
37.713524999999997
 50
139.34358499999999
 51
139.548866
  0
ARC
  5
21D
  8
_________1
 62
     7
 10
102.901757
 20
98.242175000000003
 30
0.0
 40
75.160871999999998
 50
139.34844899999999
 51
139.44893099999999
  0
LINE
  5
21E
  8
_________1
 62
     7
 10
45.878300000000003
 20
147.20599999999999
 30
0.0
 11
45.962699999999991
 21
147.304
 31
0.0
  0
ARC
  5
21F
  8
_________1
 62
     7
 10
61.520757999999987
 20
133.99507299999999
 30
0.0
 40
20.473855
 50
139.10358299999999
 51
139.45531399999999
  0
LINE
  5
220
  8
_________1
 62
     7
 10
46.044699999999999
 20
147.399
 30
0.0
 11
46.124999999999993
 21
147.49100000000001
 31
0.0
  0
ARC
  5
221
  8
_________1
 62
     7
 10
91.253171999999992
 20
108.289708
 30
0.0
 40
59.777279000000007
 50
138.90688900000001
 51
139.02005399999999
  0
LINE
  5
222
  8
_________1
 62
     7
 10
46.202500000000001
 20
147.58000000000001
 30
0.0
 11
46.2776
 21
147.666
 31
0.0
  0
ARC
  5
223
  8
_________1
 62
     7
 10
76.652507
 20
121.09036999999999
 30
0.0
 40
40.359752999999998
 50
138.66001199999999
 51
138.816487
  0
ARC
  5
224
  8
_________1
 62
     7
 10
56.344297999999988
 20
139.08349699999999
 30
0.0
 40
13.2277
 50
138.607618
 51
139.07241500000001
  0
LINE
  5
225
  8
_________1
 62
     7
 10
46.420900000000003
 20
147.83000000000001
 30
0.0
 11
46.489800000000002
 21
147.90799999999999
 31
0.0
  0
LINE
  5
226
  8
_________1
 62
     7
 10
46.489800000000002
 20
147.90799999999999
 30
0.0
 11
46.556999999999988
 21
147.98400000000001
 31
0.0
  0
ARC
  5
227
  8
_________1
 62
     7
 10
53.879930000000002
 20
141.58614
 30
0.0
 40
9.7243240000000011
 50
138.27907999999999
 51
138.85576699999999
  0
LINE
  5
228
  8
_________1
 62
     7
 10
46.62169999999999
 20
148.05799999999999
 30
0.0
 11
46.683799999999991
 21
148.12799999999999
 31
0.0
  0
LINE
  5
229
  8
_________1
 62
     7
 10
46.683799999999991
 20
148.12799999999999
 30
0.0
 11
46.74369999999999
 21
148.196
 31
0.0
  0
ARC
  5
22A
  8
_________1
 62
     7
 10
58.815364000000002
 20
137.56567200000001
 30
0.0
 40
16.084733
 50
138.32678799999999
 51
138.634107
  0
ARC
  5
22B
  8
_________1
 62
     7
 10
54.217747000000003
 20
141.75930399999999
 30
0.0
 40
9.8625690000000006
 50
138.282262
 51
138.76576499999999
  0
ARC
  5
22C
  8
_________1
 62
     7
 10
40.681913999999992
 20
153.86038600000001
 30
0.0
 40
8.2938550000000006
 50
318.10910999999999
 51
318.66459400000002
  0
LINE
  5
22D
  8
_________1
 62
     7
 10
46.909399999999998
 20
148.38300000000001
 30
0.0
 11
46.960700000000003
 21
148.44
 31
0.0
  0
ARC
  5
22E
  8
_________1
 62
     7
 10
26.220012000000001
 20
166.91178300000001
 30
0.0
 40
27.773620000000001
 50
318.31204000000002
 51
318.46508299999999
  0
LINE
  5
22F
  8
_________1
 62
     7
 10
47.009999999999991
 20
148.49600000000001
 30
0.0
 11
47.057200000000002
 21
148.54900000000001
 31
0.0
  0
LINE
  5
230
  8
_________1
 62
     7
 10
47.057200000000002
 20
148.54900000000001
 30
0.0
 11
47.1023
 21
148.59899999999999
 31
0.0
  0
ARC
  5
231
  8
_________1
 62
     7
 10
43.185241999999988
 20
152.14019200000001
 30
0.0
 40
5.2801949999999991
 50
317.888893
 51
318.59051699999998
  0
LINE
  5
232
  8
_________1
 62
     7
 10
47.145400000000002
 20
148.648
 30
0.0
 11
47.186700000000002
 21
148.69399999999999
 31
0.0
  0
ARC
  5
233
  8
_________1
 62
     7
 10
35.340144000000002
 20
159.28442799999999
 30
0.0
 40
15.890204000000001
 50
318.20448399999998
 51
318.41740800000002
  0
LINE
  5
234
  8
_________1
 62
     7
 10
47.225999999999999
 20
148.738
 30
0.0
 11
47.26359999999999
 21
148.78
 31
0.0
  0
LINE
  5
235
  8
_________1
 62
     7
 10
47.26359999999999
 20
148.78
 30
0.0
 11
47.299399999999999
 21
148.81999999999999
 31
0.0
  0
LINE
  5
236
  8
_________1
 62
     7
 10
47.299399999999999
 20
148.81999999999999
 30
0.0
 11
47.333199999999991
 21
148.858
 31
0.0
  0
LINE
  5
237
  8
_________1
 62
     7
 10
47.333199999999991
 20
148.858
 30
0.0
 11
47.365200000000002
 21
148.89400000000001
 31
0.0
  0
ARC
  5
238
  8
_________1
 62
     7
 10
44.601471999999987
 20
151.40940000000001
 30
0.0
 40
3.737026999999999
 50
317.69319899999999
 51
318.396367
  0
ARC
  5
239
  8
_________1
 62
     7
 10
45.716583
 20
150.44760199999999
 30
0.0
 40
2.264686999999999
 50
317.85965399999998
 51
318.94939199999999
  0
LINE
  5
23A
  8
_________1
 62
     7
 10
47.424500000000002
 20
148.96000000000001
 30
0.0
 11
47.451999999999991
 21
148.99100000000001
 31
0.0
  0
ARC
  5
23B
  8
_________1
 62
     7
 10
48.872303999999993
 20
147.7500189999999
 30
0.0
 40
1.885834999999999
 50
137.69890000000001
 51
138.862831
  0
ARC
  5
23C
  8
_________1
 62
     7
 10
49.530152000000001
 20
147.20137500000001
 30
0.0
 40
2.7418939999999989
 50
137.716793
 51
138.471293
  0
ARC
  5
23D
  8
_________1
 62
     7
 10
48.521512999999999
 20
148.15424899999999
 30
0.0
 40
1.35484
 50
137.412779
 51
138.83145200000001
  0
ARC
  5
23E
  8
_________1
 62
     7
 10
48.29677199999999
 20
148.39901599999999
 30
0.0
 40
1.0241249999999991
 50
137.22562400000001
 51
138.9864
  0
ARC
  5
23F
  8
_________1
 62
     7
 10
48.184438
 20
148.54557600000001
 30
0.0
 40
0.8427189999999999
 50
137.3792169999999
 51
139.35367400000001
  0
LINE
  5
240
  8
_________1
 62
     7
 10
47.564300000000003
 20
149.11600000000001
 30
0.0
 11
47.5822
 21
149.136
 31
0.0
  0
LINE
  5
241
  8
_________1
 62
     7
 10
47.5822
 20
149.136
 30
0.0
 11
47.59879999999999
 21
149.155
 31
0.0
  0
ARC
  5
242
  8
_________1
 62
     7
 10
48.961326
 20
147.919037
 30
0.0
 40
1.8394740000000001
 50
137.07968
 51
137.793587
  0
LINE
  5
243
  8
_________1
 62
     7
 10
47.614299999999993
 20
149.172
 30
0.0
 11
47.628100000000003
 21
149.18700000000001
 31
0.0
  0
LINE
  5
244
  8
_________1
 62
     7
 10
47.628100000000003
 20
149.18700000000001
 30
0.0
 11
47.640500000000003
 21
149.20099999999999
 31
0.0
  0
ARC
  5
245
  8
_________1
 62
     7
 10
47.346905
 20
149.47683499999999
 30
0.0
 40
0.40272
 50
316.79686500000003
 51
319.139613
  0
LINE
  5
246
  8
_________1
 62
     7
 10
47.651499999999999
 20
149.21299999999999
 30
0.0
 11
47.661099999999998
 21
149.22399999999999
 31
0.0
  0
LINE
  5
247
  8
_________1
 62
     7
 10
47.661099999999998
 20
149.22399999999999
 30
0.0
 11
47.669699999999992
 21
149.23400000000001
 31
0.0
  0
ARC
  5
248
  8
_________1
 62
     7
 10
47.779814000000002
 20
149.144766
 30
0.0
 40
0.141398
 50
136.86294799999999
 51
141.11884800000001
  0
ARC
  5
249
  8
_________1
 62
     7
 10
47.751999999999988
 20
149.178068
 30
0.0
 40
0.098473
 50
134.900543
 51
139.938445
  0
ARC
  5
24A
  8
_________1
 62
     7
 10
47.828218999999997
 20
149.12167199999999
 30
0.0
 40
0.192744
 50
137.12487400000001
 51
139.11935700000001
  0
LINE
  5
24B
  8
_________1
 62
     7
 10
47.686999999999991
 20
149.25299999999999
 30
0.0
 11
47.690100000000001
 21
149.256
 31
0.0
  0
LINE
  5
24C
  8
_________1
 62
     7
 10
47.690100000000001
 20
149.256
 30
0.0
 11
47.692100000000003
 21
149.25800000000001
 31
0.0
  0
LINE
  5
24D
  8
_________1
 62
     7
 10
47.692100000000003
 20
149.25800000000001
 30
0.0
 11
47.692500000000003
 21
149.25899999999999
 31
0.0
  0
ENDBLK
  5
24E
  8
_________1
  0
BLOCK
  8
_________1
  2
AIGNBL02010018
 70
     0
 10
0.0
 20
0.0
 30
0.0
  3
AIGNBL02010018
  1

  0
LINE
  5
251
  8
_________1
 62
     7
 10
38.892600000000002
 20
151.50299999999999
 30
0.0
 11
38.893000000000001
 21
151.505
 31
0.0
  0
ARC
  5
252
  8
_________1
 62
     7
 10
38.924596000000001
 20
151.50295600000001
 30
0.0
 40
0.031673
 50
167.684584
 51
177.126091
  0
LINE
  5
253
  8
_________1
 62
     7
 10
38.893700000000003
 20
151.50999999999999
 30
0.0
 11
38.895000000000003
 21
151.518
 31
0.0
  0
ARC
  5
254
  8
_________1
 62
     7
 10
39.023800999999999
 20
151.50608
 30
0.0
 40
0.129352
 50
169.17127500000001
 51
174.56848199999999
  0
LINE
  5
255
  8
_________1
 62
     7
 10
38.896799999999999
 20
151.53
 30
0.0
 11
38.898800000000001
 21
151.54599999999999
 31
0.0
  0
LINE
  5
256
  8
_________1
 62
     7
 10
38.898800000000001
 20
151.54599999999999
 30
0.0
 11
38.901200000000003
 21
151.56399999999999
 31
0.0
  0
ARC
  5
257
  8
_________1
 62
     7
 10
38.315505999999999
 20
151.64937699999999
 30
0.0
 40
0.5919180000000001
 50
351.70413300000001
 51
353.822025
  0
ARC
  5
258
  8
_________1
 62
     7
 10
37.441389000000001
 20
151.783503
 30
0.0
 40
1.475914999999999
 50
352.297099
 51
353.25427100000002
  0
ARC
  5
259
  8
_________1
 62
     7
 10
38.317585999999999
 20
151.69782000000001
 30
0.0
 40
0.595987
 50
351.53975400000002
 51
354.21021500000001
  0
ARC
  5
25A
  8
_________1
 62
     7
 10
38.197170999999997
 20
151.733743
 30
0.0
 40
0.7197980000000001
 50
352.33196099999998
 51
354.77453000000003
  0
ARC
  5
25B
  8
_________1
 62
     7
 10
38.007209000000003
 20
151.778954
 30
0.0
 40
0.9135089999999999
 50
353.035506
 51
355.131957
  0
ARC
  5
25C
  8
_________1
 62
     7
 10
37.175856000000003
 20
151.90537
 30
0.0
 40
1.753466999999999
 50
353.32108799999997
 51
354.48719
  0
ARC
  5
25D
  8
_________1
 62
     7
 10
41.171446000000003
 20
151.55043599999999
 30
0.0
 40
2.2579470000000001
 50
174.30133900000001
 51
175.26258799999999
  0
LINE
  5
25E
  8
_________1
 62
     7
 10
38.924700000000001
 20
151.77500000000001
 30
0.0
 11
38.927799999999998
 21
151.81399999999999
 31
0.0
  0
ARC
  5
25F
  8
_________1
 62
     7
 10
83.529134999999997
 20
148.50390899999999
 30
0.0
 40
44.724057000000002
 50
175.70189300000001
 51
175.755224
  0
ARC
  5
260
  8
_________1
 62
     7
 10
35.521176000000011
 20
152.09561299999999
 30
0.0
 40
3.418107
 50
355.97639600000002
 51
356.69973399999998
  0
ARC
  5
261
  8
_________1
 62
     7
 10
41.609481999999993
 20
151.77592200000001
 30
0.0
 40
2.678688999999999
 50
176.41795300000001
 51
177.36995400000001
  0
ARC
  5
262
  8
_________1
 62
     7
 10
35.414146000000002
 20
152.09903700000001
 30
0.0
 40
3.5253230000000002
 50
357.46770600000002
 51
358.21013599999998
  0
ARC
  5
263
  8
_________1
 62
     7
 10
37.334263
 20
152.05980400000001
 30
0.0
 40
1.6050519999999999
 50
357.46909799999997
 51
359.12397900000002
  0
ARC
  5
264
  8
_________1
 62
     7
 10
37.886234000000002
 20
152.081928
 30
0.0
 40
1.0539270000000001
 50
357.462357
 51
0.000975
  0
ARC
  5
265
  8
_________1
 62
     7
 10
36.264084000000011
 20
152.14461600000001
 30
0.0
 40
2.6768099999999988
 50
358.65843799999999
 51
359.66881100000001
  0
LINE
  5
266
  8
_________1
 62
     7
 10
38.94080000000001
 20
152.12899999999999
 30
0.0
 11
38.94080000000001
 21
152.17599999999999
 31
0.0
  0
ARC
  5
267
  8
_________1
 62
     7
 10
37.261864000000003
 20
152.17525900000001
 30
0.0
 40
1.6789860000000001
 50
0.036942
 51
1.641934999999999
  0
ARC
  5
268
  8
_________1
 62
     7
 10
37.880575
 20
152.22326000000001
 30
0.0
 40
1.0595859999999999
 50
0.005805
 51
2.5308630000000001
  0
ARC
  5
269
  8
_________1
 62
     7
 10
36.359328000000012
 20
152.215768
 30
0.0
 40
2.5803699999999998
 50
1.2053599999999991
 51
2.227066999999999
  0
ARC
  5
26A
  8
_________1
 62
     7
 10
37.478933000000012
 20
152.28325699999999
 30
0.0
 40
1.459184
 50
1.2873879999999991
 51
3.0676069999999989
  0
LINE
  5
26B
  8
_________1
 62
     7
 10
38.936
 20
152.36099999999999
 30
0.0
 11
38.933599999999998
 21
152.405
 31
0.0
  0
ARC
  5
26C
  8
_________1
 62
     7
 10
37.556376
 20
152.33847900000001
 30
0.0
 40
1.378865999999999
 50
2.7835919999999992
 51
4.5696110000000001
  0
LINE
  5
26D
  8
_________1
 62
     7
 10
38.930900000000001
 20
152.44800000000001
 30
0.0
 11
38.927799999999998
 21
152.49000000000001
 31
0.0
  0
ARC
  5
26E
  8
_________1
 62
     7
 10
24.37698
 20
151.38083700000001
 30
0.0
 40
14.592966000000001
 50
4.3577849999999989
 51
4.5151629999999994
  0
ARC
  5
26F
  8
_________1
 62
     7
 10
36.102499000000002
 20
152.29218299999999
 30
0.0
 40
2.832131
 50
4.8095119999999998
 51
5.5793449999999991
  0
LINE
  5
270
  8
_________1
 62
     7
 10
38.921199999999999
 20
152.56800000000001
 30
0.0
 11
38.9178
 21
152.60299999999989
 31
0.0
  0
ARC
  5
271
  8
_________1
 62
     7
 10
41.330703999999997
 20
152.89508000000001
 30
0.0
 40
2.4305270000000001
 50
186.10868099999999
 51
186.89746899999989
  0
ARC
  5
272
  8
_________1
 62
     7
 10
37.705545999999998
 20
152.515331
 30
0.0
 40
1.214485
 50
5.722961999999999
 51
7.1705480000000001
  0
LINE
  5
273
  8
_________1
 62
     7
 10
38.910499999999999
 20
152.667
 30
0.0
 11
38.907400000000003
 21
152.69399999999999
 31
0.0
  0
ARC
  5
274
  8
_________1
 62
     7
 10
46.16507
 20
153.62054800000001
 30
0.0
 40
7.3164809999999987
 50
187.077133
 51
187.27155400000001
  0
LINE
  5
275
  8
_________1
 62
     7
 10
38.904299999999999
 20
152.71899999999999
 30
0.0
 11
38.901200000000003
 21
152.74100000000001
 31
0.0
  0
LINE
  5
276
  8
_________1
 62
     7
 10
38.901200000000003
 20
152.74100000000001
 30
0.0
 11
38.898800000000001
 21
152.75899999999999
 31
0.0
  0
LINE
  5
277
  8
_________1
 62
     7
 10
38.898800000000001
 20
152.75899999999999
 30
0.0
 11
38.896799999999999
 21
152.77500000000001
 31
0.0
  0
ARC
  5
278
  8
_________1
 62
     7
 10
39.062280000000001
 20
152.80473000000001
 30
0.0
 40
0.168188
 50
186.054967
 51
190.205276
  0
ARC
  5
279
  8
_________1
 62
     7
 10
37.325668
 20
152.54030800000001
 30
0.0
 40
1.588630999999999
 50
8.9329850000000004
 51
9.2475670000000001
  0
ARC
  5
27A
  8
_________1
 62
     7
 10
38.917248000000001
 20
152.801378
 30
0.0
 40
0.024293
 50
181.434935
 51
193.75439
  0
LINE
  5
27B
  8
_________1
 62
     7
 10
38.893000000000001
 20
152.80099999999999
 30
0.0
 11
38.892600000000002
 21
152.80199999999999
 31
0.0
  0
ENDBLK
  5
27C
  8
_________1
  0
BLOCK
  8
_________1
  2
AIGNBL02010019
 70
     0
 10
0.0
 20
0.0
 30
0.0
  3
AIGNBL02010019
  1

  0
LINE
  5
27F
  8
_________1
 62
     7
 10
55.865000000000002
 20
148.85900000000001
 30
0.0
 11
55.866399999999999
 21
148.85900000000001
 31
0.0
  0
LINE
  5
280
  8
_________1
 62
     7
 10
55.866399999999999
 20
148.85900000000001
 30
0.0
 11
55.87019999999999
 21
148.85900000000001
 31
0.0
  0
LINE
  5
281
  8
_________1
 62
     7
 10
55.87019999999999
 20
148.85900000000001
 30
0.0
 11
55.8767
 21
148.85900000000001
 31
0.0
  0
LINE
  5
282
  8
_________1
 62
     7
 10
55.8767
 20
148.85900000000001
 30
0.0
 11
55.8857
 21
148.858
 31
0.0
  0
LINE
  5
283
  8
_________1
 62
     7
 10
55.8857
 20
148.858
 30
0.0
 11
55.89739999999999
 21
148.857
 31
0.0
  0
LINE
  5
284
  8
_________1
 62
     7
 10
55.89739999999999
 20
148.857
 30
0.0
 11
55.911200000000001
 21
148.85599999999999
 31
0.0
  0
LINE
  5
285
  8
_________1
 62
     7
 10
55.911200000000001
 20
148.85599999999999
 30
0.0
 11
55.927
 21
148.85400000000001
 31
0.0
  0
LINE
  5
286
  8
_________1
 62
     7
 10
55.927
 20
148.85400000000001
 30
0.0
 11
55.945599999999999
 21
148.85300000000001
 31
0.0
  0
LINE
  5
287
  8
_________1
 62
     7
 10
55.945599999999999
 20
148.85300000000001
 30
0.0
 11
55.965600000000002
 21
148.852
 31
0.0
  0
LINE
  5
288
  8
_________1
 62
     7
 10
55.965600000000002
 20
148.852
 30
0.0
 11
55.9876
 21
148.84999999999999
 31
0.0
  0
LINE
  5
289
  8
_________1
 62
     7
 10
55.9876
 20
148.84999999999999
 30
0.0
 11
56.011400000000002
 21
148.84899999999999
 31
0.0
  0
LINE
  5
28A
  8
_________1
 62
     7
 10
56.011400000000002
 20
148.84899999999999
 30
0.0
 11
56.036900000000003
 21
148.84800000000001
 31
0.0
  0
LINE
  5
28B
  8
_________1
 62
     7
 10
56.036900000000003
 20
148.84800000000001
 30
0.0
 11
56.063800000000001
 21
148.846
 31
0.0
  0
LINE
  5
28C
  8
_________1
 62
     7
 10
56.063800000000001
 20
148.846
 30
0.0
 11
56.091999999999999
 21
148.845
 31
0.0
  0
LINE
  5
28D
  8
_________1
 62
     7
 10
56.091999999999999
 20
148.845
 30
0.0
 11
56.121600000000001
 21
148.84399999999999
 31
0.0
  0
LINE
  5
28E
  8
_________1
 62
     7
 10
56.121600000000001
 20
148.84399999999999
 30
0.0
 11
56.152000000000001
 21
148.84399999999999
 31
0.0
  0
LINE
  5
28F
  8
_________1
 62
     7
 10
56.152000000000001
 20
148.84399999999999
 30
0.0
 11
56.182600000000001
 21
148.84299999999999
 31
0.0
  0
LINE
  5
290
  8
_________1
 62
     7
 10
56.182600000000001
 20
148.84299999999999
 30
0.0
 11
56.2136
 21
148.84299999999999
 31
0.0
  0
LINE
  5
291
  8
_________1
 62
     7
 10
56.2136
 20
148.84299999999999
 30
0.0
 11
56.244999999999997
 21
148.84299999999999
 31
0.0
  0
ENDBLK
  5
292
  8
_________1
  0
BLOCK
  8
_________1
  2
AIGNBL0201001A
 70
     0
 10
0.0
 20
0.0
 30
0.0
  3
AIGNBL0201001A
  1

  0
LINE
  5
295
  8
_________1
  6
AIGENLINE002
 62
     7
 10
57.592399999999998
 20
253.959
 30
0.0
 11
57.592399999999998
 21
251.03
 31
0.0
  0
ENDBLK
  5
296
  8
_________1
  0
BLOCK
  8
_________1
  2
AIGNBL0201001B
 70
     0
 10
0.0
 20
0.0
 30
0.0
  3
AIGNBL0201001B
  1

  0
ARC
  5
299
  8
_________1
 62
     7
 10
57.154657999999998
 20
166.49891
 30
0.0
 40
0.062214
 50
92.053473999999994
 51
177.94649699999999
  0
ENDBLK
  5
29A
  8
_________1
  0
BLOCK
  8
_________1
  2
AIGNBL0201001C
 70
     0
 10
0.0
 20
0.0
 30
0.0
  3
AIGNBL0201001C
  1

  0
ARC
  5
29D
  8
_________1
 62
     7
 10
58.029977000000002
 20
166.498805
 30
0.0
 40
0.062324
 50
2.1469109999999998
 51
87.853079000000008
  0
ENDBLK
  5
29E
  8
_________1
  0
BLOCK
  8
_________1
  2
AIGNBL0201001D
 70
     0
 10
0.0
 20
0.0
 30
0.0
  3
AIGNBL0201001D
  1

  0
ARC
  5
2A1
  8
_________1
 62
     7
 10
46.084237999999992
 20
154.54428100000001
 30
0.0
 40
0.207599
 50
2.1094479999999991
 51
87.890541999999996
  0
ENDBLK
  5
2A2
  8
_________1
  0
BLOCK
  8
_________1
  2
AIGNBL0201001E
 70
     0
 10
0.0
 20
0.0
 30
0.0
  3
AIGNBL0201001E
  1

  0
ARC
  5
2A5
  8
_________1
 62
     7
 10
40.501604
 20
154.543882
 30
0.0
 40
0.208012
 50
92.215090999999987
 51
177.78487899999999
  0
ENDBLK
  5
2A6
  8
_________1
  0
BLOCK
  8
_________1
  2
AIGNBL0201001F
 70
     0
 10
0.0
 20
0.0
 30
0.0
  3
AIGNBL0201001F
  1

  0
ARC
  5
2A9
  8
_________1
 62
     7
 10
61.843621999999989
 20
140.51172099999999
 30
0.0
 40
0.24963
 50
272.14071300000001
 51
357.81817999999998
  0
ENDBLK
  5
2AA
  8
_________1
  0
BLOCK
  8
_________1
  2
AIGNBL02010020
 70
     0
 10
0.0
 20
0.0
 30
0.0
  3
AIGNBL02010020
  1

  0
ARC
  5
2AD
  8
_________1
 62
     7
 10
61.843779000000012
 20
148.610084
 30
0.0
 40
0.249467
 50
2.1471209999999989
 51
87.893985999999998
  0
ENDBLK
  5
2AE
  8
_________1
  0
BLOCK
  8
_________1
  2
AIGNBL02010021
 70
     0
 10
0.0
 20
0.0
 30
0.0
  3
AIGNBL02010021
  1

  0
ARC
  5
2B1
  8
_________1
 62
     7
 10
39.192688000000011
 20
154.25185300000001
 30
0.0
 40
0.30007
 50
90.0
 51
179.99996999999999
  0
ENDBLK
  5
2B2
  8
_________1
  0
BLOCK
  8
_________1
  2
AIGNBL02010022
 70
     0
 10
0.0
 20
0.0
 30
0.0
  3
AIGNBL02010022
  1

  0
ARC
  5
2B5
  8
_________1
 62
     7
 10
47.38074799999999
 20
154.24020300000001
 30
0.0
 40
0.31195
 50
2.1401259999999991
 51
87.794044999999997
  0
ENDBLK
  5
2B6
  8
_________1
  0
BLOCK
  8
_________1
  2
AIGNBL02010023
 70
     0
 10
0.0
 20
0.0
 30
0.0
  3
AIGNBL02010023
  1

  0
ARC
  5
2B9
  8
_________1
 62
     7
 10
48.107745000000001
 20
139.846994
 30
0.0
 40
0.415552
 50
92.108068000000017
 51
177.867222
  0
ENDBLK
  5
2BA
  8
_________1
  0
BLOCK
  8
_________1
  2
AIGNBL02010024
 70
     0
 10
0.0
 20
0.0
 30
0.0
  3
AIGNBL02010024
  1

  0
ARC
  5
2BD
  8
_________1
 62
     7
 10
48.107756999999999
 20
149.27465900000001
 30
0.0
 40
0.415558
 50
182.10972899999999
 51
267.89030000000002
  0
ENDBLK
  5
2BE
  8
_________1
  0
BLOCK
  8
_________1
  2
AIGNBL02010025
 70
     0
 10
0.0
 20
0.0
 30
0.0
  3
AIGNBL02010025
  1

  0
ARC
  5
2C1
  8
_________1
 62
     7
 10
52.27496099999999
 20
138.43457100000001
 30
0.0
 40
1.848031
 50
81.491963999999996
 51
85.050663000000014
  0
ARC
  5
2C2
  8
_________1
 62
     7
 10
52.056905999999998
 20
135.96039500000001
 30
0.0
 40
4.331796999999999
 50
85.000619999999984
 51
96.738764000000018
  0
ENDBLK
  5
2C3
  8
_________1
  0
BLOCK
  8
_________1
  2
AIGNBL02010026
 70
     0
 10
0.0
 20
0.0
 30
0.0
  3
AIGNBL02010026
  1

  0
ARC
  5
2C6
  8
_________1
 62
     7
 10
58.693449999999999
 20
151.10614799999999
 30
0.0
 40
2.2637160000000001
 50
269.16235
 51
272.47707000000003
  0
ARC
  5
2C7
  8
_________1
 62
     7
 10
58.66499799999999
 20
153.06286900000001
 30
0.0
 40
4.2202120000000001
 50
271.71482300000002
 51
275.102755
  0
ENDBLK
  5
2C8
  8
_________1
  0
BLOCK
  8
_________1
  2
AIGNBL02010027
 70
     0
 10
0.0
 20
0.0
 30
0.0
  3
AIGNBL02010027
  1

  0
LINE
  5
2CB
  8
_________1
 62
     7
 10
58.032299999999999
 20
166.56100000000001
 30
0.0
 11
57.152799999999992
 21
166.56100000000001
 31
0.0
  0
ENDBLK
  5
2CC
  8
_________1
  0
BLOCK
  8
_________1
  2
AIGNBL02010028
 70
     0
 10
0.0
 20
0.0
 30
0.0
  3
AIGNBL02010028
  1

  0
LINE
  5
2CF
  8
_________1
 62
     7
 10
58.092300000000002
 20
166.501
 30
0.0
 11
57.09279999999999
 21
166.501
 31
0.0
  0
ENDBLK
  5
2D0
  8
_________1
  0
BLOCK
  8
_________1
  2
AIGNBL02010029
 70
     0
 10
0.0
 20
0.0
 30
0.0
  3
AIGNBL02010029
  1

  0
LINE
  5
2D3
  8
_________1
 62
     7
 10
62.0931
 20
140.50200000000001
 30
0.0
 11
62.0931
 21
148.619
 31
0.0
  0
ENDBLK
  5
2D4
  8
_________1
  0
BLOCK
  8
_________1
  2
AIGNBL0201002A
 70
     0
 10
0.0
 20
0.0
 30
0.0
  3
AIGNBL0201002A
  1

  0
LINE
  5
2D7
  8
_________1
 62
     7
 10
61.852899999999998
 20
140.262
 30
0.0
 11
61.852899999999998
 21
148.85900000000001
 31
0.0
  0
ENDBLK
  5
2D8
  8
_________1
  0
BLOCK
  8
_________1
  2
AIGNBL0201002B
 70
     0
 10
0.0
 20
0.0
 30
0.0
  3
AIGNBL0201002B
  1

  0
LINE
  5
2DB
  8
_________1
 62
     7
 10
58.092300000000002
 20
160.643
 30
0.0
 11
57.092500000000001
 21
160.643
 31
0.0
  0
ENDBLK
  5
2DC
  8
_________1
  0
BLOCK
  8
_________1
  2
AIGNBL0201002C
 70
     0
 10
0.0
 20
0.0
 30
0.0
  3
AIGNBL0201002C
  1

  0
LINE
  5
2DF
  8
_________1
 62
     7
 10
57.592399999999998
 20
149.06299999999999
 30
0.0
 11
57.592399999999998
 21
142.655
 31
0.0
  0
ENDBLK
  5
2E0
  8
_________1
  0
BLOCK
  8
_________1
  2
AIGNBL0201002D
 70
     0
 10
0.0
 20
0.0
 30
0.0
  3
AIGNBL0201002D
  1

  0
LINE
  5
2E3
  8
_________1
  6
AIGENLINE002
 62
     7
 10
57.592399999999998
 20
167.828
 30
0.0
 11
57.592399999999998
 21
159.38900000000001
 31
0.0
  0
ENDBLK
  5
2E4
  8
_________1
  0
BLOCK
  8
_________1
  2
AIGNBL0201002E
 70
     0
 10
0.0
 20
0.0
 30
0.0
  3
AIGNBL0201002E
  1

  0
LINE
  5
2E7
  8
_________1
 62
     7
 10
58.092300000000002
 20
166.501
 30
0.0
 11
58.092300000000002
 21
160.643
 31
0.0
  0
ENDBLK
  5
2E8
  8
_________1
  0
BLOCK
  8
_________1
  2
AIGNBL0201002F
 70
     0
 10
0.0
 20
0.0
 30
0.0
  3
AIGNBL0201002F
  1

  0
LINE
  5
2EB
  8
_________1
 62
     7
 10
57.892400000000002
 20
148.83799999999999
 30
0.0
 11
57.892400000000002
 21
160.643
 31
0.0
  0
ENDBLK
  5
2EC
  8
_________1
  0
BLOCK
  8
_________1
  2
AIGNBL02010030
 70
     0
 10
0.0
 20
0.0
 30
0.0
  3
AIGNBL02010030
  1

  0
LINE
  5
2EF
  8
_________1
 62
     7
 10
57.2926
 20
148.84299999999999
 30
0.0
 11
57.2926
 21
160.643
 31
0.0
  0
ENDBLK
  5
2F0
  8
_________1
  0
BLOCK
  8
_________1
  2
AIGNBL02010031
 70
     0
 10
0.0
 20
0.0
 30
0.0
  3
AIGNBL02010031
  1

  0
LINE
  5
2F3
  8
_________1
 62
     7
 10
57.092500000000001
 20
166.501
 30
0.0
 11
57.092500000000001
 21
160.643
 31
0.0
  0
ENDBLK
  5
2F4
  8
_________1
  0
BLOCK
  8
_________1
  2
AIGNBL02010032
 70
     0
 10
0.0
 20
0.0
 30
0.0
  3
AIGNBL02010032
  1

  0
LINE
  5
2F7
  8
_________1
 62
     7
 10
50.692799999999998
 20
140.262
 30
0.0
 11
50.692799999999998
 21
148.85900000000001
 31
0.0
  0
ENDBLK
  5
2F8
  8
_________1
  0
BLOCK
  8
_________1
  2
AIGNBL02010033
 70
     0
 10
0.0
 20
0.0
 30
0.0
  3
AIGNBL02010033
  1

  0
LINE
  5
2FB
  8
_________1
 62
     7
 10
50.59879999999999
 20
148.85900000000001
 30
0.0
 11
50.59879999999999
 21
140.262
 31
0.0
  0
ENDBLK
  5
2FC
  8
_________1
  0
BLOCK
  8
_________1
  2
AIGNBL02010034
 70
     0
 10
0.0
 20
0.0
 30
0.0
  3
AIGNBL02010034
  1

  0
LINE
  5
2FF
  8
_________1
 62
     7
 10
46.091900000000003
 20
154.75200000000001
 30
0.0
 11
40.493600000000001
 21
154.75200000000001
 31
0.0
  0
ENDBLK
  5
300
  8
_________1
  0
BLOCK
  8
_________1
  2
AIGNBL02010035
 70
     0
 10
0.0
 20
0.0
 30
0.0
  3
AIGNBL02010035
  1

  0
LINE
  5
303
  8
_________1
 62
     7
 10
46.291699999999999
 20
154.55199999999999
 30
0.0
 11
40.293700000000001
 21
154.55199999999999
 31
0.0
  0
ENDBLK
  5
304
  8
_________1
  0
BLOCK
  8
_________1
  2
AIGNBL02010036
 70
     0
 10
0.0
 20
0.0
 30
0.0
  3
AIGNBL02010036
  1

  0
LINE
  5
307
  8
_________1
 62
     7
 10
47.392799999999987
 20
154.55199999999999
 30
0.0
 11
39.192700000000002
 21
154.55199999999999
 31
0.0
  0
ENDBLK
  5
308
  8
_________1
  0
BLOCK
  8
_________1
  2
AIGNBL02010037
 70
     0
 10
0.0
 20
0.0
 30
0.0
  3
AIGNBL02010037
  1

  0
LINE
  5
30B
  8
_________1
 62
     7
 10
47.692500000000003
 20
154.25200000000001
 30
0.0
 11
38.892600000000002
 21
154.25200000000001
 31
0.0
  0
ENDBLK
  5
30C
  8
_________1
  0
BLOCK
  8
_________1
  2
AIGNBL02010038
 70
     0
 10
0.0
 20
0.0
 30
0.0
  3
AIGNBL02010038
  1

  0
LINE
  5
30F
  8
_________1
 62
     7
 10
47.692500000000003
 20
149.25899999999999
 30
0.0
 11
47.692500000000003
 21
154.25200000000001
 31
0.0
  0
ENDBLK
  5
310
  8
_________1
  0
BLOCK
  8
_________1
  2
AIGNBL02010039
 70
     0
 10
0.0
 20
0.0
 30
0.0
  3
AIGNBL02010039
  1

  0
LINE
  5
313
  8
_________1
 62
     7
 10
47.692500000000003
 20
127.56100000000001
 30
0.0
 11
47.692500000000003
 21
139.86199999999999
 31
0.0
  0
ENDBLK
  5
314
  8
_________1
  0
BLOCK
  8
_________1
  2
AIGNBL0201003A
 70
     0
 10
0.0
 20
0.0
 30
0.0
  3
AIGNBL0201003A
  1

  0
LINE
  5
317
  8
_________1
 62
     7
 10
59.040399999999998
 20
148.85900000000001
 30
0.0
 11
61.852899999999998
 21
148.85900000000001
 31
0.0
  0
ENDBLK
  5
318
  8
_________1
  0
BLOCK
  8
_________1
  2
AIGNBL0201003B
 70
     0
 10
0.0
 20
0.0
 30
0.0
  3
AIGNBL0201003B
  1

  0
LINE
  5
31B
  8
_________1
 62
     7
 10
50.692799999999998
 20
148.85900000000001
 30
0.0
 11
55.865000000000002
 21
148.85900000000001
 31
0.0
  0
ENDBLK
  5
31C
  8
_________1
  0
BLOCK
  8
_________1
  2
AIGNBL0201003C
 70
     0
 10
0.0
 20
0.0
 30
0.0
  3
AIGNBL0201003C
  1

  0
LINE
  5
31F
  8
_________1
 62
     7
 10
48.092500000000001
 20
148.85900000000001
 30
0.0
 11
50.59879999999999
 21
148.85900000000001
 31
0.0
  0
ENDBLK
  5
320
  8
_________1
  0
BLOCK
  8
_________1
  2
AIGNBL0201003D
 70
     0
 10
0.0
 20
0.0
 30
0.0
  3
AIGNBL0201003D
  1

  0
LINE
  5
323
  8
_________1
 62
     7
 10
56.244999999999997
 20
148.84299999999999
 30
0.0
 11
58.660400000000003
 21
148.84299999999999
 31
0.0
  0
ENDBLK
  5
324
  8
_________1
  0
BLOCK
  8
_________1
  2
AIGNBL0201003E
 70
     0
 10
0.0
 20
0.0
 30
0.0
  3
AIGNBL0201003E
  1

  0
LINE
  5
327
  8
_________1
 62
     7
 10
38.892600000000002
 20
152.80199999999999
 30
0.0
 11
38.892600000000002
 21
154.25200000000001
 31
0.0
  0
ENDBLK
  5
328
  8
_________1
  0
BLOCK
  8
_________1
  2
AIGNBL0201003F
 70
     0
 10
0.0
 20
0.0
 30
0.0
  3
AIGNBL0201003F
  1

  0
LINE
  5
32B
  8
_________1
 62
     7
 10
38.892600000000002
 20
127.56100000000001
 30
0.0
 11
38.892600000000002
 21
151.50299999999999
 31
0.0
  0
ENDBLK
  5
32C
  8
_________1
  0
BLOCK
  8
_________1
  2
AIGNBL02010040
 70
     0
 10
0.0
 20
0.0
 30
0.0
  3
AIGNBL02010040
  1

  0
LINE
  5
32F
  8
_________1
 62
     7
 10
51.7684
 20
140.28200000000001
 30
0.0
 11
52.328200000000002
 21
140.28200000000001
 31
0.0
  0
ENDBLK
  5
330
  8
_________1
  0
BLOCK
  8
_________1
  2
AIGNBL02010041
 70
     0
 10
0.0
 20
0.0
 30
0.0
  3
AIGNBL02010041
  1

  0
LINE
  5
333
  8
_________1
 62
     7
 10
52.548400000000001
 20
140.262
 30
0.0
 11
61.852899999999998
 21
140.262
 31
0.0
  0
ENDBLK
  5
334
  8
_________1
  0
BLOCK
  8
_________1
  2
AIGNBL02010042
 70
     0
 10
0.0
 20
0.0
 30
0.0
  3
AIGNBL02010042
  1

  0
LINE
  5
337
  8
_________1
 62
     7
 10
50.692799999999998
 20
140.262
 30
0.0
 11
51.5486
 21
140.262
 31
0.0
  0
ENDBLK
  5
338
  8
_________1
  0
BLOCK
  8
_________1
  2
AIGNBL02010043
 70
     0
 10
0.0
 20
0.0
 30
0.0
  3
AIGNBL02010043
  1

  0
LINE
  5
33B
  8
_________1
 62
     7
 10
48.092500000000001
 20
140.262
 30
0.0
 11
50.59879999999999
 21
140.262
 31
0.0
  0
ENDBLK
  5
33C
  8
_________1
  0
BLOCK
  8
_________1
  2
AIGNBL02010044
 70
     0
 10
0.0
 20
0.0
 30
0.0
  3
AIGNBL02010044
  1

  0
LINE
  5
33F
  8
_________1
 62
     7
 10
38.892600000000002
 20
127.56100000000001
 30
0.0
 11
47.692500000000003
 21
127.56100000000001
 31
0.0
  0
ENDBLK
  5
340
  8
_________1
  0
BLOCK
  8
_________1
  2
AIGNBL02010045
 70
     0
 10
0.0
 20
0.0
 30
0.0
  3
AIGNBL02010045
  1

  0
LINE
  5
343
  8
_________1
 62
     7
 10
68.292900000000003
 20
133.43899999999999
 30
0.0
 11
68.292900000000003
 21
162.90799999999999
 31
0.0
  0
ENDBLK
  5
344
  8
_________1
  0
BLOCK
  8
_________1
  2
AIGNBL02010046
 70
     0
 10
0.0
 20
0.0
 30
0.0
  3
AIGNBL02010046
  1

  0
INSERT
  5
347
  8
_________1
 62
     7
  2
AIGNBL02020047
 10
0.0
 20
0.0
 30
0.0
  0
ENDBLK
  5
348
  8
_________1
  0
BLOCK
  8
_________1
  2
AIGNBL02010048
 70
     0
 10
0.0
 20
0.0
 30
0.0
  3
AIGNBL02010048
  1

  0
ARC
  5
34B
  8
_________1
 62
     7
 10
150.40787599999999
 20
144.56099499999999
 30
0.0
 40
4.0584350000000002
 50
359.99879399999998
 51
89.998764000000008
  0
ARC
  5
34C
  8
_________1
 62
     7
 10
150.40787800000001
 20
144.560823
 30
0.0
 40
4.0586070000000003
 50
89.998784000000001
 51
179.99875399999999
  0
ARC
  5
34D
  8
_________1
 62
     7
 10
150.407962
 20
144.56090900000001
 30
0.0
 40
4.0586919999999989
 50
179.99996999999999
 51
270.00002000000001
  0
ARC
  5
34E
  8
_________1
 62
     7
 10
150.40778999999989
 20
144.56073799999999
 30
0.0
 40
4.0585209999999989
 50
270.00245200000001
 51
0.002422
  0
ENDBLK
  5
34F
  8
_________1
  0
BLOCK
  8
_________1
  2
AIGNBL02010049
 70
     0
 10
0.0
 20
0.0
 30
0.0
  3
AIGNBL02010049
  1

  0
ARC
  5
352
  8
_________1
 62
     7
 10
150.407859
 20
144.56083899999999
 30
0.0
 40
4.298608999999999
 50
275.76485200000008
 51
5.764405
  0
ARC
  5
353
  8
_________1
 62
     7
 10
150.59092100000001
 20
144.639106
 30
0.0
 40
4.1090429999999989
 50
4.934925999999999
 51
40.372526999999998
  0
ARC
  5
354
  8
_________1
 62
     7
 10
150.35528299999999
 20
144.47299899999999
 30
0.0
 40
4.3962370000000002
 50
40.032526999999988
 51
82.910143000000005
  0
ARC
  5
355
  8
_________1
 62
     7
 10
150.49182099999999
 20
144.9078189999999
 30
0.0
 40
3.9487379999999992
 50
84.097526999999999
 51
88.342207000000016
  0
ENDBLK
  5
356
  8
_________1
  0
BLOCK
  8
_________1
  2
AIGNBL0201004A
 70
     0
 10
0.0
 20
0.0
 30
0.0
  3
AIGNBL0201004A
  1

  0
ARC
  5
359
  8
_________1
 62
     7
 10
150.407782
 20
144.56091799999999
 30
0.0
 40
4.298570999999999
 50
92.974525999999969
 51
182.97479200000001
  0
ARC
  5
35A
  8
_________1
 62
     7
 10
150.211646
 20
144.48842999999999
 30
0.0
 40
4.099410999999999
 50
182.10524599999999
 51
217.48031399999999
  0
ARC
  5
35B
  8
_________1
 62
     7
 10
150.47256999999999
 20
144.64774399999999
 30
0.0
 40
4.4035299999999991
 50
217.05948100000001
 51
257.21067699999998
  0
ARC
  5
35C
  8
_________1
 62
     7
 10
150.30336800000001
 20
144.218323
 30
0.0
 40
3.9479259999999998
 50
258.225818
 51
265.24771199999998
  0
ENDBLK
  5
35D
  8
_________1
  0
BLOCK
  8
_________1
  2
AIGNBL0201004B
 70
     0
 10
0.0
 20
0.0
 30
0.0
  3
AIGNBL0201004B
  1

  0
LINE
  5
360
  8
_________1
 62
     7
 10
129.06399999999999
 20
161.08199999999999
 30
0.0
 11
128.262
 21
158.93899999999999
 31
0.0
  0
LINE
  5
361
  8
_________1
 62
     7
 10
128.262
 20
158.93899999999999
 30
0.0
 11
130.02799999999999
 21
160.39400000000001
 31
0.0
  0
LINE
  5
362
  8
_________1
 62
     7
 10
130.02799999999999
 20
160.39400000000001
 30
0.0
 11
129.06399999999999
 21
161.08199999999999
 31
0.0
  0
LINE
  5
363
  8
_________1
 62
     7
 10
148.22499999999999
 20
170.28800000000001
 30
0.0
 11
150.41200000000001
 21
170.96199999999999
 31
0.0
  0
LINE
  5
364
  8
_________1
 62
     7
 10
150.41200000000001
 20
170.96199999999999
 30
0.0
 11
148.18100000000001
 21
171.47200000000001
 31
0.0
  0
LINE
  5
365
  8
_________1
 62
     7
 10
148.18100000000001
 20
171.47200000000001
 30
0.0
 11
148.22499999999999
 21
170.28800000000001
 31
0.0
  0
ARC
  5
366
  8
_________1
 62
     7
 10
150.69259600000001
 20
144.029608
 30
0.0
 40
26.933084000000001
 50
90.605513000000002
 51
146.38203999999999
  0
ENDBLK
  5
367
  8
_________1
  0
BLOCK
  8
_________1
  2
AIGNBL0201004C
 70
     0
 10
0.0
 20
0.0
 30
0.0
  3
AIGNBL0201004C
  1

  0
LINE
  5
36A
  8
_________1
 62
     7
 10
152.63900000000001
 20
171.45599999999999
 30
0.0
 11
150.405
 21
170.96100000000001
 31
0.0
  0
LINE
  5
36B
  8
_________1
 62
     7
 10
150.405
 20
170.96100000000001
 30
0.0
 11
152.58699999999999
 21
170.273
 31
0.0
  0
LINE
  5
36C
  8
_________1
 62
     7
 10
152.58699999999999
 20
170.273
 30
0.0
 11
152.63900000000001
 21
171.45599999999999
 31
0.0
  0
LINE
  5
36D
  8
_________1
 62
     7
 10
170.797
 20
160.405
 30
0.0
 11
172.554
 21
158.93799999999999
 31
0.0
  0
LINE
  5
36E
  8
_________1
 62
     7
 10
172.554
 20
158.93799999999999
 30
0.0
 11
171.76599999999999
 21
161.08699999999999
 31
0.0
  0
LINE
  5
36F
  8
_________1
 62
     7
 10
171.76599999999999
 20
161.08699999999999
 30
0.0
 11
170.797
 21
160.405
 31
0.0
  0
ARC
  5
370
  8
_________1
 62
     7
 10
150.14460600000001
 20
144.069446
 30
0.0
 40
26.893032000000002
 50
33.572763999999999
 51
89.438896000000014
  0
ENDBLK
  5
371
  8
_________1
  0
BLOCK
  8
_________1
  2
AIGNBL0201004D
 70
     0
 10
0.0
 20
0.0
 30
0.0
  3
AIGNBL0201004D
  1

  0
ARC
  5
374
  8
_________1
  6
AIGENLINE001
 62
     7
 10
132.24744699999999
 20
156.876014
 30
0.0
 40
0.06237
 50
59.169060999999999
 51
144.955479
  0
ENDBLK
  5
375
  8
_________1
  0
BLOCK
  8
_________1
  2
AIGNBL0201004E
 70
     0
 10
0.0
 20
0.0
 30
0.0
  3
AIGNBL0201004E
  1

  0
ARC
  5
378
  8
_________1
  6
AIGENLINE001
 62
     7
 10
131.77066199999999
 20
156.14210299999999
 30
0.0
 40
0.062104
 50
148.84980400000001
 51
235.04730000000001
  0
ENDBLK
  5
379
  8
_________1
  0
BLOCK
  8
_________1
  2
AIGNBL0201004F
 70
     0
 10
0.0
 20
0.0
 30
0.0
  3
AIGNBL0201004F
  1

  0
LINE
  5
37C
  8
_________1
  6
AIGENLINE001
 62
     7
 10
132.196
 20
156.91200000000001
 30
0.0
 11
131.71799999999999
 21
156.17400000000001
 31
0.0
  0
ENDBLK
  5
37D
  8
_________1
  0
BLOCK
  8
_________1
  2
AIGNBL02010050
 70
     0
 10
0.0
 20
0.0
 30
0.0
  3
AIGNBL02010050
  1

  0
LINE
  5
380
  8
_________1
  6
AIGENLINE001
 62
     7
 10
132.279
 20
156.93000000000001
 30
0.0
 11
136.52199999999999
 21
154.17500000000001
 31
0.0
  0
ENDBLK
  5
381
  8
_________1
  0
BLOCK
  8
_________1
  2
AIGNBL02010051
 70
     0
 10
0.0
 20
0.0
 30
0.0
  3
AIGNBL02010051
  1

  0
LINE
  5
384
  8
_________1
  6
AIGENLINE001
 62
     7
 10
132.279
 20
156.93000000000001
 30
0.0
 11
131.73500000000001
 21
156.09100000000001
 31
0.0
  0
ENDBLK
  5
385
  8
_________1
  0
BLOCK
  8
_________1
  2
AIGNBL02010052
 70
     0
 10
0.0
 20
0.0
 30
0.0
  3
AIGNBL02010052
  1

  0
LINE
  5
388
  8
_________1
  6
AIGENLINE001
 62
     7
 10
146.97499999999999
 20
147.148
 30
0.0
 11
136.41300000000001
 21
154.00700000000001
 31
0.0
  0
ENDBLK
  5
389
  8
_________1
  0
BLOCK
  8
_________1
  2
AIGNBL02010053
 70
     0
 10
0.0
 20
0.0
 30
0.0
  3
AIGNBL02010053
  1

  0
LINE
  5
38C
  8
_________1
  6
AIGENLINE001
 62
     7
 10
146.648
 20
146.64500000000001
 30
0.0
 11
136.08600000000001
 21
153.50399999999999
 31
0.0
  0
ENDBLK
  5
38D
  8
_________1
  0
BLOCK
  8
_________1
  2
AIGNBL02010054
 70
     0
 10
0.0
 20
0.0
 30
0.0
  3
AIGNBL02010054
  1

  0
LINE
  5
390
  8
_________1
  6
AIGENLINE001
 62
     7
 10
131.73500000000001
 20
156.09100000000001
 30
0.0
 11
135.977
 21
153.33600000000001
 31
0.0
  0
ENDBLK
  5
391
  8
_________1
  0
BLOCK
  8
_________1
  2
AIGNBL02010055
 70
     0
 10
0.0
 20
0.0
 30
0.0
  3
AIGNBL02010055
  1

  0
LINE
  5
394
  8
_________1
  6
AIGENLINE001
 62
     7
 10
136.52199999999999
 20
154.17500000000001
 30
0.0
 11
135.977
 21
153.33600000000001
 31
0.0
  0
ENDBLK
  5
395
  8
_________1
  0
BLOCK
  8
_________1
  2
AIGNBL02010056
 70
     0
 10
0.0
 20
0.0
 30
0.0
  3
AIGNBL02010056
  1

  0
ARC
  5
398
  8
_________1
  6
AIGENLINE001
 62
     7
 10
169.04486199999999
 20
156.14211499999999
 30
0.0
 40
0.062147
 50
304.98976599999997
 51
31.113129999999991
  0
ENDBLK
  5
399
  8
_________1
  0
BLOCK
  8
_________1
  2
AIGNBL02010057
 70
     0
 10
0.0
 20
0.0
 30
0.0
  3
AIGNBL02010057
  1

  0
ARC
  5
39C
  8
_________1
  6
AIGENLINE001
 62
     7
 10
168.568016
 20
156.87563
 30
0.0
 40
0.062788
 50
35.397832000000001
 51
120.47758899999999
  0
ENDBLK
  5
39D
  8
_________1
  0
BLOCK
  8
_________1
  2
AIGNBL02010058
 70
     0
 10
0.0
 20
0.0
 30
0.0
  3
AIGNBL02010058
  1

  0
LINE
  5
3A0
  8
_________1
  6
AIGENLINE001
 62
     7
 10
169.09800000000001
 20
156.17400000000001
 30
0.0
 11
168.619
 21
156.91200000000001
 31
0.0
  0
ENDBLK
  5
3A1
  8
_________1
  0
BLOCK
  8
_________1
  2
AIGNBL02010059
 70
     0
 10
0.0
 20
0.0
 30
0.0
  3
AIGNBL02010059
  1

  0
LINE
  5
3A4
  8
_________1
  6
AIGENLINE001
 62
     7
 10
169.08000000000001
 20
156.09100000000001
 30
0.0
 11
164.83799999999999
 21
153.33600000000001
 31
0.0
  0
ENDBLK
  5
3A5
  8
_________1
  0
BLOCK
  8
_________1
  2
AIGNBL0201005A
 70
     0
 10
0.0
 20
0.0
 30
0.0
  3
AIGNBL0201005A
  1

  0
LINE
  5
3A8
  8
_________1
  6
AIGENLINE001
 62
     7
 10
169.08000000000001
 20
156.09100000000001
 30
0.0
 11
168.536
 21
156.93000000000001
 31
0.0
  0
ENDBLK
  5
3A9
  8
_________1
  0
BLOCK
  8
_________1
  2
AIGNBL0201005B
 70
     0
 10
0.0
 20
0.0
 30
0.0
  3
AIGNBL0201005B
  1

  0
LINE
  5
3AC
  8
_________1
  6
AIGENLINE001
 62
     7
 10
154.167
 20
146.64500000000001
 30
0.0
 11
164.72900000000001
 21
153.50399999999999
 31
0.0
  0
ENDBLK
  5
3AD
  8
_________1
  0
BLOCK
  8
_________1
  2
AIGNBL0201005C
 70
     0
 10
0.0
 20
0.0
 30
0.0
  3
AIGNBL0201005C
  1

  0
LINE
  5
3B0
  8
_________1
  6
AIGENLINE001
 62
     7
 10
153.84100000000001
 20
147.148
 30
0.0
 11
164.40299999999999
 21
154.00700000000001
 31
0.0
  0
ENDBLK
  5
3B1
  8
_________1
  0
BLOCK
  8
_________1
  2
AIGNBL0201005D
 70
     0
 10
0.0
 20
0.0
 30
0.0
  3
AIGNBL0201005D
  1

  0
LINE
  5
3B4
  8
_________1
  6
AIGENLINE001
 62
     7
 10
168.536
 20
156.93000000000001
 30
0.0
 11
164.29400000000001
 21
154.17500000000001
 31
0.0
  0
ENDBLK
  5
3B5
  8
_________1
  0
BLOCK
  8
_________1
  2
AIGNBL0201005E
 70
     0
 10
0.0
 20
0.0
 30
0.0
  3
AIGNBL0201005E
  1

  0
LINE
  5
3B8
  8
_________1
  6
AIGENLINE001
 62
     7
 10
164.83799999999999
 20
153.33600000000001
 30
0.0
 11
164.29400000000001
 21
154.17500000000001
 31
0.0
  0
ENDBLK
  5
3B9
  8
_________1
  0
BLOCK
  8
_________1
  2
AIGNBL0201005F
 70
     0
 10
0.0
 20
0.0
 30
0.0
  3
AIGNBL0201005F
  1

  0
ARC
  5
3BC
  8
_________1
 62
     7
 10
153.19907599999999
 20
154.54386400000001
 30
0.0
 40
0.208018
 50
2.2201309999999999
 51
87.878559999999993
  0
ENDBLK
  5
3BD
  8
_________1
  0
BLOCK
  8
_________1
  2
AIGNBL02010060
 70
     0
 10
0.0
 20
0.0
 30
0.0
  3
AIGNBL02010060
  1

  0
ARC
  5
3C0
  8
_________1
 62
     7
 10
154.49638200000001
 20
154.24059600000001
 30
0.0
 40
0.3115429999999999
 50
2.070729
 51
87.863442000000006
  0
ENDBLK
  5
3C1
  8
_________1
  0
BLOCK
  8
_________1
  2
AIGNBL02010061
 70
     0
 10
0.0
 20
0.0
 30
0.0
  3
AIGNBL02010061
  1

  0
ARC
  5
3C4
  8
_________1
 62
     7
 10
150.845326
 20
166.49890500000001
 30
0.0
 40
0.06222
 50
2.0579640000000001
 51
87.942025999999998
  0
ENDBLK
  5
3C5
  8
_________1
  0
BLOCK
  8
_________1
  2
AIGNBL02010062
 70
     0
 10
0.0
 20
0.0
 30
0.0
  3
AIGNBL02010062
  1

  0
LINE
  5
3C8
  8
_________1
 62
     7
 10
150.60599999999999
 20
148.85499999999999
 30
0.0
 11
150.60599999999999
 21
148.85499999999999
 31
0.0
  0
ENDBLK
  5
3C9
  8
_________1
  0
BLOCK
  8
_________1
  2
AIGNBL02010063
 70
     0
 10
0.0
 20
0.0
 30
0.0
  3
AIGNBL02010063
  1

  0
ARC
  5
3CC
  8
_________1
 62
     7
 10
150.411418
 20
145.115613
 30
0.0
 40
3.7439439999999999
 50
88.544841000000005
 51
90.052864999999997
  0
ENDBLK
  5
3CD
  8
_________1
  0
BLOCK
  8
_________1
  2
AIGNBL02010064
 70
     0
 10
0.0
 20
0.0
 30
0.0
  3
AIGNBL02010064
  1

  0
ARC
  5
3D0
  8
_________1
 62
     7
 10
150.42791600000001
 20
143.35304099999999
 30
0.0
 40
5.5065900000000001
 50
90.544566000000003
 51
91.236485999999985
  0
ENDBLK
  5
3D1
  8
_________1
  0
BLOCK
  8
_________1
  2
AIGNBL02010065
 70
     0
 10
0.0
 20
0.0
 30
0.0
  3
AIGNBL02010065
  1

  0
LINE
  5
3D4
  8
_________1
 62
     7
 10
150.21000000000001
 20
148.85499999999999
 30
0.0
 11
150.185
 21
148.85400000000001
 31
0.0
  0
ENDBLK
  5
3D5
  8
_________1
  0
BLOCK
  8
_________1
  2
AIGNBL02010066
 70
     0
 10
0.0
 20
0.0
 30
0.0
  3
AIGNBL02010066
  1

  0
LINE
  5
3D8
  8
_________1
 62
     7
 10
149.976
 20
140.28399999999999
 30
0.0
 11
149.995
 21
140.28200000000001
 31
0.0
  0
ENDBLK
  5
3D9
  8
_________1
  0
BLOCK
  8
_________1
  2
AIGNBL02010067
 70
     0
 10
0.0
 20
0.0
 30
0.0
  3
AIGNBL02010067
  1

  0
LINE
  5
3DC
  8
_________1
 62
     7
 10
150.30799999999999
 20
140.26300000000001
 30
0.0
 11
150.309
 21
140.26300000000001
 31
0.0
  0
ENDBLK
  5
3DD
  8
_________1
  0
BLOCK
  8
_________1
  2
AIGNBL02010068
 70
     0
 10
0.0
 20
0.0
 30
0.0
  3
AIGNBL02010068
  1

  0
LINE
  5
3E0
  8
_________1
 62
     7
 10
150.83500000000001
 20
140.28399999999999
 30
0.0
 11
150.84
 21
140.28399999999999
 31
0.0
  0
ENDBLK
  5
3E1
  8
_________1
  0
BLOCK
  8
_________1
  2
AIGNBL02010069
 70
     0
 10
0.0
 20
0.0
 30
0.0
  3
AIGNBL02010069
  1

  0
ARC
  5
3E4
  8
_________1
 62
     7
 10
150.394147
 20
142.32396499999999
 30
0.0
 40
2.0622630000000002
 50
267.62658800000003
 51
270.96778599999999
  0
ARC
  5
3E5
  8
_________1
 62
     7
 10
150.38741200000001
 20
144.86019400000001
 30
0.0
 40
4.5983859999999988
 50
270.51793100000009
 51
275.58344799999998
  0
ENDBLK
  5
3E6
  8
_________1
  0
BLOCK
  8
_________1
  2
AIGNBL0201006A
 70
     0
 10
0.0
 20
0.0
 30
0.0
  3
AIGNBL0201006A
  1

  0
ARC
  5
3E9
  8
_________1
 62
     7
 10
150.413195
 20
144.74087299999999
 30
0.0
 40
4.1185330000000002
 50
87.320765000000009
 51
88.701940000000008
  0
ENDBLK
  5
3EA
  8
_________1
  0
BLOCK
  8
_________1
  2
AIGNBL0201006B
 70
     0
 10
0.0
 20
0.0
 30
0.0
  3
AIGNBL0201006B
  1

  0
LINE
  5
3ED
  8
_________1
 62
     7
 10
150.40799999999999
 20
148.86000000000001
 30
0.0
 11
150.376
 21
148.85900000000001
 31
0.0
  0
ENDBLK
  5
3EE
  8
_________1
  0
BLOCK
  8
_________1
  2
AIGNBL0201006C
 70
     0
 10
0.0
 20
0.0
 30
0.0
  3
AIGNBL0201006C
  1

  0
ARC
  5
3F1
  8
_________1
 62
     7
 10
150.383307
 20
145.27301800000001
 30
0.0
 40
3.5861000000000001
 50
91.185874999999996
 51
92.777629000000005
  0
ENDBLK
  5
3F2
  8
_________1
  0
BLOCK
  8
_________1
  2
AIGNBL0201006D
 70
     0
 10
0.0
 20
0.0
 30
0.0
  3
AIGNBL0201006D
  1

  0
ARC
  5
3F5
  8
_________1
 62
     7
 10
150.24874500000001
 20
142.58195900000001
 30
0.0
 40
2.3136419999999989
 50
263.70944200000002
 51
266.91753499999999
  0
ARC
  5
3F6
  8
_________1
 62
     7
 10
150.376317
 20
143.86111
 30
0.0
 40
3.5982799999999999
 50
265.984352
 51
268.91847799999999
  0
ENDBLK
  5
3F7
  8
_________1
  0
BLOCK
  8
_________1
  2
AIGNBL0201006E
 70
     0
 10
0.0
 20
0.0
 30
0.0
  3
AIGNBL0201006E
  1

  0
ARC
  5
3FA
  8
_________1
 62
     7
 10
149.97025600000001
 20
166.49890500000001
 30
0.0
 40
0.062219
 50
92.057936999999995
 51
177.94203300000001
  0
ENDBLK
  5
3FB
  8
_________1
  0
BLOCK
  8
_________1
  2
AIGNBL0201006F
 70
     0
 10
0.0
 20
0.0
 30
0.0
  3
AIGNBL0201006F
  1

  0
ARC
  5
3FE
  8
_________1
 62
     7
 10
147.616839
 20
154.54388800000001
 30
0.0
 40
0.208006
 50
92.213549000000015
 51
177.78642099999999
  0
ENDBLK
  5
3FF
  8
_________1
  0
BLOCK
  8
_________1
  2
AIGNBL02010070
 70
     0
 10
0.0
 20
0.0
 30
0.0
  3
AIGNBL02010070
  1

  0
ARC
  5
402
  8
_________1
 62
     7
 10
146.31887499999999
 20
154.24091899999999
 30
0.0
 40
0.311208
 50
92.079143000000002
 51
177.986647
  0
ENDBLK
  5
403
  8
_________1
  0
BLOCK
  8
_________1
  2
AIGNBL02010071
 70
     0
 10
0.0
 20
0.0
 30
0.0
  3
AIGNBL02010071
  1

  0
LINE
  5
406
  8
_________1
 62
     7
 10
150.83799999999999
 20
140.28200000000001
 30
0.0
 11
150.839
 21
140.28399999999999
 31
0.0
  0
ENDBLK
  5
407
  8
_________1
  0
BLOCK
  8
_________1
  2
AIGNBL02010072
 70
     0
 10
0.0
 20
0.0
 30
0.0
  3
AIGNBL02010072
  1

  0
LINE
  5
40A
  8
_________1
 62
     7
 10
154.80799999999999
 20
127.56100000000001
 30
0.0
 11
154.80799999999999
 21
154.25200000000001
 31
0.0
  0
ENDBLK
  5
40B
  8
_________1
  0
BLOCK
  8
_________1
  2
AIGNBL02010073
 70
     0
 10
0.0
 20
0.0
 30
0.0
  3
AIGNBL02010073
  1

  0
LINE
  5
40E
  8
_________1
 62
     7
 10
150.84800000000001
 20
166.56100000000001
 30
0.0
 11
149.96799999999999
 21
166.56100000000001
 31
0.0
  0
ENDBLK
  5
40F
  8
_________1
  0
BLOCK
  8
_________1
  2
AIGNBL02010074
 70
     0
 10
0.0
 20
0.0
 30
0.0
  3
AIGNBL02010074
  1

  0
LINE
  5
412
  8
_________1
 62
     7
 10
150.90799999999999
 20
166.501
 30
0.0
 11
150.90799999999999
 21
161.44300000000001
 31
0.0
  0
ENDBLK
  5
413
  8
_________1
  0
BLOCK
  8
_________1
  2
AIGNBL02010075
 70
     0
 10
0.0
 20
0.0
 30
0.0
  3
AIGNBL02010075
  1

  0
LINE
  5
416
  8
_________1
 62
     7
 10
150.90799999999999
 20
166.501
 30
0.0
 11
149.90799999999999
 21
166.501
 31
0.0
  0
ENDBLK
  5
417
  8
_________1
  0
BLOCK
  8
_________1
  2
AIGNBL02010076
 70
     0
 10
0.0
 20
0.0
 30
0.0
  3
AIGNBL02010076
  1

  0
LINE
  5
41A
  8
_________1
 62
     7
 10
150.708
 20
148.84899999999999
 30
0.0
 11
150.708
 21
161.44300000000001
 31
0.0
  0
ENDBLK
  5
41B
  8
_________1
  0
BLOCK
  8
_________1
  2
AIGNBL02010077
 70
     0
 10
0.0
 20
0.0
 30
0.0
  3
AIGNBL02010077
  1

  0
LINE
  5
41E
  8
_________1
 62
     7
 10
150.108
 20
148.84899999999999
 30
0.0
 11
150.108
 21
161.44300000000001
 31
0.0
  0
ENDBLK
  5
41F
  8
_________1
  0
BLOCK
  8
_________1
  2
AIGNBL02010078
 70
     0
 10
0.0
 20
0.0
 30
0.0
  3
AIGNBL02010078
  1

  0
LINE
  5
422
  8
_________1
 62
     7
 10
149.90799999999999
 20
166.501
 30
0.0
 11
149.90799999999999
 21
161.44300000000001
 31
0.0
  0
ENDBLK
  5
423
  8
_________1
  0
BLOCK
  8
_________1
  2
AIGNBL02010079
 70
     0
 10
0.0
 20
0.0
 30
0.0
  3
AIGNBL02010079
  1

  0
LINE
  5
426
  8
_________1
 62
     7
 10
150.90799999999999
 20
161.44300000000001
 30
0.0
 11
149.90799999999999
 21
161.44300000000001
 31
0.0
  0
ENDBLK
  5
427
  8
_________1
  0
BLOCK
  8
_________1
  2
AIGNBL0201007A
 70
     0
 10
0.0
 20
0.0
 30
0.0
  3
AIGNBL0201007A
  1

  0
LINE
  5
42A
  8
_________1
 62
     7
 10
146.00800000000001
 20
127.56100000000001
 30
0.0
 11
146.00800000000001
 21
154.25200000000001
 31
0.0
  0
ENDBLK
  5
42B
  8
_________1
  0
BLOCK
  8
_________1
  2
AIGNBL0201007B
 70
     0
 10
0.0
 20
0.0
 30
0.0
  3
AIGNBL0201007B
  1

  0
LINE
  5
42E
  8
_________1
 62
     7
 10
150.108
 20
154.75200000000001
 30
0.0
 11
147.60900000000001
 21
154.75200000000001
 31
0.0
  0
ENDBLK
  5
42F
  8
_________1
  0
BLOCK
  8
_________1
  2
AIGNBL0201007C
 70
     0
 10
0.0
 20
0.0
 30
0.0
  3
AIGNBL0201007C
  1

  0
LINE
  5
432
  8
_________1
 62
     7
 10
153.20699999999999
 20
154.75200000000001
 30
0.0
 11
150.708
 21
154.75200000000001
 31
0.0
  0
ENDBLK
  5
433
  8
_________1
  0
BLOCK
  8
_________1
  2
AIGNBL0201007D
 70
     0
 10
0.0
 20
0.0
 30
0.0
  3
AIGNBL0201007D
  1

  0
LINE
  5
436
  8
_________1
 62
     7
 10
150.108
 20
154.55199999999999
 30
0.0
 11
147.40899999999999
 21
154.55199999999999
 31
0.0
  0
ENDBLK
  5
437
  8
_________1
  0
BLOCK
  8
_________1
  2
AIGNBL0201007E
 70
     0
 10
0.0
 20
0.0
 30
0.0
  3
AIGNBL0201007E
  1

  0
LINE
  5
43A
  8
_________1
 62
     7
 10
153.40700000000001
 20
154.55199999999999
 30
0.0
 11
150.708
 21
154.55199999999999
 31
0.0
  0
ENDBLK
  5
43B
  8
_________1
  0
BLOCK
  8
_________1
  2
AIGNBL0201007F
 70
     0
 10
0.0
 20
0.0
 30
0.0
  3
AIGNBL0201007F
  1

  0
LINE
  5
43E
  8
_________1
 62
     7
 10
150.108
 20
154.55199999999999
 30
0.0
 11
146.30799999999999
 21
154.55199999999999
 31
0.0
  0
ENDBLK
  5
43F
  8
_________1
  0
BLOCK
  8
_________1
  2
AIGNBL02010080
 70
     0
 10
0.0
 20
0.0
 30
0.0
  3
AIGNBL02010080
  1

  0
LINE
  5
442
  8
_________1
 62
     7
 10
154.50800000000001
 20
154.55199999999999
 30
0.0
 11
150.708
 21
154.55199999999999
 31
0.0
  0
ENDBLK
  5
443
  8
_________1
  0
BLOCK
  8
_________1
  2
AIGNBL02010081
 70
     0
 10
0.0
 20
0.0
 30
0.0
  3
AIGNBL02010081
  1

  0
LINE
  5
446
  8
_________1
 62
     7
 10
150.108
 20
154.25200000000001
 30
0.0
 11
146.00800000000001
 21
154.25200000000001
 31
0.0
  0
ENDBLK
  5
447
  8
_________1
  0
BLOCK
  8
_________1
  2
AIGNBL02010082
 70
     0
 10
0.0
 20
0.0
 30
0.0
  3
AIGNBL02010082
  1

  0
LINE
  5
44A
  8
_________1
 62
     7
 10
154.80799999999999
 20
154.25200000000001
 30
0.0
 11
150.708
 21
154.25200000000001
 31
0.0
  0
ENDBLK
  5
44B
  8
_________1
  0
BLOCK
  8
_________1
  2
AIGNBL02010083
 70
     0
 10
0.0
 20
0.0
 30
0.0
  3
AIGNBL02010083
  1

  0
LINE
  5
44E
  8
_________1
 62
     7
 10
149.97800000000001
 20
140.28200000000001
 30
0.0
 11
149.976
 21
140.28399999999999
 31
0.0
  0
ENDBLK
  5
44F
  8
_________1
  0
BLOCK
  8
_________1
  2
AIGNBL02010084
 70
     0
 10
0.0
 20
0.0
 30
0.0
  3
AIGNBL02010084
  1

  0
LINE
  5
452
  8
_________1
 62
     7
 10
150.822
 20
140.28200000000001
 30
0.0
 11
150.83799999999999
 21
140.28200000000001
 31
0.0
  0
ENDBLK
  5
453
  8
_________1
  0
BLOCK
  8
_________1
  2
AIGNBL02010085
 70
     0
 10
0.0
 20
0.0
 30
0.0
  3
AIGNBL02010085
  1

  0
LINE
  5
456
  8
_________1
 62
     7
 10
149.97800000000001
 20
140.28200000000001
 30
0.0
 11
149.994
 21
140.28200000000001
 31
0.0
  0
ENDBLK
  5
457
  8
_________1
  0
BLOCK
  8
_________1
  2
AIGNBL02010086
 70
     0
 10
0.0
 20
0.0
 30
0.0
  3
AIGNBL02010086
  1

  0
LINE
  5
45A
  8
_________1
 62
     7
 10
146.00800000000001
 20
127.56100000000001
 30
0.0
 11
154.80799999999999
 21
127.56100000000001
 31
0.0
  0
ENDBLK
  5
45B
  8
_________1
  0
BLOCK
  8
_________1
  2
AIGNBL02010087
 70
     0
 10
0.0
 20
0.0
 30
0.0
  3
AIGNBL02010087
  1

  0
LINE
  5
45E
  8
_________1
 62
     7
 10
60.791499999999999
 20
222.42099999999999
 30
0.0
 11
62.977800000000002
 21
223.09700000000001
 31
0.0
  0
LINE
  5
45F
  8
_________1
 62
     7
 10
62.977800000000002
 20
223.09700000000001
 30
0.0
 11
61.42199999999999
 21
221.41900000000001
 31
0.0
  0
LINE
  5
460
  8
_________1
 62
     7
 10
61.42199999999999
 20
221.41900000000001
 30
0.0
 11
60.791499999999999
 21
222.42099999999999
 31
0.0
  0
LINE
  5
461
  8
_________1
 62
     7
 10
25.794599999999999
 20
222.42099999999999
 30
0.0
 11
23.6084
 21
223.09700000000001
 31
0.0
  0
LINE
  5
462
  8
_________1
 62
     7
 10
23.6084
 20
223.09700000000001
 30
0.0
 11
25.164200000000001
 21
221.41900000000001
 31
0.0
  0
LINE
  5
463
  8
_________1
 62
     7
 10
25.164200000000001
 20
221.41900000000001
 30
0.0
 11
25.794599999999999
 21
222.42099999999999
 31
0.0
  0
ARC
  5
464
  8
_________1
 62
     7
 10
43.263272000000001
 20
252.73316299999999
 30
0.0
 40
35.594669000000003
 50
270.04796800000003
 51
303.62965200000002
  0
ARC
  5
465
  8
_________1
 62
     7
 10
43.367570999999998
 20
252.879749
 30
0.0
 40
35.741320000000002
 50
236.44128900000001
 51
269.88057400000002
  0
ENDBLK
  5
466
  8
_________1
  0
BLOCK
  8
_________1
  2
AIGNBL02010088
 70
     0
 10
0.0
 20
0.0
 30
0.0
  3
AIGNBL02010088
  1

  0
ARC
  5
469
  8
_________1
 62
     7
 10
61.843620000000001
 20
256.66155600000002
 30
0.0
 40
0.249281
 50
2.1441439999999989
 51
87.855845999999985
  0
ENDBLK
  5
46A
  8
_________1
  0
BLOCK
  8
_________1
  2
AIGNBL02010089
 70
     0
 10
0.0
 20
0.0
 30
0.0
  3
AIGNBL02010089
  1

  0
ARC
  5
46D
  8
_________1
 62
     7
 10
61.843620000000001
 20
248.56282400000001
 30
0.0
 40
0.249281
 50
272.14415400000001
 51
357.85585600000002
  0
ENDBLK
  5
46E
  8
_________1
  0
BLOCK
  8
_________1
  2
AIGNBL0201008A
 70
     0
 10
0.0
 20
0.0
 30
0.0
  3
AIGNBL0201008A
  1

  0
LINE
  5
471
  8
_________1
 62
     7
 10
62.092700000000001
 20
256.67099999999999
 30
0.0
 11
62.092700000000001
 21
248.553
 31
0.0
  0
ENDBLK
  5
472
  8
_________1
  0
BLOCK
  8
_________1
  2
AIGNBL0201008B
 70
     0
 10
0.0
 20
0.0
 30
0.0
  3
AIGNBL0201008B
  1

  0
LINE
  5
475
  8
_________1
 62
     7
 10
61.852899999999998
 20
256.911
 30
0.0
 11
61.852899999999998
 21
248.31399999999999
 31
0.0
  0
ENDBLK
  5
476
  8
_________1
  0
BLOCK
  8
_________1
  2
AIGNBL0201008C
 70
     0
 10
0.0
 20
0.0
 30
0.0
  3
AIGNBL0201008C
  1

  0
LINE
  5
479
  8
_________1
 62
     7
 10
50.692700000000002
 20
256.911
 30
0.0
 11
50.692700000000002
 21
248.31399999999999
 31
0.0
  0
ENDBLK
  5
47A
  8
_________1
  0
BLOCK
  8
_________1
  2
AIGNBL0201008D
 70
     0
 10
0.0
 20
0.0
 30
0.0
  3
AIGNBL0201008D
  1

  0
LINE
  5
47D
  8
_________1
 62
     7
 10
50.59879999999999
 20
248.31399999999999
 30
0.0
 11
50.59879999999999
 21
256.911
 31
0.0
  0
ENDBLK
  5
47E
  8
_________1
  0
BLOCK
  8
_________1
  2
AIGNBL0201008E
 70
     0
 10
0.0
 20
0.0
 30
0.0
  3
AIGNBL0201008E
  1

  0
LINE
  5
481
  8
_________1
 62
     7
 10
50.692700000000002
 20
248.31399999999999
 30
0.0
 11
61.852899999999998
 21
248.31399999999999
 31
0.0
  0
ENDBLK
  5
482
  8
_________1
  0
BLOCK
  8
_________1
  2
AIGNBL0201008F
 70
     0
 10
0.0
 20
0.0
 30
0.0
  3
AIGNBL0201008F
  1

  0
LINE
  5
485
  8
_________1
 62
     7
 10
45.692599999999992
 20
248.31399999999999
 30
0.0
 11
50.59879999999999
 21
248.31399999999999
 31
0.0
  0
ENDBLK
  5
486
  8
_________1
  0
BLOCK
  8
_________1
  2
AIGNBL02010090
 70
     0
 10
0.0
 20
0.0
 30
0.0
  3
AIGNBL02010090
  1

  0
LINE
  5
489
  8
_________1
 62
     7
 10
58.05019999999999
 20
252.41200000000001
 30
0.0
 11
60.992699999999999
 21
252.41200000000001
 31
0.0
  0
ENDBLK
  5
48A
  8
_________1
  0
BLOCK
  8
_________1
  2
AIGNBL02010091
 70
     0
 10
0.0
 20
0.0
 30
0.0
  3
AIGNBL02010091
  1

  0
LINE
  5
48D
  8
_________1
 62
     7
 10
58.05019999999999
 20
252.81200000000001
 30
0.0
 11
60.992699999999999
 21
252.81200000000001
 31
0.0
  0
ENDBLK
  5
48E
  8
_________1
  0
BLOCK
  8
_________1
  2
AIGNBL02010092
 70
     0
 10
0.0
 20
0.0
 30
0.0
  3
AIGNBL02010092
  1

  0
LINE
  5
491
  8
_________1
 62
     7
 10
50.692700000000002
 20
256.911
 30
0.0
 11
61.852899999999998
 21
256.911
 31
0.0
  0
ENDBLK
  5
492
  8
_________1
  0
BLOCK
  8
_________1
  2
AIGNBL02010093
 70
     0
 10
0.0
 20
0.0
 30
0.0
  3
AIGNBL02010093
  1

  0
LINE
  5
495
  8
_________1
 62
     7
 10
44.266999999999989
 20
256.911
 30
0.0
 11
50.59879999999999
 21
256.911
 31
0.0
  0
ENDBLK
  5
496
  8
_________1
  0
BLOCK
  8
_________1
  2
AIGNBL02010094
 70
     0
 10
0.0
 20
0.0
 30
0.0
  3
AIGNBL02010094
  1

  0
LINE
  5
499
  8
_________1
 62
     7
 10
104.559
 20
175.44300000000001
 30
0.0
 11
105.152
 21
173.233
 31
0.0
  0
LINE
  5
49A
  8
_________1
 62
     7
 10
105.152
 20
173.233
 30
0.0
 11
105.744
 21
175.44300000000001
 31
0.0
  0
LINE
  5
49B
  8
_________1
 62
     7
 10
105.744
 20
175.44300000000001
 30
0.0
 11
104.559
 21
175.44300000000001
 31
0.0
  0
LINE
  5
49C
  8
_________1
 62
     7
 10
105.14400000000001
 20
173.233
 30
0.0
 11
105.14400000000001
 21
204.58000000000001
 31
0.0
  0
LINE
  5
49D
  8
_________1
 62
     7
 10
112.61799999999999
 20
212.489
 30
0.0
 11
110.408
 21
211.89699999999999
 31
0.0
  0
LINE
  5
49E
  8
_________1
 62
     7
 10
110.408
 20
211.89699999999999
 30
0.0
 11
112.61799999999999
 21
211.304
 31
0.0
  0
LINE
  5
49F
  8
_________1
 62
     7
 10
112.61799999999999
 20
211.304
 30
0.0
 11
112.61799999999999
 21
212.489
 31
0.0
  0
LINE
  5
4A0
  8
_________1
 62
     7
 10
148.197
 20
211.31899999999999
 30
0.0
 11
150.40799999999999
 21
211.911
 31
0.0
  0
LINE
  5
4A1
  8
_________1
 62
     7
 10
150.40799999999999
 20
211.911
 30
0.0
 11
148.197
 21
212.50299999999999
 31
0.0
  0
LINE
  5
4A2
  8
_________1
 62
     7
 10
148.197
 20
212.50299999999999
 30
0.0
 11
148.197
 21
211.31899999999999
 31
0.0
  0
LINE
  5
4A3
  8
_________1
 62
     7
 10
110.408
 20
211.904
 30
0.0
 11
150.40799999999999
 21
211.904
 31
0.0
  0
ENDBLK
  5
4A4
  8
_________1
  0
BLOCK
  8
_________1
  2
AIGNBL02010095
 70
     0
 10
0.0
 20
0.0
 30
0.0
  3
AIGNBL02010095
  1

  0
LINE
  5
4A7
  8
_________1
 62
     7
 10
176.31700000000001
 20
204.351
 30
0.0
 11
176.91
 21
206.56100000000001
 31
0.0
  0
LINE
  5
4A8
  8
_________1
 62
     7
 10
176.91
 20
206.56100000000001
 30
0.0
 11
177.50200000000001
 21
204.351
 31
0.0
  0
LINE
  5
4A9
  8
_________1
 62
     7
 10
177.50200000000001
 20
204.351
 30
0.0
 11
176.31700000000001
 21
204.351
 31
0.0
  0
LINE
  5
4AA
  8
_________1
 62
     7
 10
177.48699999999999
 20
129.77099999999999
 30
0.0
 11
176.89500000000001
 21
127.56100000000001
 31
0.0
  0
LINE
  5
4AB
  8
_________1
 62
     7
 10
176.89500000000001
 20
127.56100000000001
 30
0.0
 11
176.303
 21
129.77099999999999
 31
0.0
  0
LINE
  5
4AC
  8
_________1
 62
     7
 10
176.303
 20
129.77099999999999
 30
0.0
 11
177.48699999999999
 21
129.77099999999999
 31
0.0
  0
LINE
  5
4AD
  8
_________1
 62
     7
 10
176.90199999999999
 20
206.56100000000001
 30
0.0
 11
176.90199999999999
 21
127.56100000000001
 31
0.0
  0
ENDBLK
  5
4AE
  8
_________1
  0
BLOCK
  8
_________1
  2
AIGNBL02010096
 70
     0
 10
0.0
 20
0.0
 30
0.0
  3
AIGNBL02010096
  1

  0
LINE
  5
4B1
  8
_________1
 62
     7
 10
102.877
 20
169.55000000000001
 30
0.0
 11
102.285
 21
171.761
 31
0.0
  0
LINE
  5
4B2
  8
_________1
 62
     7
 10
102.285
 20
171.761
 30
0.0
 11
101.693
 21
169.55000000000001
 31
0.0
  0
LINE
  5
4B3
  8
_________1
 62
     7
 10
101.693
 20
169.55000000000001
 30
0.0
 11
102.877
 21
169.55000000000001
 31
0.0
  0
LINE
  5
4B4
  8
_________1
 62
     7
 10
101.70699999999999
 20
129.77099999999999
 30
0.0
 11
102.3
 21
127.56100000000001
 31
0.0
  0
LINE
  5
4B5
  8
_________1
 62
     7
 10
102.3
 20
127.56100000000001
 30
0.0
 11
102.892
 21
129.77099999999999
 31
0.0
  0
LINE
  5
4B6
  8
_________1
 62
     7
 10
102.892
 20
129.77099999999999
 30
0.0
 11
101.70699999999999
 21
129.77099999999999
 31
0.0
  0
LINE
  5
4B7
  8
_________1
 62
     7
 10
102.292
 20
171.761
 30
0.0
 11
102.292
 21
127.56100000000001
 31
0.0
  0
ENDBLK
  5
4B8
  8
_________1
  0
BLOCK
  8
_________1
  2
AIGNBL02010097
 70
     0
 10
0.0
 20
0.0
 30
0.0
  3
AIGNBL02010097
  1

  0
LINE
  5
4BB
  8
_________1
 62
     7
 10
47.591200000000001
 20
251.63800000000001
 30
0.0
 11
47.591200000000001
 21
251.637
 31
0.0
  0
LINE
  5
4BC
  8
_________1
 62
     7
 10
47.591200000000001
 20
251.637
 30
0.0
 11
47.590799999999987
 21
251.636
 31
0.0
  0
LINE
  5
4BD
  8
_________1
 62
     7
 10
47.590799999999987
 20
251.636
 30
0.0
 11
47.590200000000003
 21
251.63300000000001
 31
0.0
  0
LINE
  5
4BE
  8
_________1
 62
     7
 10
47.590200000000003
 20
251.63300000000001
 30
0.0
 11
47.589500000000001
 21
251.63
 31
0.0
  0
ARC
  5
4BF
  8
_________1
 62
     7
 10
47.563311999999989
 20
251.631486
 30
0.0
 40
0.026203
 50
346.42573800000002
 51
356.720326
  0
LINE
  5
4C0
  8
_________1
 62
     7
 10
47.588799999999999
 20
251.625
 30
0.0
 11
47.587699999999998
 21
251.619
 31
0.0
  0
LINE
  5
4C1
  8
_________1
 62
     7
 10
47.587699999999998
 20
251.619
 30
0.0
 11
47.58639999999999
 21
251.613
 31
0.0
  0
ARC
  5
4C2
  8
_________1
 62
     7
 10
48.965919
 20
251.32665299999999
 30
0.0
 40
1.4088689999999999
 50
168.29019299999999
 51
168.64052799999999
  0
LINE
  5
4C3
  8
_________1
 62
     7
 10
47.584600000000002
 20
251.60400000000001
 30
0.0
 11
47.582599999999992
 21
251.595
 31
0.0
  0
LINE
  5
4C4
  8
_________1
 62
     7
 10
47.582599999999992
 20
251.595
 30
0.0
 11
47.580499999999986
 21
251.583
 31
0.0
  0
LINE
  5
4C5
  8
_________1
 62
     7
 10
47.580499999999986
 20
251.583
 30
0.0
 11
47.577800000000003
 21
251.56999999999999
 31
0.0
  0
LINE
  5
4C6
  8
_________1
 62
     7
 10
47.577800000000003
 20
251.56999999999999
 30
0.0
 11
47.5747
 21
251.55500000000001
 31
0.0
  0
LINE
  5
4C7
  8
_________1
 62
     7
 10
47.5747
 20
251.55500000000001
 30
0.0
 11
47.57119999999999
 21
251.53800000000001
 31
0.0
  0
ARC
  5
4C8
  8
_________1
 62
     7
 10
50.157804999999989
 20
250.97829400000001
 30
0.0
 40
2.6464199999999991
 50
167.793735
 51
168.224558
  0
ARC
  5
4C9
  8
_________1
 62
     7
 10
48.363021999999987
 20
251.33270099999999
 30
0.0
 40
0.8173109999999999
 50
166.869755
 51
168.452033
  0
ARC
  5
4CA
  8
_________1
 62
     7
 10
46.326017999999991
 20
251.75409400000001
 30
0.0
 40
1.2628269999999999
 50
347.05342899999999
 51
348.221588
  0
ARC
  5
4CB
  8
_________1
 62
     7
 10
48.263709999999989
 20
251.298608
 30
0.0
 40
0.727721
 50
166.283231
 51
168.6591169999999
  0
ARC
  5
4CC
  8
_________1
 62
     7
 10
49.006157000000002
 20
251.08052499999999
 30
0.0
 40
1.5000910000000001
 50
166.06761
 51
167.38581400000001
  0
LINE
  5
4CD
  8
_________1
 62
     7
 10
47.54229999999999
 20
251.40799999999999
 30
0.0
 11
47.533000000000001
 21
251.37
 31
0.0
  0
LINE
  5
4CE
  8
_________1
 62
     7
 10
47.533000000000001
 20
251.37
 30
0.0
 11
47.522299999999987
 21
251.327
 31
0.0
  0
LINE
  5
4CF
  8
_________1
 62
     7
 10
47.522299999999987
 20
251.327
 30
0.0
 11
47.509500000000003
 21
251.27799999999999
 31
0.0
  0
ARC
  5
4D0
  8
_________1
 62
     7
 10
53.78463
 20
249.55371199999999
 30
0.0
 40
6.5076039999999988
 50
164.63762600000001
 51
165.14974000000001
  0
ARC
  5
4D1
  8
_________1
 62
     7
 10
33.132671000000002
 20
255.345101
 30
0.0
 40
14.941967999999999
 50
343.72368599999999
 51
343.98018100000002
  0
ARC
  5
4D2
  8
_________1
 62
     7
 10
43.751506999999997
 20
252.22295600000001
 30
0.0
 40
3.8737339999999989
 50
342.921537
 51
344.03241100000002
  0
ARC
  5
4D3
  8
_________1
 62
     7
 10
40.897515999999989
 20
253.10455899999999
 30
0.0
 40
6.8607849999999999
 50
342.183674
 51
342.88342599999999
  0
ARC
  5
4D4
  8
_________1
 62
     7
 10
33.212828999999999
 20
255.74269799999999
 30
0.0
 40
14.984973
 50
341.219562
 51
341.57051100000001
  0
ARC
  5
4D5
  8
_________1
 62
     7
 10
43.093646
 20
252.40007
 30
0.0
 40
4.5541140000000002
 50
339.77331700000002
 51
341.01334200000002
  0
ARC
  5
4D6
  8
_________1
 62
     7
 10
40.920328999999988
 20
253.20723699999999
 30
0.0
 40
6.8724759999999989
 50
338.85430600000001
 51
339.72330299999999
  0
ARC
  5
4D7
  8
_________1
 62
     7
 10
43.190750000000001
 20
252.342275
 30
0.0
 40
4.4429220000000003
 50
337.296267
 51
338.69552599999997
  0
ARC
  5
4D8
  8
_________1
 62
     7
 10
43.342722999999999
 20
252.25458
 30
0.0
 40
4.268934999999999
 50
336.10118299999999
 51
337.59480500000001
  0
ARC
  5
4D9
  8
_________1
 62
     7
 10
42.533239000000002
 20
252.606415
 30
0.0
 40
5.1515559999999994
 50
334.91229199999998
 51
336.17093199999999
  0
ARC
  5
4DA
  8
_________1
 62
     7
 10
38.416328999999998
 20
254.61756800000001
 30
0.0
 40
9.7331099999999982
 50
333.79198100000002
 51
334.46590800000001
  0
ARC
  5
4DB
  8
_________1
 62
     7
 10
42.920126999999987
 20
252.42246299999999
 30
0.0
 40
4.7229309999999991
 50
332.16188
 51
333.55445600000002
  0
ARC
  5
4DC
  8
_________1
 62
     7
 10
43.451582000000002
 20
252.12075200000001
 30
0.0
 40
4.112131999999999
 50
330.825445
 51
332.42130400000008
  0
ARC
  5
4DD
  8
_________1
 62
     7
 10
42.625318
 20
252.57628099999999
 30
0.0
 40
5.0556349999999988
 50
329.58491400000003
 51
330.882564
  0
ARC
  5
4DE
  8
_________1
 62
     7
 10
41.064607000000002
 20
253.53411
 30
0.0
 40
6.8865660000000002
 50
328.339809
 51
329.2863430000001
  0
ARC
  5
4DF
  8
_________1
 62
     7
 10
43.188828999999998
 20
252.24048400000001
 30
0.0
 40
4.3995030000000002
 50
326.684415
 51
328.1593180000001
  0
ARC
  5
4E0
  8
_________1
 62
     7
 10
43.053100000000001
 20
252.30271300000001
 30
0.0
 40
4.547161
 50
325.55382500000002
 51
326.968523
  0
ARC
  5
4E1
  8
_________1
 62
     7
 10
43.321764999999999
 20
252.123538
 30
0.0
 40
4.224257999999999
 50
323.98306500000001
 51
325.49675500000001
  0
ARC
  5
4E2
  8
_________1
 62
     7
 10
43.785107000000004
 20
251.75028900000001
 30
0.0
 40
3.630128
 50
322.70765
 51
324.447791
  0
ARC
  5
4E3
  8
_________1
 62
     7
 10
43.066625000000002
 20
252.274844
 30
0.0
 40
4.5195730000000003
 50
321.55206800000002
 51
322.935879
  0
ARC
  5
4E4
  8
_________1
 62
     7
 10
43.05699899999999
 20
252.29888800000001
 30
0.0
 40
4.5420819999999988
 50
320.031159
 51
321.39003600000001
  0
ARC
  5
4E5
  8
_________1
 62
     7
 10
43.995818999999997
 20
251.479601
 30
0.0
 40
3.2963830000000001
 50
318.61703599999998
 51
320.46267799999998
  0
ARC
  5
4E6
  8
_________1
 62
     7
 10
44.15393199999999
 20
251.29132000000001
 30
0.0
 40
3.0535000000000001
 50
317.332945
 51
319.306466
  0
ARC
  5
4E7
  8
_________1
 62
     7
 10
43.209020000000002
 20
252.12497400000001
 30
0.0
 40
4.3133829999999991
 50
316.307999
 51
317.69707699999998
  0
ARC
  5
4E8
  8
_________1
 62
     7
 10
42.434334999999997
 20
252.89375999999999
 30
0.0
 40
5.4046329999999996
 50
314.987866
 51
316.08808900000002
  0
ARC
  5
4E9
  8
_________1
 62
     7
 10
43.295640999999989
 20
252.02857599999999
 30
0.0
 40
4.183819999999999
 50
313.61724900000002
 51
315.02188000000001
  0
ARC
  5
4EA
  8
_________1
 62
     7
 10
43.82511199999999
 20
251.44739799999999
 30
0.0
 40
3.3978639999999989
 50
312.21238
 51
313.91402900000003
  0
ARC
  5
4EB
  8
_________1
 62
     7
 10
42.802275999999992
 20
252.55799500000001
 30
0.0
 40
4.9076760000000004
 50
311.18590499999999
 51
312.34529600000002
  0
ARC
  5
4EC
  8
_________1
 62
     7
 10
43.923479999999998
 20
251.25345799999999
 30
0.0
 40
3.1876299999999991
 50
309.698868
 51
311.46002900000002
  0
ARC
  5
4ED
  8
_________1
 62
     7
 10
42.092342000000002
 20
253.439188
 30
0.0
 40
6.039015
 50
308.902535
 51
309.81992400000001
  0
ARC
  5
4EE
  8
_________1
 62
     7
 10
43.171064000000001
 20
252.152714
 30
0.0
 40
4.3605400000000003
 50
307.22627299999999
 51
308.48763700000001
  0
ARC
  5
4EF
  8
_________1
 62
     7
 10
42.838420999999997
 20
252.550591
 30
0.0
 40
4.8786490000000002
 50
306.396209
 51
307.51009499999998
  0
ARC
  5
4F0
  8
_________1
 62
     7
 10
40.608364999999992
 20
255.68968599999999
 30
0.0
 40
8.7289100000000008
 50
305.61806899999999
 51
305.952583
  0
ENDBLK
  5
4F1
  8
_________1
  0
BLOCK
  8
_________1
  2
AIGNBL02010098
 70
     0
 10
0.0
 20
0.0
 30
0.0
  3
AIGNBL02010098
  1

  0
LINE
  5
4F4
  8
_________1
 62
     7
 10
38.993899999999996
 20
251.63800000000001
 30
0.0
 11
38.994199999999999
 21
251.637
 31
0.0
  0
LINE
  5
4F5
  8
_________1
 62
     7
 10
38.994199999999999
 20
251.637
 30
0.0
 11
38.994599999999998
 21
251.636
 31
0.0
  0
LINE
  5
4F6
  8
_________1
 62
     7
 10
38.994599999999998
 20
251.636
 30
0.0
 11
38.994900000000001
 21
251.63300000000001
 31
0.0
  0
LINE
  5
4F7
  8
_________1
 62
     7
 10
38.994900000000001
 20
251.63300000000001
 30
0.0
 11
38.99560000000001
 21
251.63
 31
0.0
  0
LINE
  5
4F8
  8
_________1
 62
     7
 10
38.99560000000001
 20
251.63
 30
0.0
 11
38.996299999999998
 21
251.625
 31
0.0
  0
LINE
  5
4F9
  8
_________1
 62
     7
 10
38.996299999999998
 20
251.625
 30
0.0
 11
38.997700000000002
 21
251.619
 31
0.0
  0
LINE
  5
4FA
  8
_________1
 62
     7
 10
38.997700000000002
 20
251.619
 30
0.0
 11
38.998699999999999
 21
251.613
 31
0.0
  0
ARC
  5
4FB
  8
_________1
 62
     7
 10
38.912925000000001
 20
251.59068199999999
 30
0.0
 40
0.088555
 50
8.7466939999999997
 51
14.322544000000001
  0
LINE
  5
4FC
  8
_________1
 62
     7
 10
39.000399999999999
 20
251.60400000000001
 30
0.0
 11
39.002499999999998
 21
251.595
 31
0.0
  0
ARC
  5
4FD
  8
_________1
 62
     7
 10
39.154252
 20
251.62074799999999
 30
0.0
 40
0.153988
 50
189.813512
 51
194.13879
  0
ARC
  5
4FE
  8
_________1
 62
     7
 10
39.190795000000001
 20
251.610604
 30
0.0
 40
0.187886
 50
188.40736499999991
 51
192.467623
  0
ARC
  5
4FF
  8
_________1
 62
     7
 10
40.227030999999997
 20
251.81457800000001
 30
0.0
 40
1.243962
 50
191.336949
 51
192.04182599999999
  0
ARC
  5
500
  8
_________1
 62
     7
 10
38.722246000000013
 20
251.48845900000001
 30
0.0
 40
0.295789
 50
9.6082999999999998
 51
13.011562
  0
ARC
  5
501
  8
_________1
 62
     7
 10
36.427294000000003
 20
250.97829400000001
 30
0.0
 40
2.6464199999999991
 50
11.775423
 51
12.206244999999999
  0
ARC
  5
502
  8
_________1
 62
     7
 10
38.493299
 20
251.39203000000001
 30
0.0
 40
0.539716
 50
11.140986
 51
13.537186
  0
ARC
  5
503
  8
_________1
 62
     7
 10
38.485140000000001
 20
251.365285
 30
0.0
 40
0.553438
 50
11.02965
 51
13.695332000000001
  0
LINE
  5
504
  8
_________1
 62
     7
 10
39.028399999999998
 20
251.471
 30
0.0
 11
39.035200000000003
 21
251.44200000000001
 31
0.0
  0
LINE
  5
505
  8
_________1
 62
     7
 10
39.035200000000003
 20
251.44200000000001
 30
0.0
 11
39.0428
 21
251.40799999999999
 31
0.0
  0
LINE
  5
506
  8
_________1
 62
     7
 10
39.0428
 20
251.40799999999999
 30
0.0
 11
39.052100000000003
 21
251.37
 31
0.0
  0
ARC
  5
507
  8
_________1
 62
     7
 10
37.63102700000001
 20
250.994764
 30
0.0
 40
1.4698180000000001
 50
13.063530999999999
 51
14.793150000000001
  0
LINE
  5
508
  8
_________1
 62
     7
 10
39.062800000000003
 20
251.327
 30
0.0
 11
39.075899999999997
 21
251.27799999999999
 31
0.0
  0
ARC
  5
509
  8
_________1
 62
     7
 10
41.619505999999987
 20
251.93421799999999
 30
0.0
 40
2.6269610000000001
 50
194.471991
 51
195.74064300000001
  0
ARC
  5
50A
  8
_________1
 62
     7
 10
42.063378
 20
252.03152900000001
 30
0.0
 40
3.0807029999999989
 50
195.243077
 51
196.48538300000001
  0
ARC
  5
50B
  8
_________1
 62
     7
 10
41.941864999999993
 20
251.97187500000001
 30
0.0
 40
2.947344999999999
 50
196.043699
 51
197.50567000000001
  0
ARC
  5
50C
  8
_________1
 62
     7
 10
42.114576
 20
251.967433
 30
0.0
 40
3.1112280000000001
 50
196.47086999999999
 51
198.01208500000001
  0
ARC
  5
50D
  8
_________1
 62
     7
 10
50.960053000000002
 20
254.938625
 30
0.0
 40
12.442273999999999
 50
198.428392
 51
198.85030900000001
  0
ARC
  5
50E
  8
_________1
 62
     7
 10
43.753886999999999
 20
252.49063599999999
 30
0.0
 40
4.8316790000000003
 50
198.98778799999991
 51
200.15849900000001
  0
ARC
  5
50F
  8
_________1
 62
     7
 10
45.179537999999987
 20
253.027838
 30
0.0
 40
6.355141999999999
 50
200.275611
 51
201.213897
  0
ARC
  5
510
  8
_________1
 62
     7
 10
43.320331000000003
 20
252.30965599999999
 30
0.0
 40
4.362048999999999
 50
201.256441
 51
202.68374299999999
  0
ARC
  5
511
  8
_________1
 62
     7
 10
46.500383999999997
 20
253.67184599999999
 30
0.0
 40
7.8214979999999992
 50
202.906825
 51
203.723016
  0
ARC
  5
512
  8
_________1
 62
     7
 10
44.052204000000003
 20
252.606415
 30
0.0
 40
5.1515559999999994
 50
203.82908800000001
 51
205.087728
  0
ARC
  5
513
  8
_________1
 62
     7
 10
46.77267299999999
 20
253.915828
 30
0.0
 40
8.1706369999999993
 50
205.31485499999999
 51
206.11660900000001
  0
ARC
  5
514
  8
_________1
 62
     7
 10
48.750376000000003
 20
255.037612
 30
0.0
 40
10.441119
 50
206.86659599999999
 51
207.49565999999999
  0
ARC
  5
515
  8
_________1
 62
     7
 10
45.37359399999999
 20
253.345361
 30
0.0
 40
6.6647299999999996
 50
207.99335600000001
 51
208.980692
  0
ARC
  5
516
  8
_________1
 62
     7
 10
42.144034999999988
 20
251.540256
 30
0.0
 40
2.9650009999999991
 50
208.704217
 51
210.91404499999999
  0
ARC
  5
517
  8
_________1
 62
     7
 10
46.61939799999999
 20
254.16709599999999
 30
0.0
 40
8.1542589999999997
 50
210.593954
 51
211.39312000000001
  0
ARC
  5
518
  8
_________1
 62
     7
 10
44.226272999999999
 20
252.77617599999999
 30
0.0
 40
5.3872419999999988
 50
212.023675
 51
213.22660300000001
  0
ARC
  5
519
  8
_________1
 62
     7
 10
42.976372999999988
 20
251.93178399999999
 30
0.0
 40
3.8790619999999998
 50
212.909661
 51
214.56803099999999
  0
ARC
  5
51A
  8
_________1
 62
     7
 10
43.973398000000003
 20
252.62008700000001
 30
0.0
 40
5.0905969999999989
 50
214.58029099999999
 51
215.83794800000001
  0
ARC
  5
51B
  8
_________1
 62
     7
 10
42.573363999999991
 20
251.593403
 30
0.0
 40
3.354528999999999
 50
215.622792
 51
217.509412
  0
ARC
  5
51C
  8
_________1
 62
     7
 10
42.890467999999998
 20
251.788218
 30
0.0
 40
3.7248929999999998
 50
216.91651800000011
 51
218.595575
  0
ARC
  5
51D
  8
_________1
 62
     7
 10
42.654139999999998
 20
251.572776
 30
0.0
 40
3.4058540000000002
 50
218.24302299999999
 51
220.051604
  0
ARC
  5
51E
  8
_________1
 62
     7
 10
44.056147000000003
 20
252.73066
 30
0.0
 40
5.2241379999999991
 50
219.87788699999999
 51
221.042439
  0
ARC
  5
51F
  8
_________1
 62
     7
 10
44.076726000000001
 20
252.75644600000001
 30
0.0
 40
5.2565939999999998
 50
221.107134
 51
222.25349399999999
  0
ARC
  5
520
  8
_________1
 62
     7
 10
43.91695
 20
252.64578399999999
 30
0.0
 40
5.063985999999999
 50
222.54231100000001
 51
223.728149
  0
ARC
  5
521
  8
_________1
 62
     7
 10
44.236913000000001
 20
252.95979800000001
 30
0.0
 40
5.5122609999999987
 50
223.78785999999999
 51
224.8640959999999
  0
ARC
  5
522
  8
_________1
 62
     7
 10
43.81984099999999
 20
252.57171
 30
0.0
 40
4.9429169999999987
 50
225.0859999999999
 51
226.27491000000001
  0
ARC
  5
523
  8
_________1
 62
     7
 10
44.10874299999999
 20
252.890567
 30
0.0
 40
5.3730440000000002
 50
226.39877300000001
 51
227.47485699999999
  0
ARC
  5
524
  8
_________1
 62
     7
 10
43.451216999999993
 20
252.186666
 30
0.0
 40
4.4098610000000003
 50
227.589281
 51
228.87955700000001
  0
ARC
  5
525
  8
_________1
 62
     7
 10
44.40423599999999
 20
253.288082
 30
0.0
 40
5.8663410000000002
 50
228.94209799999999
 51
229.899045
  0
ARC
  5
526
  8
_________1
 62
     7
 10
43.822266999999989
 20
252.639332
 30
0.0
 40
4.9953110000000001
 50
230.211838
 51
231.32396800000009
  0
ARC
  5
527
  8
_________1
 62
     7
 10
42.765886000000002
 20
251.30676
 30
0.0
 40
3.2948439999999999
 50
231.18419399999999
 51
232.848838
  0
ARC
  5
528
  8
_________1
 62
     7
 10
43.203485000000001
 20
251.84272999999999
 30
0.0
 40
3.9863889999999991
 50
232.488033
 51
233.85520699999989
  0
ARC
  5
529
  8
_________1
 62
     7
 10
47.657488999999998
 20
258.020892
 30
0.0
 40
11.602626000000001
 50
234.088863
 51
234.34052399999999
  0
ENDBLK
  5
52A
  8
_________1
  0
BLOCK
  8
_________1
  2
AIGNBL02010099
 70
     0
 10
0.0
 20
0.0
 30
0.0
  3
AIGNBL02010099
  1

  0
ARC
  5
52D
  8
_________1
 62
     7
 10
112.079519
 20
172.15659600000001
 30
0.0
 40
0.03561
 50
257.36843699999997
 51
269.665437
  0
ARC
  5
52E
  8
_________1
 62
     7
 10
112.07794199999999
 20
172.156813
 30
0.0
 40
0.035512
 50
247.151275
 51
259.928719
  0
ARC
  5
52F
  8
_________1
 62
     7
 10
112.097537
 20
172.19090800000001
 30
0.0
 40
0.074696
 50
237.057672
 51
243.45259200000001
  0
ARC
  5
530
  8
_________1
 62
     7
 10
112.07549
 20
172.15847600000001
 30
0.0
 40
0.0355
 50
224.96432999999999
 51
238.45537200000001
  0
ARC
  5
531
  8
_________1
 62
     7
 10
112.072346
 20
172.16097300000001
 30
0.0
 40
0.035267
 50
216.972408
 51
231.45797300000001
  0
ARC
  5
532
  8
_________1
 62
     7
 10
112.094021
 20
172.18435199999999
 30
0.0
 40
0.066882
 50
214.13131899999999
 51
221.81191999999999
  0
ARC
  5
533
  8
_________1
 62
     7
 10
112.96880899999999
 20
172.666663
 30
0.0
 40
1.065556999999999
 50
208.70226099999999
 51
209.19976299999999
  0
ARC
  5
534
  8
_________1
 62
     7
 10
112.334407
 20
172.29581300000001
 30
0.0
 40
0.3316429999999999
 50
203.99455
 51
205.139827
  0
ENDBLK
  5
535
  8
_________1
  0
BLOCK
  8
_________1
  2
AIGNBL0201009A
 70
     0
 10
0.0
 20
0.0
 30
0.0
  3
AIGNBL0201009A
  1

  0
ARC
  5
538
  8
_________1
 62
     7
 10
111.809195
 20
172.459115
 30
0.0
 40
0.6897330000000002
 50
358.18329199999999
 51
0.143958
  0
ARC
  5
539
  8
_________1
 62
     7
 10
112.10016
 20
172.455376
 30
0.0
 40
0.398834
 50
354.06928199999999
 51
357.39493199999998
  0
ARC
  5
53A
  8
_________1
 62
     7
 10
111.78228900000001
 20
172.47845699999999
 30
0.0
 40
0.7174560000000002
 50
353.03276299999999
 51
354.85885400000001
  0
ARC
  5
53B
  8
_________1
 62
     7
 10
112.06796300000001
 20
172.45082500000001
 30
0.0
 40
0.4306010000000001
 50
349.00388500000003
 51
352.07147200000003
  0
ARC
  5
53C
  8
_________1
 62
     7
 10
112.11157900000001
 20
172.441543
 30
0.0
 40
0.386016
 50
345.82091000000003
 51
349.12147700000003
  0
ARC
  5
53D
  8
_________1
 62
     7
 10
112.169646
 20
172.42298500000001
 30
0.0
 40
0.325194
 50
342.61111899999997
 51
346.48486300000002
  0
ARC
  5
53E
  8
_________1
 62
     7
 10
112.153656
 20
172.42211399999999
 30
0.0
 40
0.340239
 50
339.85853600000002
 51
343.55591600000002
  0
ARC
  5
53F
  8
_________1
 62
     7
 10
112.268034
 20
172.37652299999999
 30
0.0
 40
0.217184
 50
334.96879799999999
 51
340.760223
  0
ARC
  5
540
  8
_________1
 62
     7
 10
112.163763
 20
172.419545
 30
0.0
 40
0.329905
 50
332.30131299999999
 51
335.86092100000002
  0
ARC
  5
541
  8
_________1
 62
     7
 10
112.280108
 20
172.35669799999999
 30
0.0
 40
0.197686
 50
326.80123600000002
 51
332.75509499999998
  0
ARC
  5
542
  8
_________1
 62
     7
 10
112.12148999999999
 20
172.463156
 30
0.0
 40
0.38871
 50
323.46429799999999
 51
326.47242199999999
  0
ARC
  5
543
  8
_________1
 62
     7
 10
112.249521
 20
172.37378200000001
 30
0.0
 40
0.232675
 50
317.49993000000001
 51
322.37851000000001
  0
ARC
  5
544
  8
_________1
 62
     7
 10
112.217769
 20
172.411314
 30
0.0
 40
0.28151
 50
312.31578100000002
 51
316.23377999999991
  0
ARC
  5
545
  8
_________1
 62
     7
 10
112.17870499999999
 20
172.47696300000001
 30
0.0
 40
0.356681
 50
306.6833279999999
 51
309.85571599999997
  0
ARC
  5
546
  8
_________1
 62
     7
 10
112.287457
 20
172.34257700000001
 30
0.0
 40
0.184073
 50
298.24133499999999
 51
304.52506
  0
ARC
  5
547
  8
_________1
 62
     7
 10
112.30118
 20
172.31891400000001
 30
0.0
 40
0.156736
 50
290.72371399999997
 51
297.914918
  0
ARC
  5
548
  8
_________1
 62
     7
 10
112.302644
 20
172.309122
 30
0.0
 40
0.147074
 50
283.51106399999998
 51
291.54008900000002
  0
ARC
  5
549
  8
_________1
 62
     7
 10
112.296548
 20
172.328529
 30
0.0
 40
0.167375
 50
276.789534
 51
283.98820000000001
  0
ARC
  5
54A
  8
_________1
 62
     7
 10
112.296103
 20
172.308965
 30
0.0
 40
0.148026
 50
269.29687999999999
 51
277.85580700000003
  0
ENDBLK
  5
54B
  8
_________1
  0
BLOCK
  8
_________1
  2
AIGNBL0201009B
 70
     0
 10
0.0
 20
0.0
 30
0.0
  3
AIGNBL0201009B
  1

  0
ARC
  5
54E
  8
_________1
 62
     7
 10
114.141206
 20
179.58507499999999
 30
0.0
 40
1.6422810000000001
 50
177.65195900000001
 51
180.05651599999999
  0
ARC
  5
54F
  8
_________1
 62
     7
 10
114.61439300000001
 20
179.589449
 30
0.0
 40
2.115024
 50
176.459632
 51
178.295526
  0
ARC
  5
550
  8
_________1
 62
     7
 10
114.06289599999999
 20
179.62549799999999
 30
0.0
 40
1.5623549999999991
 50
174.06437299999999
 51
176.53021100000001
  0
ARC
  5
551
  8
_________1
 62
     7
 10
114.072136
 20
179.64309399999999
 30
0.0
 40
1.5698350000000001
 50
172.28912199999999
 51
174.73804799999999
  0
ARC
  5
552
  8
_________1
 62
     7
 10
121.789053
 20
178.53525300000001
 30
0.0
 40
9.3658249999999992
 50
171.498369
 51
171.90730300000001
  0
ARC
  5
553
  8
_________1
 62
     7
 10
120.682356
 20
178.52487600000001
 30
0.0
 40
8.2746499999999994
 50
169.824489
 51
170.29432800000001
  0
ARC
  5
554
  8
_________1
 62
     7
 10
121.782197
 20
178.12047699999999
 30
0.0
 40
9.4308350000000001
 50
168.171008
 51
168.586624
  0
ARC
  5
555
  8
_________1
 62
     7
 10
114.569062
 20
179.61707899999999
 30
0.0
 40
2.0641349999999989
 50
165.897155
 51
167.787723
  0
ARC
  5
556
  8
_________1
 62
     7
 10
117.597611
 20
178.832697
 30
0.0
 40
5.1925790000000003
 50
164.91259099999999
 51
165.64561800000001
  0
ARC
  5
557
  8
_________1
 62
     7
 10
115.766402
 20
179.29155499999999
 30
0.0
 40
3.3052260000000002
 50
163.19791499999999
 51
164.33000100000001
  0
ARC
  5
558
  8
_________1
 62
     7
 10
116.118809
 20
179.17116399999989
 30
0.0
 40
3.6774129999999992
 50
161.990332
 51
162.989395
  0
ARC
  5
559
  8
_________1
 62
     7
 10
115.567734
 20
179.32458600000001
 30
0.0
 40
3.1059999999999999
 50
160.38924299999999
 51
161.538858
  0
ARC
  5
55A
  8
_________1
 62
     7
 10
114.084067
 20
179.86976799999999
 30
0.0
 40
1.5254959999999991
 50
158.721386
 51
160.97508500000001
  0
ARC
  5
55B
  8
_________1
 62
     7
 10
114.67739400000001
 20
179.68700999999999
 30
0.0
 40
2.1451699999999998
 50
158.39783299999999
 51
159.92396199999999
  0
ARC
  5
55C
  8
_________1
 62
     7
 10
117.492372
 20
178.55476200000001
 30
0.0
 40
5.1793050000000003
 50
157.628725
 51
158.21684200000001
  0
ARC
  5
55D
  8
_________1
 62
     7
 10
115.422545
 20
179.41073700000001
 30
0.0
 40
2.9394709999999988
 50
156.74797000000001
 51
157.702056
  0
ARC
  5
55E
  8
_________1
 62
     7
 10
15.577436000000001
 20
222.58142799999999
 30
0.0
 40
105.839001
 50
336.6138509999999
 51
336.63782600000002
  0
LINE
  5
55F
  8
_________1
 62
     7
 10
112.739
 20
180.61199999999999
 30
0.0
 11
112.756
 21
180.648
 31
0.0
  0
LINE
  5
560
  8
_________1
 62
     7
 10
112.756
 20
180.648
 30
0.0
 11
112.77
 21
180.68000000000001
 31
0.0
  0
ARC
  5
561
  8
_________1
 62
     7
 10
111.29426599999999
 20
181.39363
 30
0.0
 40
1.6396449999999989
 50
334.19452799999999
 51
335.26620000000003
  0
LINE
  5
562
  8
_________1
 62
     7
 10
112.783
 20
180.708
 30
0.0
 11
112.795
 21
180.73099999999999
 31
0.0
  0
LINE
  5
563
  8
_________1
 62
     7
 10
112.795
 20
180.73099999999999
 30
0.0
 11
112.804
 21
180.75
 31
0.0
  0
ARC
  5
564
  8
_________1
 62
     7
 10
112.99724000000001
 20
180.669006
 30
0.0
 40
0.2093
 50
152.81924599999999
 51
157.29290900000001
  0
LINE
  5
565
  8
_________1
 62
     7
 10
112.81100000000001
 20
180.76499999999999
 30
0.0
 11
112.816
 21
180.77500000000001
 31
0.0
  0
LINE
  5
566
  8
_________1
 62
     7
 10
112.816
 20
180.77500000000001
 30
0.0
 11
112.819
 21
180.78100000000001
 31
0.0
  0
LINE
  5
567
  8
_________1
 62
     7
 10
112.819
 20
180.78100000000001
 30
0.0
 11
112.81999999999999
 21
180.78299999999999
 31
0.0
  0
ENDBLK
  5
568
  8
_________1
  0
BLOCK
  8
_________1
  2
AIGNBL0201009C
 70
     0
 10
0.0
 20
0.0
 30
0.0
  3
AIGNBL0201009C
  1

  0
LINE
  5
56B
  8
_________1
 62
     7
 10
112.621
 20
178.34399999999999
 30
0.0
 11
112.62
 21
178.346
 31
0.0
  0
LINE
  5
56C
  8
_________1
 62
     7
 10
112.62
 20
178.346
 30
0.0
 11
112.616
 21
178.352
 31
0.0
  0
LINE
  5
56D
  8
_________1
 62
     7
 10
112.616
 20
178.352
 30
0.0
 11
112.611
 21
178.36099999999999
 31
0.0
  0
ARC
  5
56E
  8
_________1
 62
     7
 10
112.879841
 20
178.50753
 30
0.0
 40
0.305829
 50
205.73512500000001
 51
208.56427199999999
  0
ARC
  5
56F
  8
_________1
 62
     7
 10
112.879109
 20
178.53009599999999
 30
0.0
 40
0.315644
 50
205.848286
 51
209.485263
  0
LINE
  5
570
  8
_________1
 62
     7
 10
112.595
 20
178.392
 30
0.0
 11
112.584
 21
178.41300000000001
 31
0.0
  0
ARC
  5
571
  8
_________1
 62
     7
 10
118.259969
 20
181.344278
 30
0.0
 40
6.387948999999999
 50
207.052603
 51
207.309653
  0
ARC
  5
572
  8
_________1
 62
     7
 10
111.287215
 20
177.819423
 30
0.0
 40
1.4254059999999991
 50
25.763556000000008
 51
27.101283000000009
  0
LINE
  5
573
  8
_________1
 62
     7
 10
112.556
 20
178.46899999999999
 30
0.0
 11
112.54000000000001
 21
178.50299999999999
 31
0.0
  0
ARC
  5
574
  8
_________1
 62
     7
 10
120.02893299999999
 20
182.09008800000001
 30
0.0
 40
8.304119
 50
205.29437799999999
 51
205.59314900000001
  0
LINE
  5
575
  8
_________1
 62
     7
 10
112.521
 20
178.542
 30
0.0
 11
112.5
 21
178.58600000000001
 31
0.0
  0
ARC
  5
576
  8
_________1
 62
     7
 10
112.520695
 20
178.596778
 30
0.0
 40
0.022941
 50
198.39466200000001
 51
207.27268100000001
  0
ENDBLK
  5
577
  8
_________1
  0
BLOCK
  8
_________1
  2
AIGNBL0201009D
 70
     0
 10
0.0
 20
0.0
 30
0.0
  3
AIGNBL0201009D
  1

  0
ARC
  5
57A
  8
_________1
 62
     7
 10
43.29281799999999
 20
252.61232200000009
 30
0.0
 40
2.7988779999999989
 50
328.99905100000001
 51
59.004494999999991
  0
ARC
  5
57B
  8
_________1
 62
     7
 10
43.292521999999991
 20
252.61229900000009
 30
0.0
 40
2.7990499999999989
 50
58.999531000000012
 51
149.00278900000001
  0
ARC
  5
57C
  8
_________1
 62
     7
 10
42.700572999999999
 20
252.850988
 30
0.0
 40
2.171027
 50
146.35614699999999
 51
164.05929800000001
  0
ARC
  5
57D
  8
_________1
 62
     7
 10
43.424713999999987
 20
252.61602999999999
 30
0.0
 40
2.9319769999999989
 50
163.53082699999999
 51
201.20791500000001
  0
ARC
  5
57E
  8
_________1
 62
     7
 10
42.729061000000002
 20
252.381337
 30
0.0
 40
2.198782
 50
202.06409600000001
 51
213.40614500000001
  0
ENDBLK
  5
57F
  8
_________1
  0
BLOCK
  8
_________1
  2
AIGNBL0201009E
 70
     0
 10
0.0
 20
0.0
 30
0.0
  3
AIGNBL0201009E
  1

  0
ARC
  5
582
  8
_________1
 62
     7
 10
43.292374000000002
 20
252.612337
 30
0.0
 40
2.9991340000000002
 50
323.13710700000001
 51
53.132309999999997
  0
ARC
  5
583
  8
_________1
 62
     7
 10
43.292616999999993
 20
252.61240599999999
 30
0.0
 40
2.9989330000000001
 50
53.13523
 51
143.13877500000001
  0
ARC
  5
584
  8
_________1
 62
     7
 10
42.972436000000002
 20
252.753095
 30
0.0
 40
2.6595520000000001
 50
141.42569599999999
 51
168.00590099999999
  0
ARC
  5
585
  8
_________1
 62
     7
 10
43.414619999999992
 20
252.62556599999999
 30
0.0
 40
3.1187580000000001
 50
167.40231700000001
 51
209.09455600000001
  0
ARC
  5
586
  8
_________1
 62
     7
 10
42.888357999999997
 20
252.40542199999999
 30
0.0
 40
2.5526450000000001
 50
210.52068
 51
218.592243
  0
ENDBLK
  5
587
  8
_________1
  0
BLOCK
  8
_________1
  2
AIGNBL0201009F
 70
     0
 10
0.0
 20
0.0
 30
0.0
  3
AIGNBL0201009F
  1

  0
ARC
  5
58A
  8
_________1
 62
     7
 10
43.073038999999987
 20
252.64772199999999
 30
0.0
 40
4.2587479999999998
 50
307.94734899999997
 51
33.714185999999998
  0
ARC
  5
58B
  8
_________1
 62
     7
 10
43.292483999999988
 20
252.612402
 30
0.0
 40
4.098603999999999
 50
35.828085999999999
 51
125.830609
  0
ARC
  5
58C
  8
_________1
 62
     7
 10
43.292724999999997
 20
252.612334
 30
0.0
 40
4.098800999999999
 50
125.832781
 51
215.829296
  0
ARC
  5
58D
  8
_________1
 62
     7
 10
41.451765000000002
 20
251.19504499999999
 30
0.0
 40
1.778009999999999
 50
213.526498
 51
217.19760299999999
  0
ARC
  5
58E
  8
_________1
 62
     7
 10
42.831223000000001
 20
252.24322000000001
 30
0.0
 40
3.5105149999999998
 50
217.213212
 51
224.40783400000001
  0
ARC
  5
58F
  8
_________1
 62
     7
 10
43.735529999999997
 20
253.05731599999999
 30
0.0
 40
4.726481999999999
 50
223.786833
 51
229.92758100000009
  0
ARC
  5
590
  8
_________1
 62
     7
 10
42.246166000000002
 20
251.29199700000001
 30
0.0
 40
2.4168210000000001
 50
230.00520299999999
 51
235.957112
  0
ENDBLK
  5
591
  8
_________1
  0
BLOCK
  8
_________1
  2
AIGNBL020100A0
 70
     0
 10
0.0
 20
0.0
 30
0.0
  3
AIGNBL020100A0
  1

  0
LINE
  5
594
  8
_________1
 62
     7
 10
40.893199999999993
 20
248.92599999999999
 30
0.0
 11
40.893500000000003
 21
248.92599999999999
 31
0.0
  0
ENDBLK
  5
595
  8
_________1
  0
BLOCK
  8
_________1
  2
AIGNBL020100A1
 70
     0
 10
0.0
 20
0.0
 30
0.0
  3
AIGNBL020100A1
  1

  0
ARC
  5
598
  8
_________1
 62
     7
 10
43.292721999999998
 20
252.612189
 30
0.0
 40
4.398725999999999
 50
90.0
 51
179.99996999999999
  0
ARC
  5
599
  8
_________1
 62
     7
 10
42.048709999999993
 20
252.44895399999999
 30
0.0
 40
3.158933999999999
 50
177.037936
 51
190.74650399999999
  0
ARC
  5
59A
  8
_________1
 62
     7
 10
43.234388000000003
 20
252.63451499999999
 30
0.0
 40
4.3585909999999997
 50
190.23673099999999
 51
209.56035900000001
  0
ARC
  5
59B
  8
_________1
 62
     7
 10
43.507178000000003
 20
252.725334
 30
0.0
 40
4.6410109999999989
 50
208.874167
 51
226.54956799999999
  0
ARC
  5
59C
  8
_________1
 62
     7
 10
42.626994000000003
 20
251.85758999999999
 30
0.0
 40
3.4059900000000001
 50
227.25973999999999
 51
239.399889
  0
ENDBLK
  5
59D
  8
_________1
  0
BLOCK
  8
_________1
  2
AIGNBL020100A2
 70
     0
 10
0.0
 20
0.0
 30
0.0
  3
AIGNBL020100A2
  1

  0
ARC
  5
5A0
  8
_________1
 62
     7
 10
43.320314000000003
 20
254.805092
 30
0.0
 40
2.205654
 50
88.103206999999998
 51
90.090298999999987
  0
ENDBLK
  5
5A1
  8
_________1
  0
BLOCK
  8
_________1
  2
AIGNBL020100A3
 70
     0
 10
0.0
 20
0.0
 30
0.0
  3
AIGNBL020100A3
  1

  0
ARC
  5
5A4
  8
_________1
 62
     7
 10
43.292729000000001
 20
252.61215200000001
 30
0.0
 40
4.3983679999999987
 50
303.05670400000002
 51
33.060078999999988
  0
ARC
  5
5A5
  8
_________1
 62
     7
 10
44.510871999999992
 20
253.60052200000001
 30
0.0
 40
2.8429950000000002
 50
29.75647
 51
41.34473599999999
  0
ARC
  5
5A6
  8
_________1
 62
     7
 10
43.424365000000002
 20
252.69470200000001
 30
0.0
 40
4.2572289999999988
 50
40.837473000000003
 51
56.935612999999996
  0
ARC
  5
5A7
  8
_________1
 62
     7
 10
43.079357999999999
 20
252.277873
 30
0.0
 40
4.7951829999999989
 50
56.198098999999992
 51
70.620455000000021
  0
ARC
  5
5A8
  8
_________1
 62
     7
 10
43.58867
 20
253.64240799999999
 30
0.0
 40
3.339073
 50
71.095247999999984
 51
83.917641000000003
  0
ENDBLK
  5
5A9
  8
_________1
  0
BLOCK
  8
_________1
  2
AIGNBL020100A4
 70
     0
 10
0.0
 20
0.0
 30
0.0
  3
AIGNBL020100A4
  1

  0
ARC
  5
5AC
  8
_________1
 62
     7
 10
43.298346000000002
 20
256.11016899999998
 30
0.0
 40
0.9007639999999998
 50
88.823719999999994
 51
90.357763000000006
  0
ENDBLK
  5
5AD
  8
_________1
  0
BLOCK
  8
_________1
  2
AIGNBL020100A5
 70
     0
 10
0.0
 20
0.0
 30
0.0
  3
AIGNBL020100A5
  1

  0
ARC
  5
5B0
  8
_________1
 62
     7
 10
43.555609999999987
 20
254.613091
 30
0.0
 40
2.3812279999999988
 50
80.650115
 51
83.679395999999997
  0
ARC
  5
5B1
  8
_________1
 62
     7
 10
43.27876899999999
 20
252.32361800000001
 30
0.0
 40
4.6873199999999988
 50
83.396955000000005
 51
88.599641000000005
  0
ENDBLK
  5
5B2
  8
_________1
  0
BLOCK
  8
_________1
  2
AIGNBL020100A6
 70
     0
 10
0.0
 20
0.0
 30
0.0
  3
AIGNBL020100A6
  1

  0
ARC
  5
5B5
  8
_________1
 62
     7
 10
114.246348
 20
178.60676699999999
 30
0.0
 40
0.202938
 50
270.76156700000001
 51
351.01398599999999
  0
ENDBLK
  5
5B6
  8
_________1
  0
BLOCK
  8
_________1
  2
AIGNBL020100A7
 70
     0
 10
0.0
 20
0.0
 30
0.0
  3
AIGNBL020100A7
  1

  0
ARC
  5
5B9
  8
_________1
 62
     7
 10
114.246075
 20
180.55979500000001
 30
0.0
 40
0.20329
 50
9.1189
 51
89.16261999999999
  0
ENDBLK
  5
5BA
  8
_________1
  0
BLOCK
  8
_________1
  2
AIGNBL020100A8
 70
     0
 10
0.0
 20
0.0
 30
0.0
  3
AIGNBL020100A8
  1

  0
ARC
  5
5BD
  8
_________1
 62
     7
 10
111.67396599999999
 20
180.0777379999999
 30
0.0
 40
2.820117999999999
 50
7.5290359999999987
 51
10.507232
  0
ARC
  5
5BE
  8
_________1
 62
     7
 10
109.162684
 20
179.74435600000001
 30
0.0
 40
5.3534309999999987
 50
1.8015689999999991
 51
7.5446380000000008
  0
ARC
  5
5BF
  8
_________1
 62
     7
 10
106.385693
 20
179.59028499999999
 30
0.0
 40
8.1341669999999997
 50
355.32226800000001
 51
2.2713359999999998
  0
ARC
  5
5C0
  8
_________1
 62
     7
 10
110.513677
 20
179.26786299999989
 30
0.0
 40
3.9936679999999991
 50
350.01019600000001
 51
355.10285800000003
  0
ENDBLK
  5
5C1
  8
_________1
  0
BLOCK
  8
_________1
  2
AIGNBL020100A9
 70
     0
 10
0.0
 20
0.0
 30
0.0
  3
AIGNBL020100A9
  1

  0
LINE
  5
5C4
  8
_________1
 62
     7
 10
47.591200000000001
 20
251.63800000000001
 30
0.0
 11
47.591200000000001
 21
251.64500000000001
 31
0.0
  0
LINE
  5
5C5
  8
_________1
 62
     7
 10
47.591200000000001
 20
251.64500000000001
 30
0.0
 11
47.591500000000003
 21
251.65700000000001
 31
0.0
  0
LINE
  5
5C6
  8
_________1
 62
     7
 10
47.591500000000003
 20
251.65700000000001
 30
0.0
 11
47.592199999999998
 21
251.66800000000001
 31
0.0
  0
LINE
  5
5C7
  8
_________1
 62
     7
 10
47.592199999999998
 20
251.66800000000001
 30
0.0
 11
47.593299999999999
 21
251.679
 31
0.0
  0
LINE
  5
5C8
  8
_________1
 62
     7
 10
47.593299999999999
 20
251.679
 30
0.0
 11
47.594599999999993
 21
251.69
 31
0.0
  0
LINE
  5
5C9
  8
_________1
 62
     7
 10
47.594599999999993
 20
251.69
 30
0.0
 11
47.595999999999997
 21
251.69999999999999
 31
0.0
  0
LINE
  5
5CA
  8
_________1
 62
     7
 10
47.595999999999997
 20
251.69999999999999
 30
0.0
 11
47.597700000000003
 21
251.71000000000001
 31
0.0
  0
LINE
  5
5CB
  8
_________1
 62
     7
 10
47.597700000000003
 20
251.71000000000001
 30
0.0
 11
47.599499999999992
 21
251.71899999999999
 31
0.0
  0
ENDBLK
  5
5CC
  8
_________1
  0
BLOCK
  8
_________1
  2
AIGNBL020100AA
 70
     0
 10
0.0
 20
0.0
 30
0.0
  3
AIGNBL020100AA
  1

  0
LINE
  5
5CF
  8
_________1
 62
     7
 10
38.985599999999998
 20
251.71899999999999
 30
0.0
 11
38.987699999999997
 21
251.71000000000001
 31
0.0
  0
LINE
  5
5D0
  8
_________1
 62
     7
 10
38.987699999999997
 20
251.71000000000001
 30
0.0
 11
38.989100000000001
 21
251.69999999999999
 31
0.0
  0
LINE
  5
5D1
  8
_________1
 62
     7
 10
38.989100000000001
 20
251.69999999999999
 30
0.0
 11
38.990499999999997
 21
251.69
 31
0.0
  0
LINE
  5
5D2
  8
_________1
 62
     7
 10
38.990499999999997
 20
251.69
 30
0.0
 11
38.991799999999998
 21
251.679
 31
0.0
  0
LINE
  5
5D3
  8
_________1
 62
     7
 10
38.991799999999998
 20
251.679
 30
0.0
 11
38.992899999999999
 21
251.66800000000001
 31
0.0
  0
LINE
  5
5D4
  8
_________1
 62
     7
 10
38.992899999999999
 20
251.66800000000001
 30
0.0
 11
38.993600000000001
 21
251.65700000000001
 31
0.0
  0
LINE
  5
5D5
  8
_________1
 62
     7
 10
38.993600000000001
 20
251.65700000000001
 30
0.0
 11
38.993899999999996
 21
251.64500000000001
 31
0.0
  0
LINE
  5
5D6
  8
_________1
 62
     7
 10
38.993899999999996
 20
251.64500000000001
 30
0.0
 11
38.993899999999996
 21
251.63800000000001
 31
0.0
  0
ENDBLK
  5
5D7
  8
_________1
  0
BLOCK
  8
_________1
  2
AIGNBL020100AB
 70
     0
 10
0.0
 20
0.0
 30
0.0
  3
AIGNBL020100AB
  1

  0
LINE
  5
5DA
  8
_________1
 62
     7
 10
108.422
 20
171.761
 30
0.0
 11
108.422
 21
172.161
 31
0.0
  0
ENDBLK
  5
5DB
  8
_________1
  0
BLOCK
  8
_________1
  2
AIGNBL020100AC
 70
     0
 10
0.0
 20
0.0
 30
0.0
  3
AIGNBL020100AC
  1

  0
LINE
  5
5DE
  8
_________1
 62
     7
 10
112.42
 20
171.761
 30
0.0
 11
112.42
 21
172.12100000000001
 31
0.0
  0
ENDBLK
  5
5DF
  8
_________1
  0
BLOCK
  8
_________1
  2
AIGNBL020100AD
 70
     0
 10
0.0
 20
0.0
 30
0.0
  3
AIGNBL020100AD
  1

  0
LINE
  5
5E2
  8
_________1
 62
     7
 10
112.499
 20
172.46100000000001
 30
0.0
 11
112.499
 21
179.583
 31
0.0
  0
ENDBLK
  5
5E3
  8
_________1
  0
BLOCK
  8
_________1
  2
AIGNBL020100AE
 70
     0
 10
0.0
 20
0.0
 30
0.0
  3
AIGNBL020100AE
  1

  0
LINE
  5
5E6
  8
_________1
 62
     7
 10
112.621
 20
172.20099999999999
 30
0.0
 11
112.621
 21
178.34399999999999
 31
0.0
  0
ENDBLK
  5
5E7
  8
_________1
  0
BLOCK
  8
_________1
  2
AIGNBL020100AF
 70
     0
 10
0.0
 20
0.0
 30
0.0
  3
AIGNBL020100AF
  1

  0
LINE
  5
5EA
  8
_________1
 62
     7
 10
112.621
 20
180.30500000000001
 30
0.0
 11
112.621
 21
178.404
 31
0.0
  0
ENDBLK
  5
5EB
  8
_________1
  0
BLOCK
  8
_________1
  2
AIGNBL020100B0
 70
     0
 10
0.0
 20
0.0
 30
0.0
  3
AIGNBL020100B0
  1

  0
LINE
  5
5EE
  8
_________1
 62
     7
 10
114.249
 20
180.76300000000001
 30
0.0
 11
114.249
 21
178.404
 31
0.0
  0
ENDBLK
  5
5EF
  8
_________1
  0
BLOCK
  8
_________1
  2
AIGNBL020100B1
 70
     0
 10
0.0
 20
0.0
 30
0.0
  3
AIGNBL020100B1
  1

  0
LINE
  5
5F2
  8
_________1
 62
     7
 10
114.447
 20
180.59200000000001
 30
0.0
 11
114.447
 21
178.57499999999999
 31
0.0
  0
ENDBLK
  5
5F3
  8
_________1
  0
BLOCK
  8
_________1
  2
AIGNBL020100B2
 70
     0
 10
0.0
 20
0.0
 30
0.0
  3
AIGNBL020100B2
  1

  0
LINE
  5
5F6
  8
_________1
 62
     7
 10
114.249
 20
180.76300000000001
 30
0.0
 11
112.81
 21
180.76300000000001
 31
0.0
  0
ENDBLK
  5
5F7
  8
_________1
  0
BLOCK
  8
_________1
  2
AIGNBL020100B3
 70
     0
 10
0.0
 20
0.0
 30
0.0
  3
AIGNBL020100B3
  1

  0
LINE
  5
5FA
  8
_________1
 62
     7
 10
114.249
 20
178.404
 30
0.0
 11
112.621
 21
178.404
 31
0.0
  0
ENDBLK
  5
5FB
  8
_________1
  0
BLOCK
  8
_________1
  2
AIGNBL020100B4
 70
     0
 10
0.0
 20
0.0
 30
0.0
  3
AIGNBL020100B4
  1

  0
LINE
  5
5FE
  8
_________1
 62
     7
 10
112.405
 20
172.20099999999999
 30
0.0
 11
112.621
 21
172.20099999999999
 31
0.0
  0
ENDBLK
  5
5FF
  8
_________1
  0
BLOCK
  8
_________1
  2
AIGNBL020100B5
 70
     0
 10
0.0
 20
0.0
 30
0.0
  3
AIGNBL020100B5
  1

  0
LINE
  5
602
  8
_________1
 62
     7
 10
112.294
 20
172.161
 30
0.0
 11
108.02200000000001
 21
172.161
 31
0.0
  0
ENDBLK
  5
603
  8
_________1
  0
BLOCK
  8
_________1
  2
AIGNBL020100B6
 70
     0
 10
0.0
 20
0.0
 30
0.0
  3
AIGNBL020100B6
  1

  0
LINE
  5
606
  8
_________1
 62
     7
 10
112.42
 20
172.12100000000001
 30
0.0
 11
112.07899999999999
 21
172.12100000000001
 31
0.0
  0
ENDBLK
  5
607
  8
_________1
  0
BLOCK
  8
_________1
  2
AIGNBL020100B7
 70
     0
 10
0.0
 20
0.0
 30
0.0
  3
AIGNBL020100B7
  1

  0
LINE
  5
60A
  8
_________1
 62
     7
 10
112.42
 20
171.761
 30
0.0
 11
108.422
 21
171.761
 31
0.0
  0
ENDBLK
  5
60B
  8
_________1
  0
BLOCK
  8
_________1
  2
AIGNBL020100B8
 70
     0
 10
0.0
 20
0.0
 30
0.0
  3
AIGNBL020100B8
  1

  0
LINE
  5
60E
  8
_________1
 62
     7
 10
148.00800000000001
 20
154.75200000000001
 30
0.0
 11
148.00800000000001
 21
184.15600000000001
 31
0.0
  0
ENDBLK
  5
60F
  8
_________1
  0
BLOCK
  8
_________1
  2
AIGNBL020100B9
 70
     0
 10
0.0
 20
0.0
 30
0.0
  3
AIGNBL020100B9
  1

  0
LINE
  5
612
  8
_________1
 62
     7
 10
152.80799999999999
 20
154.75200000000001
 30
0.0
 11
152.80799999999999
 21
184.15600000000001
 31
0.0
  0
ENDBLK
  5
613
  8
_________1
  0
BLOCK
  8
_________1
  2
AIGNBL020100BA
 70
     0
 10
0.0
 20
0.0
 30
0.0
  3
AIGNBL020100BA
  1

  0
LINE
  5
616
  8
_________1
 62
     7
 10
40.892499999999991
 20
172.161
 30
0.0
 11
45.692599999999992
 21
172.161
 31
0.0
  0
ENDBLK
  5
617
  8
_________1
  0
BLOCK
  8
_________1
  2
AIGNBL020100BB
 70
     0
 10
0.0
 20
0.0
 30
0.0
  3
AIGNBL020100BB
  1

  0
LINE
  5
61A
  8
_________1
 62
     7
 10
41.293199999999992
 20
171.761
 30
0.0
 11
45.291899999999991
 21
171.761
 31
0.0
  0
ENDBLK
  5
61B
  8
_________1
  0
BLOCK
  8
_________1
  2
AIGNBL020100BC
 70
     0
 10
0.0
 20
0.0
 30
0.0
  3
AIGNBL020100BC
  1

  0
LINE
  5
61E
  8
_________1
 62
     7
 10
45.291899999999991
 20
171.761
 30
0.0
 11
45.291899999999991
 21
172.161
 31
0.0
  0
ENDBLK
  5
61F
  8
_________1
  0
BLOCK
  8
_________1
  2
AIGNBL020100BD
 70
     0
 10
0.0
 20
0.0
 30
0.0
  3
AIGNBL020100BD
  1

  0
LINE
  5
622
  8
_________1
 62
     7
 10
41.293199999999992
 20
171.761
 30
0.0
 11
41.293199999999992
 21
172.161
 31
0.0
  0
ENDBLK
  5
623
  8
_________1
  0
BLOCK
  8
_________1
  2
AIGNBL020100BE
 70
     0
 10
0.0
 20
0.0
 30
0.0
  3
AIGNBL020100BE
  1

  0
LINE
  5
626
  8
_________1
 62
     7
 10
38.892600000000002
 20
127.56100000000001
 30
0.0
 11
47.692500000000003
 21
127.56100000000001
 31
0.0
  0
ENDBLK
  5
627
  8
_________1
  0
BLOCK
  8
_________1
  2
AIGNBL020100BF
 70
     0
 10
0.0
 20
0.0
 30
0.0
  3
AIGNBL020100BF
  1

  0
LINE
  5
62A
  8
_________1
 62
     7
 10
156.119
 20
122.89100000000001
 30
0.0
 11
153.90799999999999
 21
122.29900000000001
 31
0.0
  0
LINE
  5
62B
  8
_________1
 62
     7
 10
153.90799999999999
 20
122.29900000000001
 30
0.0
 11
156.119
 21
121.70699999999999
 31
0.0
  0
LINE
  5
62C
  8
_________1
 62
     7
 10
156.119
 20
121.70699999999999
 30
0.0
 11
156.119
 21
122.89100000000001
 31
0.0
  0
LINE
  5
62D
  8
_________1
 62
     7
 10
145.09800000000001
 20
121.721
 30
0.0
 11
147.309
 21
122.313
 31
0.0
  0
LINE
  5
62E
  8
_________1
 62
     7
 10
147.309
 20
122.313
 30
0.0
 11
145.09800000000001
 21
122.90600000000001
 31
0.0
  0
LINE
  5
62F
  8
_________1
 62
     7
 10
145.09800000000001
 20
122.90600000000001
 30
0.0
 11
145.09800000000001
 21
121.721
 31
0.0
  0
LINE
  5
630
  8
_________1
 62
     7
 10
139.31999999999999
 20
122.306
 30
0.0
 11
157.69300000000001
 21
122.306
 31
0.0
  0
ENDBLK
  5
631
  8
_________1
  0
BLOCK
  8
_________1
  2
AIGNBL020100C0
 70
     0
 10
0.0
 20
0.0
 30
0.0
  3
AIGNBL020100C0
  1

  0
LINE
  5
634
  8
_________1
  6
AIGENLINE002
 62
     7
 10
150.40799999999999
 20
64.474999999999994
 30
0.0
 11
150.40799999999999
 21
130.96199999999999
 31
0.0
  0
LINE
  5
635
  8
_________1
  6
AIGENLINE002
 62
     7
 10
150.40799999999999
 20
136.97
 30
0.0
 11
150.40799999999999
 21
186.82599999999999
 31
0.0
  0
ENDBLK
  5
636
  8
_________1
  0
BLOCK
  8
_________1
  2
AIGNBL020100C1
 70
     0
 10
0.0
 20
0.0
 30
0.0
  3
AIGNBL020100C1
  1

  0
INSERT
  5
639
  8
_________1
 62
     7
  2
AIGNBL020200C2
 10
0.0
 20
0.0
 30
0.0
  0
ENDBLK
  5
63A
  8
_________1
  0
BLOCK
  8
_________1
  2
AIGNBL020100C3
 70
     0
 10
0.0
 20
0.0
 30
0.0
  3
AIGNBL020100C3
  1

  0
LINE
  5
63D
  8
_________1
 62
     7
 10
42.033200000000001
 20
45.831099999999999
 30
0.0
 11
42.033200000000001
 21
39.254399999999997
 31
0.0
  0
ARC
  5
63E
  8
_________1
 62
     7
 10
43.358477999999998
 20
39.319749999999999
 30
0.0
 40
1.3269040000000001
 50
182.82489799999999
 51
267.15946200000002
  0
ARC
  5
63F
  8
_________1
 62
     7
 10
43.243664000000003
 20
39.30377
 30
0.0
 40
1.310212999999999
 50
272.14578599999999
 51
357.83855899999998
  0
LINE
  5
640
  8
_________1
 62
     7
 10
44.552900000000001
 20
39.254399999999997
 30
0.0
 11
44.552900000000001
 21
45.828299999999999
 31
0.0
  0
ENDBLK
  5
641
  8
_________1
  0
BLOCK
  8
_________1
  2
AIGNBL020100C4
 70
     0
 10
0.0
 20
0.0
 30
0.0
  3
AIGNBL020100C4
  1

  0
LINE
  5
644
  8
_________1
 62
     7
 10
169.63
 20
125.349
 30
0.0
 11
169.03800000000001
 21
127.56100000000001
 31
0.0
  0
LINE
  5
645
  8
_________1
 62
     7
 10
169.03800000000001
 20
127.56100000000001
 30
0.0
 11
168.44499999999999
 21
125.349
 31
0.0
  0
LINE
  5
646
  8
_________1
 62
     7
 10
168.44499999999999
 20
125.349
 30
0.0
 11
169.63
 21
125.349
 31
0.0
  0
LINE
  5
647
  8
_________1
 62
     7
 10
168.46000000000001
 20
85.772099999999995
 30
0.0
 11
169.05199999999999
 21
83.560299999999998
 31
0.0
  0
LINE
  5
648
  8
_________1
 62
     7
 10
169.05199999999999
 20
83.560299999999998
 30
0.0
 11
169.64500000000001
 21
85.772099999999995
 31
0.0
  0
LINE
  5
649
  8
_________1
 62
     7
 10
169.64500000000001
 20
85.772099999999995
 30
0.0
 11
168.46000000000001
 21
85.772099999999995
 31
0.0
  0
LINE
  5
64A
  8
_________1
 62
     7
 10
169.03800000000001
 20
127.56
 30
0.0
 11
169.03800000000001
 21
83.560599999999994
 31
0.0
  0
ENDBLK
  5
64B
  8
_________1
  0
BLOCK
  8
_________1
  2
AIGNBL020100C5
 70
     0
 10
0.0
 20
0.0
 30
0.0
  3
AIGNBL020100C5
  1

  0
LINE
  5
64E
  8
_________1
 62
     7
 10
177.488
 20
125.349
 30
0.0
 11
176.89500000000001
 21
127.56100000000001
 31
0.0
  0
LINE
  5
64F
  8
_________1
 62
     7
 10
176.89500000000001
 20
127.56100000000001
 30
0.0
 11
176.30199999999999
 21
125.349
 31
0.0
  0
LINE
  5
650
  8
_________1
 62
     7
 10
176.30199999999999
 20
125.349
 30
0.0
 11
177.488
 21
125.349
 31
0.0
  0
LINE
  5
651
  8
_________1
 62
     7
 10
176.31700000000001
 20
69.771900000000002
 30
0.0
 11
176.91
 21
67.560100000000006
 31
0.0
  0
LINE
  5
652
  8
_________1
 62
     7
 10
176.91
 20
67.560100000000006
 30
0.0
 11
177.50200000000001
 21
69.771900000000002
 31
0.0
  0
LINE
  5
653
  8
_________1
 62
     7
 10
177.50200000000001
 20
69.771900000000002
 30
0.0
 11
176.31700000000001
 21
69.771900000000002
 31
0.0
  0
LINE
  5
654
  8
_________1
 62
     7
 10
176.89500000000001
 20
127.56
 30
0.0
 11
176.89500000000001
 21
67.560500000000005
 31
0.0
  0
ENDBLK
  5
655
  8
_________1
  0
BLOCK
  8
_________1
  2
AIGNBL020100C6
 70
     0
 10
0.0
 20
0.0
 30
0.0
  3
AIGNBL020100C6
  1

  0
INSERT
  5
658
  8
_________1
 62
     7
  2
AIGNBL020200C7
 10
0.0
 20
0.0
 30
0.0
  0
ENDBLK
  5
659
  8
_________1
  0
BLOCK
  8
_________1
  2
AIGNBL020100C8
 70
     0
 10
0.0
 20
0.0
 30
0.0
  3
AIGNBL020100C8
  1

  0
INSERT
  5
65C
  8
_________1
 62
     7
  2
AIGNBL020200C9
 10
0.0
 20
0.0
 30
0.0
  0
ENDBLK
  5
65D
  8
_________1
  0
BLOCK
  8
_________1
  2
AIGNBL020100CA
 70
     0
 10
0.0
 20
0.0
 30
0.0
  3
AIGNBL020100CA
  1

  0
LINE
  5
660
  8
_________1
 62
     7
 10
146.78899999999999
 20
225.53299999999999
 30
0.0
 11
147.93299999999999
 21
227.51599999999999
 31
0.0
  0
LINE
  5
661
  8
_________1
 62
     7
 10
147.93299999999999
 20
227.51599999999999
 30
0.0
 11
145.94999999999999
 21
226.37100000000001
 31
0.0
  0
LINE
  5
662
  8
_________1
 62
     7
 10
145.94999999999999
 20
226.37100000000001
 30
0.0
 11
146.78899999999999
 21
225.53299999999999
 31
0.0
  0
LINE
  5
663
  8
_________1
 62
     7
 10
154.02799999999999
 20
234.44900000000001
 30
0.0
 11
152.88300000000001
 21
232.46600000000001
 31
0.0
  0
LINE
  5
664
  8
_________1
 62
     7
 10
152.88300000000001
 20
232.46600000000001
 30
0.0
 11
154.86600000000001
 21
233.61099999999999
 31
0.0
  0
LINE
  5
665
  8
_________1
 62
     7
 10
154.86600000000001
 20
233.61099999999999
 30
0.0
 11
154.02799999999999
 21
234.44900000000001
 31
0.0
  0
LINE
  5
666
  8
_________1
 62
     7
 10
155.108
 20
234.691
 30
0.0
 11
144.29599999999999
 21
223.87899999999999
 31
0.0
  0
ENDBLK
  5
667
  8
_________1
  0
BLOCK
  8
_________2
  2
AIGNBL03010002
 70
     0
 10
0.0
 20
0.0
 30
0.0
  3
AIGNBL03010002
  1

  0
LINE
  5
66A
  8
_________2
 62
     7
 10
76.740700000000004
 20
29.8047
 30
0.0
 11
74.554400000000001
 21
29.8047
 31
0.0
  0
LINE
  5
66B
  8
_________2
 62
     7
 10
77.2333
 20
29.8047
 30
0.0
 11
76.981099999999984
 21
29.8047
 31
0.0
  0
LINE
  5
66C
  8
_________2
 62
     7
 10
77.725999999999999
 20
29.8047
 30
0.0
 11
80.650899999999993
 21
29.8047
 31
0.0
  0
LINE
  5
66D
  8
_________2
 62
     7
 10
77.2333
 20
29.8047
 30
0.0
 11
77.485500000000002
 21
29.8047
 31
0.0
  0
LINE
  5
66E
  8
_________2
 62
     7
 10
70.837100000000007
 20
29.8047
 30
0.0
 11
68.650199999999998
 21
29.8047
 31
0.0
  0
LINE
  5
66F
  8
_________2
 62
     7
 10
71.329099999999997
 20
29.8047
 30
0.0
 11
71.077600000000004
 21
29.8047
 31
0.0
  0
LINE
  5
670
  8
_________2
 62
     7
 10
71.329099999999997
 20
30.2974
 30
0.0
 11
71.329099999999997
 21
32.484400000000001
 31
0.0
  0
LINE
  5
671
  8
_________2
 62
     7
 10
71.329099999999997
 20
29.8047
 30
0.0
 11
71.329099999999997
 21
30.057300000000001
 31
0.0
  0
LINE
  5
672
  8
_________2
 62
     7
 10
71.821700000000007
 20
29.8047
 30
0.0
 11
74.008700000000005
 21
29.8047
 31
0.0
  0
LINE
  5
673
  8
_________2
 62
     7
 10
71.329099999999997
 20
29.8047
 30
0.0
 11
71.581299999999985
 21
29.8047
 31
0.0
  0
LINE
  5
674
  8
_________2
 62
     7
 10
71.329099999999997
 20
29.312799999999999
 30
0.0
 11
71.329099999999997
 21
27.126200000000001
 31
0.0
  0
LINE
  5
675
  8
_________2
 62
     7
 10
71.329099999999997
 20
29.8047
 30
0.0
 11
71.329099999999997
 21
29.5532
 31
0.0
  0
LINE
  5
676
  8
_________2
 62
     7
 10
75.040199999999999
 20
28.5852
 30
0.0
 11
80.218199999999996
 21
27.720400000000001
 31
0.0
  0
LINE
  5
677
  8
_________2
 62
     7
 10
75.040199999999999
 20
31.024699999999999
 30
0.0
 11
80.218199999999996
 21
31.8901
 31
0.0
  0
LINE
  5
678
  8
_________2
 62
     7
 10
80.218199999999996
 20
27.720400000000001
 30
0.0
 11
80.218199999999996
 21
31.8901
 31
0.0
  0
LINE
  5
679
  8
_________2
 62
     7
 10
75.040199999999999
 20
28.5852
 30
0.0
 11
75.040199999999999
 21
31.024699999999999
 31
0.0
  0
ARC
  5
67A
  8
_________2
 62
     7
 10
71.282501999999994
 20
29.757801000000001
 30
0.0
 40
1.267714
 50
2.1220840000000001
 51
87.894083999999992
  0
ARC
  5
67B
  8
_________2
 62
     7
 10
71.375640000000004
 20
29.758545999999999
 30
0.0
 40
1.2669680000000001
 50
92.105782999999988
 51
177.91037
  0
ARC
  5
67C
  8
_________2
 62
     7
 10
71.376013999999998
 20
29.851671
 30
0.0
 40
1.2673680000000001
 50
182.12203600000001
 51
267.877993
  0
ARC
  5
67D
  8
_________2
 62
     7
 10
71.282195999999999
 20
29.852347999999999
 30
0.0
 40
1.2680439999999991
 50
272.11916400000001
 51
357.84848499999998
  0
ARC
  5
67E
  8
_________2
 62
     7
 10
71.248716999999985
 20
29.724731999999999
 30
0.0
 40
2.1668310000000002
 50
2.1161439999999989
 51
87.874379000000005
  0
ARC
  5
67F
  8
_________2
 62
     7
 10
71.408756000000011
 20
29.726146
 30
0.0
 40
2.165392999999999
 50
92.108508999999998
 51
177.91986499999999
  0
ARC
  5
680
  8
_________2
 62
     7
 10
71.409094999999994
 20
29.884751999999999
 30
0.0
 40
2.1657829999999998
 50
182.117133
 51
267.88289700000001
  0
ARC
  5
681
  8
_________2
 62
     7
 10
71.249115000000003
 20
29.885429999999999
 30
0.0
 40
2.1664590000000001
 50
272.11546800000002
 51
357.86560400000002
  0
ENDBLK
  5
682
  8
_________2
  0
ENDSEC
  0
SECTION
  2
ENTITIES
  0
TEXT
  5
683
  8
____
 62
     7
 10
53.906134999999999
 20
135.322
 30
0.0
 40
3.0923400000000001
  1
125
 41
0.5
 72
     1
 11
55.710000000000001
 21
135.322
 31
0.0
  0
TEXT
  5
684
  8
____
 62
     7
 10
48.380940000000002
 20
174.91800000000001
 30
0.0
 40
3.0923400000000001
  1
71.5
 41
0.5
 72
     1
 11
50.442500000000003
 21
174.91800000000001
 31
0.0
  0
TEXT
  5
685
  8
____
 62
     7
 10
51.687424999999998
 20
159.2229999999999
 30
0.0
 40
3.0923400000000001
  1
94
 41
0.5
 72
     1
 11
52.975900000000003
 21
159.2229999999999
 31
0.0
  0
TEXT
  5
686
  8
____
 62
     7
 10
64.138134999999991
 20
174.71100000000001
 30
0.0
 40
3.0923400000000001
  1
25%%d
 41
0.5
 72
     1
 11
65.941999999999993
 21
174.71100000000001
 31
0.0
  0
TEXT
  5
687
  8
____
 62
     7
 10
81.095600000000005
 20
145.190135
 30
0.0
 40
3.0923400000000001
  1
187
 50
90.0
 41
0.5
 72
     1
 11
81.095600000000005
 21
146.994
 31
0.0
  0
TEXT
  5
688
  8
____
 62
     7
 10
139.77052499999999
 20
161.76900000000001
 30
0.0
 40
3.0923400000000001
  1
92
 41
0.5
 72
     1
 11
141.059
 21
161.76900000000001
 31
0.0
  0
TEXT
  5
689
  8
____
 62
     7
 10
121.539
 20
140.44513499999999
 30
0.0
 40
3.0923400000000001
  1
145
 50
90.0
 41
0.5
 72
     1
 11
121.539
 21
142.249
 31
0.0
  0
TEXT
  5
68A
  8
____
 62
     7
 10
87.533900000000017
 20
145.249135
 30
0.0
 40
3.0923400000000001
  1
195
 50
90.0
 41
0.5
 72
     1
 11
87.533900000000017
 21
147.053
 31
0.0
  0
TEXT
  5
68B
  8
____
 62
     7
 10
75.523200000000003
 20
134.81752499999999
 30
0.0
 40
3.0923400000000001
  1
85
 50
90.0
 41
0.5
 72
     1
 11
75.523200000000003
 21
136.10599999999999
 31
0.0
  0
TEXT
  5
68C
  8
____
 62
     7
 10
69.435000000000002
 20
160.678
 30
0.0
 40
3.0923400000000001
  1
開
 41
0.5
  0
TEXT
  5
68D
  8
____
 62
     7
 10
54.762386000000006
 20
164.542
 30
0.0
 40
3.0923400000000001
  1
閉
 41
0.5
 72
     2
 11
56.10240000000001
 21
164.542
 31
0.0
  0
TEXT
  5
68E
  8
____
 62
     7
 10
148.34744000000001
 20
132.48599999999999
 30
0.0
 40
3.0923400000000001
  1
%%c44
 41
0.5
 72
     1
 11
150.40899999999999
 21
132.48599999999999
 31
0.0
  0
TEXT
  5
68F
  8
____
 62
     7
 10
56.053407499999992
 20
223.91200000000001
 30
0.0
 40
3.0923400000000001
  1
スパウト回転360%%d
 41
0.5
 72
     1
 11
64.1708
 21
223.91200000000001
 31
0.0
  0
TEXT
  5
690
  8
____
 62
     7
 10
139.31999999999999
 20
123.00700000000001
 30
0.0
 40
3.0923400000000001
  1
%%c33
 41
0.5
  0
TEXT
  5
691
  8
____
 62
     7
 10
130.071
 20
107.41800000000001
 30
0.0
 40
3.0923400000000001
  1
（t＝25）
 41
0.5
  0
TEXT
  5
692
  8
____
 62
     7
 10
130.071
 20
111.809
 30
0.0
 40
3.0923400000000001
  1
スペーサー
 41
0.5
  0
TEXT
  5
693
  8
____
 62
     7
 10
23.235900000000001
 20
63.447299999999998
 30
0.0
 40
3.0923400000000001
  1
G 3/8
 41
0.5
  0
TEXT
  5
694
  8
____
 62
     7
 10
101.59999999999999
 20
80.877187500000005
 30
0.0
 40
3.0923400000000001
  1
670
 50
90.0
 41
0.5
 72
     1
 11
101.59999999999999
 21
82.809899999999999
 31
0.0
  0
TEXT
  5
695
  8
____
 62
     7
 10
168.33799999999999
 20
102.4642875
 30
0.0
 40
3.0923400000000001
  1
220
 50
90.0
 41
0.5
 72
     1
 11
168.33799999999999
 21
104.39700000000001
 31
0.0
  0
TEXT
  5
696
  8
____
 62
     7
 10
176.19499999999999
 20
95.773587500000005
 30
0.0
 40
3.0923400000000001
  1
390
 50
90.0
 41
0.5
 72
     1
 11
176.19499999999999
 21
97.706299999999999
 31
0.0
  0
TEXT
  5
697
  8
____
 62
     7
 10
134.56299999999999
 20
118.91215
 30
0.0
 40
3.0923400000000001
  1
max.45
 50
90.0
 41
0.5
 72
     2
 11
134.56299999999999
 21
126.643
 31
0.0
  0
TEXT
  5
698
  8
____
 62
     7
 10
160.45613499999999
 20
169.81999999999999
 30
0.0
 40
3.0923400000000001
  1
57%%d
 41
0.5
 72
     1
 11
162.25999999999999
 21
169.81999999999999
 31
0.0
  0
TEXT
  5
699
  8
____
 62
     7
 10
137.93913499999999
 20
169.81999999999999
 30
0.0
 40
3.0923400000000001
  1
57%%d
 41
0.5
 72
     1
 11
139.74299999999999
 21
169.81999999999999
 31
0.0
  0
TEXT
  5
69A
  8
____
 62
     7
 10
166.721
 20
151.46199999999999
 30
0.0
 40
3.0923400000000001
  1
水
 41
0.5
  0
TEXT
  5
69B
  8
____
 62
     7
 10
131.28190799999999
 20
151.46199999999999
 30
0.0
 40
3.0923400000000001
  1
湯
 41
0.5
 72
     2
 11
132.72499999999999
 21
151.46199999999999
 31
0.0
  0
TEXT
  5
69C
  8
____
 62
     7
 10
176.202
 20
165.08044000000001
 30
0.0
 40
3.0923400000000001
  1
395
 50
90.0
 41
0.5
 72
     1
 11
176.202
 21
167.142
 31
0.0
  0
TEXT
  5
69D
  8
____
 62
     7
 10
101.592
 20
147.822135
 30
0.0
 40
3.0923400000000001
  1
221
 50
90.0
 41
0.5
 72
     1
 11
101.592
 21
149.626
 31
0.0
  0
TEXT
  5
69E
  8
____
 62
     7
 10
104.444
 20
178.86203900000001
 30
0.0
 40
3.0923400000000001
  1
ホース引き出し長さmax.350
 50
90.0
 41
0.5
 72
     2
 11
104.444
 21
204.58000000000001
 31
0.0
  0
TEXT
  5
69F
  8
____
 62
     7
 10
128.93713500000001
 20
212.60400000000001
 30
0.0
 40
3.0923400000000001
  1
200
 41
0.5
 72
     1
 11
130.74100000000001
 21
212.60400000000001
 31
0.0
  0
TEXT
  5
6A0
  8
____
 62
     7
 10
156.51388
 20
179.09200000000001
 30
0.0
 40
3.0923400000000001
  1
%%c24
 41
0.5
 72
     2
 11
160.637
 21
179.09200000000001
 31
0.0
  0
TEXT
  5
6A1
  8
____
 62
     7
 10
138.23400000000001
 20
224.57900000000001
 30
0.0
 40
3.0923400000000001
  1
%%c35
 41
0.5
  0
TEXT
  5
6A2
  8
____
 62
     7
 10
145.97564600000001
 20
218.21000000000001
 30
0.0
 40
3.0923400000000001
  1
水栓取付穴
 41
0.5
 72
     1
 11
150.40799999999999
 21
218.21000000000001
 31
0.0
  0
ARC
  5
6A3
  8
_________1
 62
     7
 10
104.28863
 20
111.720234
 30
0.0
 40
44.829332000000001
 50
352.89371299999999
 51
356.989619
  0
ARC
  5
6A4
  8
_________1
 62
     7
 10
103.91247300000001
 20
111.76799099999999
 30
0.0
 40
45.208553000000002
 50
350.45042799999999
 51
351.942522
  0
ARC
  5
6A5
  8
_________1
 62
     7
 10
100.54264499999999
 20
112.38113
 30
0.0
 40
48.633952999999998
 50
341.7011
 51
349.279787
  0
ARC
  5
6A6
  8
_________1
 62
     7
 10
93.773537999999988
 20
114.420863
 30
0.0
 40
55.701500000000003
 50
340.59132199999999
 51
341.895241
  0
ARC
  5
6A7
  8
_________1
 62
     7
 10
93.029084999999995
 20
114.626936
 30
0.0
 40
56.471490000000003
 50
338.7788930000001
 51
339.61647099999999
  0
ARC
  5
6A8
  8
_________1
 62
     7
 10
82.645166999999987
 20
118.704401
 30
0.0
 40
67.627882999999997
 50
333.22606300000001
 51
338.00036499999999
  0
ARC
  5
6A9
  8
_________1
 62
     7
 10
71.301717000000011
 20
124.16536499999999
 30
0.0
 40
80.215563000000003
 50
332.60263400000002
 51
333.39349099999998
  0
ARC
  5
6AA
  8
_________1
 62
     7
 10
64.987367000000006
 20
127.50594100000001
 30
0.0
 40
87.359088
 50
331.31539900000001
 51
331.92483300000009
  0
ARC
  5
6AB
  8
_________1
 62
     7
 10
54.055686000000001
 20
133.60353599999999
 30
0.0
 40
99.876542999999998
 50
327.49384500000002
 51
330.67511100000002
  0
ARC
  5
6AC
  8
_________1
 62
     7
 10
107.53648099999999
 20
95.774086999999994
 30
0.0
 40
34.590110000000003
 50
330.416338
 51
332.74008500000002
  0
ARC
  5
6AD
  8
_________1
 62
     7
 10
103.605238
 20
98.043779000000001
 30
0.0
 40
39.129474000000002
 50
328.01090699999997
 51
329.45919900000001
  0
ARC
  5
6AE
  8
_________1
 62
     7
 10
95.92162900000001
 20
102.907982
 30
0.0
 40
48.223497999999999
 50
323.48578900000001
 51
327.16132199999998
  0
ARC
  5
6AF
  8
_________1
 62
     7
 10
80.089515000000006
 20
114.402407
 30
0.0
 40
67.787599
 50
321.2635259999999
 51
323.63986000000011
  0
ARC
  5
6B0
  8
_________1
 62
     7
 10
37.614657000000001
 20
148.568431
 30
0.0
 40
122.29995099999999
 50
320.38028700000001
 51
320.77142300000003
  0
ARC
  5
6B1
  8
_________1
 62
     7
 10
-52.541666999999997
 20
223.77793299999999
 30
0.0
 40
239.70838900000001
 50
319.72855299999998
 51
320.053223
  0
ARC
  5
6B2
  8
_________1
 62
     7
 10
234.31170499999999
 20
-20.218364999999999
 30
0.0
 40
136.88159300000001
 50
139.41792000000001
 51
140.62522300000001
  0
ARC
  5
6B3
  8
_________1
 62
     7
 10
167.524788
 20
34.591545000000004
 30
0.0
 40
50.48357
 50
140.625021
 51
141.78451100000001
  0
ARC
  5
6B4
  8
_________1
 62
     7
 10
153.773652
 20
45.682596999999987
 30
0.0
 40
32.823613999999999
 50
143.66751400000001
 51
145.3201169999999
  0
ARC
  5
6B5
  8
_________1
 62
     7
 10
146.02731399999999
 20
50.84492199999999
 30
0.0
 40
23.513501000000002
 50
147.117006
 51
152.11022500000001
  0
ARC
  5
6B6
  8
_________1
 62
     7
 10
139.886878
 20
54.177875
 30
0.0
 40
16.527384000000001
 50
152.365047
 51
160.40489500000001
  0
ARC
  5
6B7
  8
_________1
 62
     7
 10
136.84346600000001
 20
55.357239
 30
0.0
 40
13.26501
 50
160.79532399999999
 51
164.057658
  0
ARC
  5
6B8
  8
_________1
 62
     7
 10
135.858304
 20
55.628376000000003
 30
0.0
 40
12.243364
 50
168.21585899999999
 51
172.29321100000001
  0
ARC
  5
6B9
  8
_________1
 62
     7
 10
136.97007500000001
 20
55.540554
 30
0.0
 40
13.358489000000001
 50
175.62972500000001
 51
184.41968600000001
  0
ARC
  5
6BA
  8
_________1
 62
     7
 10
140.35612
 20
55.706004
 30
0.0
 40
16.747489999999999
 50
184.09133600000001
 51
185.840239
  0
ARC
  5
6BB
  8
_________1
 62
     7
 10
147.59300999999999
 20
57.352437999999999
 30
0.0
 40
24.131194000000001
 50
187.981213
 51
199.45794699999999
  0
ARC
  5
6BC
  8
_________1
 62
     7
 10
143.09195500000001
 20
55.904890999999999
 30
0.0
 40
19.405479
 50
199.855054
 51
210.929429
  0
ARC
  5
6BD
  8
_________1
 62
     7
 10
140.40596199999999
 20
54.419150000000002
 30
0.0
 40
16.338131000000001
 50
211.30144300000001
 51
216.88926599999999
  0
ARC
  5
6BE
  8
_________1
 62
     7
 10
139.12487200000001
 20
53.45938499999999
 30
0.0
 40
14.736841
 50
220.578541
 51
223.72254100000001
  0
ARC
  5
6BF
  8
_________1
 62
     7
 10
137.90752900000001
 20
52.250599000000001
 30
0.0
 40
13.020528000000001
 50
227.97087099999999
 51
252.76275899999999
  0
ARC
  5
6C0
  8
_________1
 62
     7
 10
138.089462
 20
53.124097999999996
 30
0.0
 40
13.910189000000001
 50
257.28987799999999
 51
261.99533000000002
  0
ARC
  5
6C1
  8
_________1
 62
     7
 10
138.28968499999999
 20
54.929876
 30
0.0
 40
15.728585000000001
 50
265.80994600000002
 51
270.06304399999999
  0
ARC
  5
6C2
  8
_________1
 62
     7
 10
138.30358899999999
 20
55.178536000000001
 30
0.0
 40
15.977236
 50
270.012201
 51
285.022719
  0
ARC
  5
6C3
  8
_________1
 62
     7
 10
138.572419
 20
53.896720000000002
 30
0.0
 40
14.669807
 50
289.93964399999999
 51
294.48272300000002
  0
ARC
  5
6C4
  8
_________1
 62
     7
 10
138.58804799999999
 20
53.810090000000002
 30
0.0
 40
14.585046
 50
298.78447299999999
 51
320.76487200000003
  0
ARC
  5
6C5
  8
_________1
 62
     7
 10
138.40034700000001
 20
53.99409399999999
 30
0.0
 40
14.846906000000001
 50
324.39092599999998
 51
328.115478
  0
ARC
  5
6C6
  8
_________1
 62
     7
 10
138.32603399999999
 20
54.035143000000012
 30
0.0
 40
14.932093
 50
331.498198
 51
351.34075999999999
  0
ARC
  5
6C7
  8
_________1
 62
     7
 10
138.99224100000001
 20
53.906167000000003
 30
0.0
 40
14.253546
 50
355.41788700000001
 51
359.80721399999999
  0
ARC
  5
6C8
  8
_________1
 62
     7
 10
139.371139
 20
53.922809999999998
 30
0.0
 40
13.873889
 50
4.0189779999999988
 51
12.698567000000001
  0
ARC
  5
6C9
  8
_________1
  6
AIGENLINE002
 62
     7
 10
286.45748800000001
 20
87.146331000000004
 30
0.0
 40
136.91801100000001
 50
192.32917499999999
 51
192.73126300000001
  0
ARC
  5
6CA
  8
_________1
  6
AIGENLINE002
 62
     7
 10
205.17218199999999
 20
69.302286999999993
 30
0.0
 40
53.697243000000007
 50
187.86896399999989
 51
192.24823499999999
  0
ARC
  5
6CB
  8
_________1
  6
AIGENLINE002
 62
     7
 10
193.18155100000001
 20
67.509664999999998
 30
0.0
 40
41.57430999999999
 50
180.32217800000001
 51
187.68410800000001
  0
ARC
  5
6CC
  8
_________1
 62
     7
 10
57.620405000000012
 20
142.70065199999999
 30
0.0
 40
31.517391
 50
65.011589999999998
 51
90.050955000000016
  0
LINE
  5
6CD
  8
_________1
 62
     7
 10
131.71100000000001
 20
161.66499999999999
 30
0.0
 11
131.71100000000001
 21
157.60400000000001
 31
0.0
  0
INSERT
  5
6CE
  8
_________1
 62
     7
  2
AIGNBL02010002
 10
0.0
 20
0.0
 30
0.0
  0
INSERT
  5
6CF
  8
_________1
 62
     7
  2
AIGNBL02010004
 10
0.0
 20
0.0
 30
0.0
  0
ARC
  5
6D0
  8
_________1
 62
     7
 10
60.984657999999989
 20
252.60414800000001
 30
0.0
 40
0.208187
 50
2.2138369999999989
 51
87.786152999999999
  0
ARC
  5
6D1
  8
_________1
 62
     7
 10
60.985052000000003
 20
252.61983900000001
 30
0.0
 40
0.207779
 50
272.109737
 51
357.89027299999998
  0
ARC
  5
6D2
  8
_________1
 62
     7
 10
57.592369999999988
 20
252.61219
 30
0.0
 40
0.5000590000000001
 50
270.00002000000001
 51
359.99999000000003
  0
ARC
  5
6D3
  8
_________1
 62
     7
 10
57.592369999999988
 20
252.61219
 30
0.0
 40
0.5000590000000001
 50
179.99996999999999
 51
270.00002000000001
  0
ARC
  5
6D4
  8
_________1
 62
     7
 10
57.592369999999988
 20
252.61219
 30
0.0
 40
0.5000590000000001
 50
90.0
 51
179.99996999999999
  0
ARC
  5
6D5
  8
_________1
 62
     7
 10
57.592369999999988
 20
252.61219
 30
0.0
 40
0.5000590000000001
 50
0.00001
 51
89.999980000000008
  0
INSERT
  5
6D6
  8
_________1
 62
     7
  2
AIGNBL02010006
 10
0.0
 20
0.0
 30
0.0
  0
INSERT
  5
6D7
  8
_________1
 62
     7
  2
AIGNBL02010007
 10
0.0
 20
0.0
 30
0.0
  0
LINE
  5
6D8
  8
_________1
 62
     7
 10
62.0931
 20
159.21600000000001
 30
0.0
 11
62.0931
 21
149.93199999999999
 31
0.0
  0
LINE
  5
6D9
  8
_________1
 62
     7
 10
43.292700000000004
 20
174.21799999999999
 30
0.0
 11
57.592399999999998
 21
174.21799999999999
 31
0.0
  0
LINE
  5
6DA
  8
_________1
 62
     7
 10
68.914100000000005
 20
164.96100000000001
 30
0.0
 11
82.600600000000014
 21
164.96100000000001
 31
0.0
  0
INSERT
  5
6DB
  8
_________1
 62
     7
  2
AIGNBL02010008
 10
0.0
 20
0.0
 30
0.0
  0
LINE
  5
6DC
  8
_________1
 62
     7
 10
58.8812
 20
166.56100000000001
 30
0.0
 11
89.038899999999998
 21
166.56100000000001
 31
0.0
  0
INSERT
  5
6DD
  8
_________1
 62
     7
  2
AIGNBL02010009
 10
0.0
 20
0.0
 30
0.0
  0
LINE
  5
6DE
  8
_________1
 62
     7
 10
48.967500000000001
 20
127.56100000000001
 30
0.0
 11
89.031599999999983
 21
127.56100000000001
 31
0.0
  0
LINE
  5
6DF
  8
_________1
 62
     7
 10
64.152600000000007
 20
144.56100000000001
 30
0.0
 11
77.028199999999998
 21
144.56100000000001
 31
0.0
  0
LINE
  5
6E0
  8
_________1
  6
AIGENLINE002
 62
     7
 10
63.166600000000003
 20
144.56100000000001
 30
0.0
 11
43.730299999999993
 21
144.56100000000001
 31
0.0
  0
INSERT
  5
6E1
  8
_________1
 62
     7
  2
AIGNBL0201000A
 10
0.0
 20
0.0
 30
0.0
  0
LINE
  5
6E2
  8
_________1
 62
     7
 10
71.312700000000007
 20
172.07900000000001
 30
0.0
 11
68.552999999999983
 21
166.161
 31
0.0
  0
INSERT
  5
6E3
  8
_________1
 62
     7
  2
AIGNBL0201000B
 10
0.0
 20
0.0
 30
0.0
  0
INSERT
  5
6E4
  8
_________1
 62
     7
  2
AIGNBL0201000C
 10
0.0
 20
0.0
 30
0.0
  0
INSERT
  5
6E5
  8
_________1
 62
     7
  2
AIGNBL0201000D
 10
0.0
 20
0.0
 30
0.0
  0
INSERT
  5
6E6
  8
_________1
 62
     7
  2
AIGNBL0201000E
 10
0.0
 20
0.0
 30
0.0
  0
INSERT
  5
6E7
  8
_________1
 62
     7
  2
AIGNBL0201000F
 10
0.0
 20
0.0
 30
0.0
  0
INSERT
  5
6E8
  8
_________1
 62
     7
  2
AIGNBL02010010
 10
0.0
 20
0.0
 30
0.0
  0
INSERT
  5
6E9
  8
_________1
 62
     7
  2
AIGNBL02010011
 10
0.0
 20
0.0
 30
0.0
  0
INSERT
  5
6EA
  8
_________1
 62
     7
  2
AIGNBL02010012
 10
0.0
 20
0.0
 30
0.0
  0
INSERT
  5
6EB
  8
_________1
 62
     7
  2
AIGNBL02010013
 10
0.0
 20
0.0
 30
0.0
  0
INSERT
  5
6EC
  8
_________1
 62
     7
  2
AIGNBL02010014
 10
0.0
 20
0.0
 30
0.0
  0
INSERT
  5
6ED
  8
_________1
 62
     7
  2
AIGNBL02010015
 10
0.0
 20
0.0
 30
0.0
  0
INSERT
  5
6EE
  8
_________1
 62
     7
  2
AIGNBL02010016
 10
0.0
 20
0.0
 30
0.0
  0
INSERT
  5
6EF
  8
_________1
 62
     7
  2
AIGNBL02010017
 10
0.0
 20
0.0
 30
0.0
  0
INSERT
  5
6F0
  8
_________1
 62
     7
  2
AIGNBL02010018
 10
0.0
 20
0.0
 30
0.0
  0
INSERT
  5
6F1
  8
_________1
 62
     7
  2
AIGNBL02010019
 10
0.0
 20
0.0
 30
0.0
  0
INSERT
  5
6F2
  8
_________1
 62
     7
  2
AIGNBL0201001A
 10
0.0
 20
0.0
 30
0.0
  0
INSERT
  5
6F3
  8
_________1
 62
     7
  2
AIGNBL0201001B
 10
0.0
 20
0.0
 30
0.0
  0
INSERT
  5
6F4
  8
_________1
 62
     7
  2
AIGNBL0201001C
 10
0.0
 20
0.0
 30
0.0
  0
INSERT
  5
6F5
  8
_________1
 62
     7
  2
AIGNBL0201001D
 10
0.0
 20
0.0
 30
0.0
  0
INSERT
  5
6F6
  8
_________1
 62
     7
  2
AIGNBL0201001E
 10
0.0
 20
0.0
 30
0.0
  0
INSERT
  5
6F7
  8
_________1
 62
     7
  2
AIGNBL0201001F
 10
0.0
 20
0.0
 30
0.0
  0
INSERT
  5
6F8
  8
_________1
 62
     7
  2
AIGNBL02010020
 10
0.0
 20
0.0
 30
0.0
  0
INSERT
  5
6F9
  8
_________1
 62
     7
  2
AIGNBL02010021
 10
0.0
 20
0.0
 30
0.0
  0
INSERT
  5
6FA
  8
_________1
 62
     7
  2
AIGNBL02010022
 10
0.0
 20
0.0
 30
0.0
  0
INSERT
  5
6FB
  8
_________1
 62
     7
  2
AIGNBL02010023
 10
0.0
 20
0.0
 30
0.0
  0
INSERT
  5
6FC
  8
_________1
 62
     7
  2
AIGNBL02010024
 10
0.0
 20
0.0
 30
0.0
  0
INSERT
  5
6FD
  8
_________1
 62
     7
  2
AIGNBL02010025
 10
0.0
 20
0.0
 30
0.0
  0
INSERT
  5
6FE
  8
_________1
 62
     7
  2
AIGNBL02010026
 10
0.0
 20
0.0
 30
0.0
  0
INSERT
  5
6FF
  8
_________1
 62
     7
  2
AIGNBL02010027
 10
0.0
 20
0.0
 30
0.0
  0
INSERT
  5
700
  8
_________1
 62
     7
  2
AIGNBL02010028
 10
0.0
 20
0.0
 30
0.0
  0
INSERT
  5
701
  8
_________1
 62
     7
  2
AIGNBL02010029
 10
0.0
 20
0.0
 30
0.0
  0
INSERT
  5
702
  8
_________1
 62
     7
  2
AIGNBL0201002A
 10
0.0
 20
0.0
 30
0.0
  0
INSERT
  5
703
  8
_________1
 62
     7
  2
AIGNBL0201002B
 10
0.0
 20
0.0
 30
0.0
  0
INSERT
  5
704
  8
_________1
 62
     7
  2
AIGNBL0201002C
 10
0.0
 20
0.0
 30
0.0
  0
INSERT
  5
705
  8
_________1
 62
     7
  2
AIGNBL0201002D
 10
0.0
 20
0.0
 30
0.0
  0
INSERT
  5
706
  8
_________1
 62
     7
  2
AIGNBL0201002E
 10
0.0
 20
0.0
 30
0.0
  0
INSERT
  5
707
  8
_________1
 62
     7
  2
AIGNBL0201002F
 10
0.0
 20
0.0
 30
0.0
  0
INSERT
  5
708
  8
_________1
 62
     7
  2
AIGNBL02010030
 10
0.0
 20
0.0
 30
0.0
  0
INSERT
  5
709
  8
_________1
 62
     7
  2
AIGNBL02010031
 10
0.0
 20
0.0
 30
0.0
  0
INSERT
  5
70A
  8
_________1
 62
     7
  2
AIGNBL02010032
 10
0.0
 20
0.0
 30
0.0
  0
INSERT
  5
70B
  8
_________1
 62
     7
  2
AIGNBL02010033
 10
0.0
 20
0.0
 30
0.0
  0
INSERT
  5
70C
  8
_________1
 62
     7
  2
AIGNBL02010034
 10
0.0
 20
0.0
 30
0.0
  0
INSERT
  5
70D
  8
_________1
 62
     7
  2
AIGNBL02010035
 10
0.0
 20
0.0
 30
0.0
  0
INSERT
  5
70E
  8
_________1
 62
     7
  2
AIGNBL02010036
 10
0.0
 20
0.0
 30
0.0
  0
INSERT
  5
70F
  8
_________1
 62
     7
  2
AIGNBL02010037
 10
0.0
 20
0.0
 30
0.0
  0
INSERT
  5
710
  8
_________1
 62
     7
  2
AIGNBL02010038
 10
0.0
 20
0.0
 30
0.0
  0
INSERT
  5
711
  8
_________1
 62
     7
  2
AIGNBL02010039
 10
0.0
 20
0.0
 30
0.0
  0
INSERT
  5
712
  8
_________1
 62
     7
  2
AIGNBL0201003A
 10
0.0
 20
0.0
 30
0.0
  0
INSERT
  5
713
  8
_________1
 62
     7
  2
AIGNBL0201003B
 10
0.0
 20
0.0
 30
0.0
  0
INSERT
  5
714
  8
_________1
 62
     7
  2
AIGNBL0201003C
 10
0.0
 20
0.0
 30
0.0
  0
INSERT
  5
715
  8
_________1
 62
     7
  2
AIGNBL0201003D
 10
0.0
 20
0.0
 30
0.0
  0
INSERT
  5
716
  8
_________1
 62
     7
  2
AIGNBL0201003E
 10
0.0
 20
0.0
 30
0.0
  0
INSERT
  5
717
  8
_________1
 62
     7
  2
AIGNBL0201003F
 10
0.0
 20
0.0
 30
0.0
  0
INSERT
  5
718
  8
_________1
 62
     7
  2
AIGNBL02010040
 10
0.0
 20
0.0
 30
0.0
  0
INSERT
  5
719
  8
_________1
 62
     7
  2
AIGNBL02010041
 10
0.0
 20
0.0
 30
0.0
  0
INSERT
  5
71A
  8
_________1
 62
     7
  2
AIGNBL02010042
 10
0.0
 20
0.0
 30
0.0
  0
INSERT
  5
71B
  8
_________1
 62
     7
  2
AIGNBL02010043
 10
0.0
 20
0.0
 30
0.0
  0
INSERT
  5
71C
  8
_________1
 62
     7
  2
AIGNBL02010044
 10
0.0
 20
0.0
 30
0.0
  0
INSERT
  5
71D
  8
_________1
 62
     7
  2
AIGNBL02010045
 10
0.0
 20
0.0
 30
0.0
  0
INSERT
  5
71E
  8
_________1
 62
     7
  2
AIGNBL02010046
 10
0.0
 20
0.0
 30
0.0
  0
ARC
  5
71F
  8
_________1
 62
     7
 10
204.31788599999999
 20
69.433451000000005
 30
0.0
 40
54.094908999999987
 50
184.786022
 51
188.969144
  0
ARC
  5
720
  8
_________1
 62
     7
 10
187.25657100000001
 20
67.868340000000003
 30
0.0
 40
36.962747999999998
 50
180.57017400000001
 51
184.57497000000001
  0
ARC
  5
721
  8
_________1
 62
     7
 10
149.81592699999999
 20
75.425689000000006
 30
0.0
 40
2.0739740000000002
 50
106.35073199999999
 51
124.73978700000001
  0
ARC
  5
722
  8
_________1
 62
     7
 10
149.71842100000001
 20
75.634800999999996
 30
0.0
 40
1.8461959999999991
 50
81.238003000000006
 51
105.273933
  0
ARC
  5
723
  8
_________1
 62
     7
 10
149.58739199999999
 20
74.421807999999999
 30
0.0
 40
3.0654910000000002
 50
74.393924999999996
 51
82.271191999999999
  0
ARC
  5
724
  8
_________1
 62
     7
 10
148.949209
 20
71.997993999999991
 30
0.0
 40
5.5717589999999992
 50
71.984754000000009
 51
74.778555000000011
  0
ARC
  5
725
  8
_________1
 62
     7
 10
144.942815
 20
59.775754999999997
 30
0.0
 40
18.433876999999999
 50
70.431894
 51
71.891486999999998
  0
ARC
  5
726
  8
_________1
 62
     7
 10
153.85229100000001
 20
84.852299000000002
 30
0.0
 40
8.1783739999999998
 50
250.45930300000001
 51
253.463369
  0
ARC
  5
727
  8
_________1
 62
     7
 10
152.58527900000001
 20
80.563224000000005
 30
0.0
 40
3.7060809999999988
 50
253.36772099999999
 51
260.48241999999999
  0
ARC
  5
728
  8
_________1
 62
     7
 10
152.31242599999999
 20
79.003729000000007
 30
0.0
 40
2.122965999999999
 50
260.78559999999999
 51
278.30027200000001
  0
ARC
  5
729
  8
_________1
 62
     7
 10
152.32767200000001
 20
78.664085
 30
0.0
 40
1.7850019999999991
 50
279.38992999999999
 51
301.00295899999998
  0
ARC
  5
72A
  8
_________1
 62
     7
 10
152.062444
 20
79.148382999999995
 30
0.0
 40
2.3368319999999989
 50
300.46070600000002
 51
308.90125599999999
  0
ARC
  5
72B
  8
_________1
 62
     7
 10
149.739901
 20
76.706506000000005
 30
0.0
 40
2.0729690000000001
 50
106.36516399999999
 51
124.762772
  0
ARC
  5
72C
  8
_________1
 62
     7
 10
149.642335
 20
76.915576000000001
 30
0.0
 40
1.8452059999999999
 50
81.241318000000007
 51
105.28746099999999
  0
ARC
  5
72D
  8
_________1
 62
     7
 10
149.51138700000001
 20
75.703191000000004
 30
0.0
 40
3.0638899999999998
 50
74.392725999999996
 51
82.273481999999987
  0
ARC
  5
72E
  8
_________1
 62
     7
 10
148.87153499999999
 20
73.274672999999993
 30
0.0
 40
5.5751349999999986
 50
71.982215999999994
 51
74.774143000000009
  0
ARC
  5
72F
  8
_________1
 62
     7
 10
144.85680400000001
 20
61.032323999999988
 30
0.0
 40
18.458957999999999
 50
70.427891000000002
 51
71.885543999999996
  0
ARC
  5
730
  8
_________1
 62
     7
 10
153.78123099999999
 20
86.145772999999977
 30
0.0
 40
8.1930740000000011
 50
250.45620099999999
 51
253.455051
  0
ARC
  5
731
  8
_________1
 62
     7
 10
152.50953100000001
 20
81.843606000000008
 30
0.0
 40
3.7068970000000001
 50
253.361221
 51
260.47506499999997
  0
ARC
  5
732
  8
_________1
 62
     7
 10
152.236368
 20
80.283485999999996
 30
0.0
 40
2.123113
 50
260.77821
 51
278.29344200000003
  0
ARC
  5
733
  8
_________1
 62
     7
 10
152.2517
 20
79.943543999999974
 30
0.0
 40
1.7848360000000001
 50
279.380539
 51
300.99797599999999
  0
ARC
  5
734
  8
_________1
 62
     7
 10
151.986797
 20
80.427572999999995
 30
0.0
 40
2.3362709999999991
 50
300.45334500000001
 51
308.89693899999997
  0
INSERT
  5
735
  8
_________1
 62
     7
  2
AIGNBL02010048
 10
0.0
 20
0.0
 30
0.0
  0
INSERT
  5
736
  8
_________1
 62
     7
  2
AIGNBL02010049
 10
0.0
 20
0.0
 30
0.0
  0
INSERT
  5
737
  8
_________1
 62
     7
  2
AIGNBL0201004A
 10
0.0
 20
0.0
 30
0.0
  0
INSERT
  5
738
  8
_________1
 62
     7
  2
AIGNBL0201004B
 10
0.0
 20
0.0
 30
0.0
  0
INSERT
  5
739
  8
_________1
 62
     7
  2
AIGNBL0201004C
 10
0.0
 20
0.0
 30
0.0
  0
LINE
  5
73A
  8
_________1
 62
     7
 10
169.68000000000001
 20
157.077
 30
0.0
 11
172.952
 21
159.20099999999999
 31
0.0
  0
LINE
  5
73B
  8
_________1
 62
     7
 10
131.13499999999999
 20
157.077
 30
0.0
 11
127.864
 21
159.20099999999999
 31
0.0
  0
LINE
  5
73C
  8
_________1
 62
     7
 10
150.40799999999999
 20
167.541
 30
0.0
 11
150.40799999999999
 21
171.44200000000001
 31
0.0
  0
LINE
  5
73D
  8
_________1
  6
AIGENLINE002
 62
     7
 10
145.535
 20
144.56100000000001
 30
0.0
 11
155.339
 21
144.56100000000001
 31
0.0
  0
LINE
  5
73E
  8
_________1
  6
AIGENLINE002
 62
     7
 10
150.40799999999999
 20
144.56100000000001
 30
0.0
 11
131.52000000000001
 21
156.827
 31
0.0
  0
INSERT
  5
73F
  8
_________1
 62
     7
  2
AIGNBL0201004D
 10
0.0
 20
0.0
 30
0.0
  0
INSERT
  5
740
  8
_________1
 62
     7
  2
AIGNBL0201004E
 10
0.0
 20
0.0
 30
0.0
  0
INSERT
  5
741
  8
_________1
 62
     7
  2
AIGNBL0201004F
 10
0.0
 20
0.0
 30
0.0
  0
INSERT
  5
742
  8
_________1
 62
     7
  2
AIGNBL02010050
 10
0.0
 20
0.0
 30
0.0
  0
INSERT
  5
743
  8
_________1
 62
     7
  2
AIGNBL02010051
 10
0.0
 20
0.0
 30
0.0
  0
INSERT
  5
744
  8
_________1
 62
     7
  2
AIGNBL02010052
 10
0.0
 20
0.0
 30
0.0
  0
INSERT
  5
745
  8
_________1
 62
     7
  2
AIGNBL02010053
 10
0.0
 20
0.0
 30
0.0
  0
INSERT
  5
746
  8
_________1
 62
     7
  2
AIGNBL02010054
 10
0.0
 20
0.0
 30
0.0
  0
INSERT
  5
747
  8
_________1
 62
     7
  2
AIGNBL02010055
 10
0.0
 20
0.0
 30
0.0
  0
LINE
  5
748
  8
_________1
  6
AIGENLINE002
 62
     7
 10
150.40799999999999
 20
144.56100000000001
 30
0.0
 11
169.29499999999999
 21
156.827
 31
0.0
  0
INSERT
  5
749
  8
_________1
 62
     7
  2
AIGNBL02010056
 10
0.0
 20
0.0
 30
0.0
  0
INSERT
  5
74A
  8
_________1
 62
     7
  2
AIGNBL02010057
 10
0.0
 20
0.0
 30
0.0
  0
INSERT
  5
74B
  8
_________1
 62
     7
  2
AIGNBL02010058
 10
0.0
 20
0.0
 30
0.0
  0
INSERT
  5
74C
  8
_________1
 62
     7
  2
AIGNBL02010059
 10
0.0
 20
0.0
 30
0.0
  0
INSERT
  5
74D
  8
_________1
 62
     7
  2
AIGNBL0201005A
 10
0.0
 20
0.0
 30
0.0
  0
INSERT
  5
74E
  8
_________1
 62
     7
  2
AIGNBL0201005B
 10
0.0
 20
0.0
 30
0.0
  0
INSERT
  5
74F
  8
_________1
 62
     7
  2
AIGNBL0201005C
 10
0.0
 20
0.0
 30
0.0
  0
INSERT
  5
750
  8
_________1
 62
     7
  2
AIGNBL0201005D
 10
0.0
 20
0.0
 30
0.0
  0
INSERT
  5
751
  8
_________1
 62
     7
  2
AIGNBL0201005E
 10
0.0
 20
0.0
 30
0.0
  0
LINE
  5
752
  8
_________1
  6
AIGENLINE002
 62
     7
 10
150.40799999999999
 20
144.56100000000001
 30
0.0
 11
150.40799999999999
 21
167.08199999999999
 31
0.0
  0
INSERT
  5
753
  8
_________1
 62
     7
  2
AIGNBL0201005F
 10
0.0
 20
0.0
 30
0.0
  0
INSERT
  5
754
  8
_________1
 62
     7
  2
AIGNBL02010060
 10
0.0
 20
0.0
 30
0.0
  0
INSERT
  5
755
  8
_________1
 62
     7
  2
AIGNBL02010061
 10
0.0
 20
0.0
 30
0.0
  0
INSERT
  5
756
  8
_________1
 62
     7
  2
AIGNBL02010062
 10
0.0
 20
0.0
 30
0.0
  0
INSERT
  5
757
  8
_________1
 62
     7
  2
AIGNBL02010063
 10
0.0
 20
0.0
 30
0.0
  0
INSERT
  5
758
  8
_________1
 62
     7
  2
AIGNBL02010064
 10
0.0
 20
0.0
 30
0.0
  0
INSERT
  5
759
  8
_________1
 62
     7
  2
AIGNBL02010065
 10
0.0
 20
0.0
 30
0.0
  0
INSERT
  5
75A
  8
_________1
 62
     7
  2
AIGNBL02010066
 10
0.0
 20
0.0
 30
0.0
  0
INSERT
  5
75B
  8
_________1
 62
     7
  2
AIGNBL02010067
 10
0.0
 20
0.0
 30
0.0
  0
INSERT
  5
75C
  8
_________1
 62
     7
  2
AIGNBL02010068
 10
0.0
 20
0.0
 30
0.0
  0
INSERT
  5
75D
  8
_________1
 62
     7
  2
AIGNBL02010069
 10
0.0
 20
0.0
 30
0.0
  0
INSERT
  5
75E
  8
_________1
 62
     7
  2
AIGNBL0201006A
 10
0.0
 20
0.0
 30
0.0
  0
INSERT
  5
75F
  8
_________1
 62
     7
  2
AIGNBL0201006B
 10
0.0
 20
0.0
 30
0.0
  0
INSERT
  5
760
  8
_________1
 62
     7
  2
AIGNBL0201006C
 10
0.0
 20
0.0
 30
0.0
  0
INSERT
  5
761
  8
_________1
 62
     7
  2
AIGNBL0201006D
 10
0.0
 20
0.0
 30
0.0
  0
INSERT
  5
762
  8
_________1
 62
     7
  2
AIGNBL0201006E
 10
0.0
 20
0.0
 30
0.0
  0
INSERT
  5
763
  8
_________1
 62
     7
  2
AIGNBL0201006F
 10
0.0
 20
0.0
 30
0.0
  0
INSERT
  5
764
  8
_________1
 62
     7
  2
AIGNBL02010070
 10
0.0
 20
0.0
 30
0.0
  0
INSERT
  5
765
  8
_________1
 62
     7
  2
AIGNBL02010071
 10
0.0
 20
0.0
 30
0.0
  0
INSERT
  5
766
  8
_________1
 62
     7
  2
AIGNBL02010072
 10
0.0
 20
0.0
 30
0.0
  0
INSERT
  5
767
  8
_________1
 62
     7
  2
AIGNBL02010073
 10
0.0
 20
0.0
 30
0.0
  0
INSERT
  5
768
  8
_________1
 62
     7
  2
AIGNBL02010074
 10
0.0
 20
0.0
 30
0.0
  0
INSERT
  5
769
  8
_________1
 62
     7
  2
AIGNBL02010075
 10
0.0
 20
0.0
 30
0.0
  0
INSERT
  5
76A
  8
_________1
 62
     7
  2
AIGNBL02010076
 10
0.0
 20
0.0
 30
0.0
  0
INSERT
  5
76B
  8
_________1
 62
     7
  2
AIGNBL02010077
 10
0.0
 20
0.0
 30
0.0
  0
INSERT
  5
76C
  8
_________1
 62
     7
  2
AIGNBL02010078
 10
0.0
 20
0.0
 30
0.0
  0
INSERT
  5
76D
  8
_________1
 62
     7
  2
AIGNBL02010079
 10
0.0
 20
0.0
 30
0.0
  0
INSERT
  5
76E
  8
_________1
 62
     7
  2
AIGNBL0201007A
 10
0.0
 20
0.0
 30
0.0
  0
INSERT
  5
76F
  8
_________1
 62
     7
  2
AIGNBL0201007B
 10
0.0
 20
0.0
 30
0.0
  0
INSERT
  5
770
  8
_________1
 62
     7
  2
AIGNBL0201007C
 10
0.0
 20
0.0
 30
0.0
  0
INSERT
  5
771
  8
_________1
 62
     7
  2
AIGNBL0201007D
 10
0.0
 20
0.0
 30
0.0
  0
INSERT
  5
772
  8
_________1
 62
     7
  2
AIGNBL0201007E
 10
0.0
 20
0.0
 30
0.0
  0
INSERT
  5
773
  8
_________1
 62
     7
  2
AIGNBL0201007F
 10
0.0
 20
0.0
 30
0.0
  0
INSERT
  5
774
  8
_________1
 62
     7
  2
AIGNBL02010080
 10
0.0
 20
0.0
 30
0.0
  0
INSERT
  5
775
  8
_________1
 62
     7
  2
AIGNBL02010081
 10
0.0
 20
0.0
 30
0.0
  0
INSERT
  5
776
  8
_________1
 62
     7
  2
AIGNBL02010082
 10
0.0
 20
0.0
 30
0.0
  0
INSERT
  5
777
  8
_________1
 62
     7
  2
AIGNBL02010083
 10
0.0
 20
0.0
 30
0.0
  0
INSERT
  5
778
  8
_________1
 62
     7
  2
AIGNBL02010084
 10
0.0
 20
0.0
 30
0.0
  0
INSERT
  5
779
  8
_________1
 62
     7
  2
AIGNBL02010085
 10
0.0
 20
0.0
 30
0.0
  0
INSERT
  5
77A
  8
_________1
 62
     7
  2
AIGNBL02010086
 10
0.0
 20
0.0
 30
0.0
  0
LINE
  5
77B
  8
_________1
  6
AIGENLINE002
 62
     7
 10
43.292700000000004
 20
37.218299999999999
 30
0.0
 11
43.292700000000004
 21
207.553
 31
0.0
  0
INSERT
  5
77C
  8
_________1
 62
     7
  2
AIGNBL02010087
 10
0.0
 20
0.0
 30
0.0
  0
LINE
  5
77D
  8
_________1
  6
AIGENLINE002
 62
     7
 10
38.220500000000001
 20
252.61199999999999
 30
0.0
 11
64.083299999999994
 21
252.61199999999999
 31
0.0
  0
LINE
  5
77E
  8
_________1
  6
AIGENLINE002
 62
     7
 10
43.292700000000004
 20
209.57300000000001
 30
0.0
 11
43.292700000000004
 21
257.68099999999998
 31
0.0
  0
INSERT
  5
77F
  8
_________1
 62
     7
  2
AIGNBL02010088
 10
0.0
 20
0.0
 30
0.0
  0
INSERT
  5
780
  8
_________1
 62
     7
  2
AIGNBL02010089
 10
0.0
 20
0.0
 30
0.0
  0
INSERT
  5
781
  8
_________1
 62
     7
  2
AIGNBL0201008A
 10
0.0
 20
0.0
 30
0.0
  0
INSERT
  5
782
  8
_________1
 62
     7
  2
AIGNBL0201008B
 10
0.0
 20
0.0
 30
0.0
  0
INSERT
  5
783
  8
_________1
 62
     7
  2
AIGNBL0201008C
 10
0.0
 20
0.0
 30
0.0
  0
INSERT
  5
784
  8
_________1
 62
     7
  2
AIGNBL0201008D
 10
0.0
 20
0.0
 30
0.0
  0
INSERT
  5
785
  8
_________1
 62
     7
  2
AIGNBL0201008E
 10
0.0
 20
0.0
 30
0.0
  0
INSERT
  5
786
  8
_________1
 62
     7
  2
AIGNBL0201008F
 10
0.0
 20
0.0
 30
0.0
  0
INSERT
  5
787
  8
_________1
 62
     7
  2
AIGNBL02010090
 10
0.0
 20
0.0
 30
0.0
  0
INSERT
  5
788
  8
_________1
 62
     7
  2
AIGNBL02010091
 10
0.0
 20
0.0
 30
0.0
  0
INSERT
  5
789
  8
_________1
 62
     7
  2
AIGNBL02010092
 10
0.0
 20
0.0
 30
0.0
  0
INSERT
  5
78A
  8
_________1
 62
     7
  2
AIGNBL02010093
 10
0.0
 20
0.0
 30
0.0
  0
ARC
  5
78B
  8
_________1
 62
     7
 10
43.292549000000001
 20
212.61213900000001
 30
0.0
 40
2.400040999999999
 50
180.00412199999991
 51
270.00413200000003
  0
ARC
  5
78C
  8
_________1
 62
     7
 10
43.292720999999993
 20
212.61196699999999
 30
0.0
 40
2.3998689999999989
 50
270.00002000000001
 51
359.99999000000003
  0
ARC
  5
78D
  8
_________1
 62
     7
 10
43.292635999999987
 20
252.61210299999999
 30
0.0
 40
2.400126999999999
 50
89.997943999999976
 51
179.99791400000001
  0
ARC
  5
78E
  8
_________1
 62
     7
 10
43.29263499999999
 20
252.61227600000001
 30
0.0
 40
2.399954999999999
 50
359.99795399999999
 51
89.997923999999998
  0
LINE
  5
78F
  8
_________1
  6
AIGENLINE002
 62
     7
 10
110.408
 20
170.43000000000001
 30
0.0
 11
110.408
 21
184.161
 31
0.0
  0
INSERT
  5
790
  8
_________1
 62
     7
  2
AIGNBL02010094
 10
0.0
 20
0.0
 30
0.0
  0
LINE
  5
791
  8
_________1
 62
     7
 10
110.408
 20
212.60400000000001
 30
0.0
 11
110.408
 21
189.179
 31
0.0
  0
LINE
  5
792
  8
_________1
 62
     7
 10
150.40799999999999
 20
212.60400000000001
 30
0.0
 11
150.40799999999999
 21
189.179
 31
0.0
  0
INSERT
  5
793
  8
_________1
 62
     7
  2
AIGNBL02010095
 10
0.0
 20
0.0
 30
0.0
  0
LINE
  5
794
  8
_________1
 62
     7
 10
136.041
 20
206.56100000000001
 30
0.0
 11
177.602
 21
206.56100000000001
 31
0.0
  0
INSERT
  5
795
  8
_________1
 62
     7
  2
AIGNBL02010096
 10
0.0
 20
0.0
 30
0.0
  0
LINE
  5
796
  8
_________1
 62
     7
 10
107.72199999999999
 20
171.761
 30
0.0
 11
101.592
 21
171.761
 31
0.0
  0
LINE
  5
797
  8
_________1
 62
     7
 10
130.61699999999999
 20
156.93700000000001
 30
0.0
 11
121.651
 21
156.93700000000001
 31
0.0
  0
LINE
  5
798
  8
_________1
 62
     7
 10
144.733
 20
127.56100000000001
 30
0.0
 11
101.59999999999999
 21
127.56100000000001
 31
0.0
  0
LINE
  5
799
  8
_________1
 62
     7
 10
155.35900000000001
 20
127.56100000000001
 30
0.0
 11
178.06599999999989
 21
127.56100000000001
 31
0.0
  0
ARC
  5
79A
  8
_________1
 62
     7
 10
43.292635999999987
 20
204.17444399999999
 30
0.0
 40
2.400126999999999
 50
89.997943999999976
 51
179.99791400000001
  0
ARC
  5
79B
  8
_________1
 62
     7
 10
43.29263499999999
 20
204.17461599999999
 30
0.0
 40
2.399954999999999
 50
359.99795399999999
 51
89.997923999999998
  0
LINE
  5
79C
  8
_________1
 62
     7
 10
112.80800000000001
 20
180.708
 30
0.0
 11
112.80800000000001
 21
184.161
 31
0.0
  0
LINE
  5
79D
  8
_________1
 62
     7
 10
108.008
 20
172.161
 30
0.0
 11
108.008
 21
184.161
 31
0.0
  0
ARC
  5
79E
  8
_________1
 62
     7
 10
130.40768299999999
 20
184.16115099999999
 30
0.0
 40
22.400155999999999
 50
90.0
 51
179.99996999999999
  0
ARC
  5
79F
  8
_________1
 62
     7
 10
130.40767500000001
 20
184.16115099999999
 30
0.0
 40
22.400155999999999
 50
0.00001
 51
89.999980000000008
  0
ARC
  5
7A0
  8
_________1
  6
AIGENLINE002
 62
     7
 10
130.407769
 20
184.161238
 30
0.0
 40
20.000029000000001
 50
90.000247000000016
 51
180.000257
  0
ARC
  5
7A1
  8
_________1
  6
AIGENLINE002
 62
     7
 10
130.40776199999999
 20
184.16106499999989
 30
0.0
 40
20.000201000000001
 50
0.000257
 51
90.000226999999995
  0
ARC
  5
7A2
  8
_________1
 62
     7
 10
130.40768199999999
 20
184.16115199999999
 30
0.0
 40
17.600073999999999
 50
90.0
 51
179.99996999999999
  0
ARC
  5
7A3
  8
_________1
 62
     7
 10
130.40767600000001
 20
184.16115199999999
 30
0.0
 40
17.600073999999999
 50
0.00001
 51
89.999980000000008
  0
INSERT
  5
7A4
  8
_________1
 62
     7
  2
AIGNBL02010097
 10
0.0
 20
0.0
 30
0.0
  0
INSERT
  5
7A5
  8
_________1
 62
     7
  2
AIGNBL02010098
 10
0.0
 20
0.0
 30
0.0
  0
INSERT
  5
7A6
  8
_________1
 62
     7
  2
AIGNBL02010099
 10
0.0
 20
0.0
 30
0.0
  0
INSERT
  5
7A7
  8
_________1
 62
     7
  2
AIGNBL0201009A
 10
0.0
 20
0.0
 30
0.0
  0
INSERT
  5
7A8
  8
_________1
 62
     7
  2
AIGNBL0201009B
 10
0.0
 20
0.0
 30
0.0
  0
INSERT
  5
7A9
  8
_________1
 62
     7
  2
AIGNBL0201009C
 10
0.0
 20
0.0
 30
0.0
  0
INSERT
  5
7AA
  8
_________1
 62
     7
  2
AIGNBL0201009D
 10
0.0
 20
0.0
 30
0.0
  0
INSERT
  5
7AB
  8
_________1
 62
     7
  2
AIGNBL0201009E
 10
0.0
 20
0.0
 30
0.0
  0
INSERT
  5
7AC
  8
_________1
 62
     7
  2
AIGNBL0201009F
 10
0.0
 20
0.0
 30
0.0
  0
INSERT
  5
7AD
  8
_________1
 62
     7
  2
AIGNBL020100A0
 10
0.0
 20
0.0
 30
0.0
  0
INSERT
  5
7AE
  8
_________1
 62
     7
  2
AIGNBL020100A1
 10
0.0
 20
0.0
 30
0.0
  0
INSERT
  5
7AF
  8
_________1
 62
     7
  2
AIGNBL020100A2
 10
0.0
 20
0.0
 30
0.0
  0
INSERT
  5
7B0
  8
_________1
 62
     7
  2
AIGNBL020100A3
 10
0.0
 20
0.0
 30
0.0
  0
INSERT
  5
7B1
  8
_________1
 62
     7
  2
AIGNBL020100A4
 10
0.0
 20
0.0
 30
0.0
  0
INSERT
  5
7B2
  8
_________1
 62
     7
  2
AIGNBL020100A5
 10
0.0
 20
0.0
 30
0.0
  0
INSERT
  5
7B3
  8
_________1
 62
     7
  2
AIGNBL020100A6
 10
0.0
 20
0.0
 30
0.0
  0
INSERT
  5
7B4
  8
_________1
 62
     7
  2
AIGNBL020100A7
 10
0.0
 20
0.0
 30
0.0
  0
INSERT
  5
7B5
  8
_________1
 62
     7
  2
AIGNBL020100A8
 10
0.0
 20
0.0
 30
0.0
  0
INSERT
  5
7B6
  8
_________1
 62
     7
  2
AIGNBL020100A9
 10
0.0
 20
0.0
 30
0.0
  0
INSERT
  5
7B7
  8
_________1
 62
     7
  2
AIGNBL020100AA
 10
0.0
 20
0.0
 30
0.0
  0
INSERT
  5
7B8
  8
_________1
 62
     7
  2
AIGNBL020100AB
 10
0.0
 20
0.0
 30
0.0
  0
INSERT
  5
7B9
  8
_________1
 62
     7
  2
AIGNBL020100AC
 10
0.0
 20
0.0
 30
0.0
  0
INSERT
  5
7BA
  8
_________1
 62
     7
  2
AIGNBL020100AD
 10
0.0
 20
0.0
 30
0.0
  0
INSERT
  5
7BB
  8
_________1
 62
     7
  2
AIGNBL020100AE
 10
0.0
 20
0.0
 30
0.0
  0
INSERT
  5
7BC
  8
_________1
 62
     7
  2
AIGNBL020100AF
 10
0.0
 20
0.0
 30
0.0
  0
INSERT
  5
7BD
  8
_________1
 62
     7
  2
AIGNBL020100B0
 10
0.0
 20
0.0
 30
0.0
  0
INSERT
  5
7BE
  8
_________1
 62
     7
  2
AIGNBL020100B1
 10
0.0
 20
0.0
 30
0.0
  0
INSERT
  5
7BF
  8
_________1
 62
     7
  2
AIGNBL020100B2
 10
0.0
 20
0.0
 30
0.0
  0
INSERT
  5
7C0
  8
_________1
 62
     7
  2
AIGNBL020100B3
 10
0.0
 20
0.0
 30
0.0
  0
INSERT
  5
7C1
  8
_________1
 62
     7
  2
AIGNBL020100B4
 10
0.0
 20
0.0
 30
0.0
  0
INSERT
  5
7C2
  8
_________1
 62
     7
  2
AIGNBL020100B5
 10
0.0
 20
0.0
 30
0.0
  0
INSERT
  5
7C3
  8
_________1
 62
     7
  2
AIGNBL020100B6
 10
0.0
 20
0.0
 30
0.0
  0
INSERT
  5
7C4
  8
_________1
 62
     7
  2
AIGNBL020100B7
 10
0.0
 20
0.0
 30
0.0
  0
INSERT
  5
7C5
  8
_________1
 62
     7
  2
AIGNBL020100B8
 10
0.0
 20
0.0
 30
0.0
  0
INSERT
  5
7C6
  8
_________1
 62
     7
  2
AIGNBL020100B9
 10
0.0
 20
0.0
 30
0.0
  0
INSERT
  5
7C7
  8
_________1
 62
     7
  2
AIGNBL020100BA
 10
0.0
 20
0.0
 30
0.0
  0
INSERT
  5
7C8
  8
_________1
 62
     7
  2
AIGNBL020100BB
 10
0.0
 20
0.0
 30
0.0
  0
INSERT
  5
7C9
  8
_________1
 62
     7
  2
AIGNBL020100BC
 10
0.0
 20
0.0
 30
0.0
  0
INSERT
  5
7CA
  8
_________1
 62
     7
  2
AIGNBL020100BD
 10
0.0
 20
0.0
 30
0.0
  0
LINE
  5
7CB
  8
_________1
 62
     7
 10
45.692599999999992
 20
212.61199999999999
 30
0.0
 11
45.692599999999992
 21
252.61199999999999
 31
0.0
  0
LINE
  5
7CC
  8
_________1
 62
     7
 10
40.892499999999991
 20
212.61199999999999
 30
0.0
 11
40.892499999999991
 21
252.61199999999999
 31
0.0
  0
LINE
  5
7CD
  8
_________1
 62
     7
 10
45.692599999999992
 20
154.75200000000001
 30
0.0
 11
45.692599999999992
 21
204.16200000000001
 31
0.0
  0
LINE
  5
7CE
  8
_________1
 62
     7
 10
40.892499999999991
 20
154.75200000000001
 30
0.0
 11
40.892499999999991
 21
204.16200000000001
 31
0.0
  0
INSERT
  5
7CF
  8
_________1
 62
     7
  2
AIGNBL020100BE
 10
0.0
 20
0.0
 30
0.0
  0
INSERT
  5
7D0
  8
_________1
 62
     7
  2
AIGNBL020100BF
 10
0.0
 20
0.0
 30
0.0
  0
ARC
  5
7D1
  8
_________1
 62
     7
 10
-3221.8210199999999
 20
2073.7359999999999
 30
0.0
 40
3908.4659999999999
 50
329.33273100000002
 51
329.3986799999999
  0
ARC
  5
7D2
  8
_________1
 62
     7
 10
6.4337679999999988
 20
163.755987
 30
0.0
 40
157.51375200000001
 50
329.616153
 51
330.60696300000001
  0
ARC
  5
7D3
  8
_________1
 62
     7
 10
71.393096999999997
 20
127.04130000000001
 30
0.0
 40
82.896990999999986
 50
330.68066099999999
 51
332.84206
  0
ARC
  5
7D4
  8
_________1
 62
     7
 10
98.771971999999991
 20
112.870479
 30
0.0
 40
52.068511000000001
 50
332.96482300000002
 51
338.00899900000002
  0
ARC
  5
7D5
  8
_________1
 62
     7
 10
107.972875
 20
108.934099
 30
0.0
 40
42.063518999999999
 50
338.287691
 51
349.42826700000001
  0
ARC
  5
7D6
  8
_________1
 62
     7
 10
99.875352000000007
 20
112.371515
 30
0.0
 40
48.072409
 50
338.38316400000002
 51
356.50263799999999
  0
ARC
  5
7D7
  8
_________1
 62
     7
 10
87.004284999999996
 20
117.24863000000001
 30
0.0
 40
61.835298000000002
 50
334.35779700000001
 51
338.57549900000009
  0
ARC
  5
7D8
  8
_________1
 62
     7
 10
67.488831000000005
 20
126.366111
 30
0.0
 40
83.374647999999993
 50
331.91001999999997
 51
334.51295099999999
  0
ARC
  5
7D9
  8
_________1
 62
     7
 10
35.751814000000003
 20
143.088131
 30
0.0
 40
119.247182
 50
330.09431699999999
 51
332.00193400000001
  0
ARC
  5
7DA
  8
_________1
 62
     7
 10
-13.671446
 20
171.19368399999999
 30
0.0
 40
176.10251
 50
329.42663800000003
 51
330.18473899999998
  0
ARC
  5
7DB
  8
_________1
 62
     7
 10
135.068555
 20
55.625197
 30
0.0
 40
10.188694999999999
 50
165.515805
 51
186.43579700000001
  0
ARC
  5
7DC
  8
_________1
 62
     7
 10
137.448532
 20
55.112011000000003
 30
0.0
 40
12.621765999999999
 50
156.467399
 51
165.962433
  0
ARC
  5
7DD
  8
_________1
 62
     7
 10
141.14492200000001
 20
53.599823000000001
 30
0.0
 40
16.614751999999999
 50
149.85247799999999
 51
156.77581699999999
  0
ARC
  5
7DE
  8
_________1
 62
     7
 10
146.60626300000001
 20
50.543899000000003
 30
0.0
 40
22.872357000000001
 50
144.96462500000001
 51
150.10366200000001
  0
ARC
  5
7DF
  8
_________1
 62
     7
 10
155.582213
 20
44.396980999999997
 30
0.0
 40
33.750892
 50
141.63148899999999
 51
145.16807700000001
  0
ARC
  5
7E0
  8
_________1
 62
     7
 10
171.215329
 20
32.216495999999999
 30
0.0
 40
53.568652999999998
 50
139.97780399999999
 51
141.79600300000001
  0
ARC
  5
7E1
  8
_________1
 62
     7
 10
200.89202399999999
 20
7.4769679999999994
 30
0.0
 40
92.204635999999994
 50
139.416921
 51
140.06429700000001
  0
ARC
  5
7E2
  8
_________1
 62
     7
 10
313.86958800000002
 20
-89.474171999999996
 30
0.0
 40
241.078565
 50
139.01784599999999
 51
139.385231
  0
LINE
  5
7E3
  8
_________1
 62
     7
 10
131.876
 20
68.630899999999997
 30
0.0
 11
133.62
 21
70.677599999999984
 31
0.0
  0
ARC
  5
7E4
  8
_________1
 62
     7
 10
93.499656000000002
 20
103.624583
 30
0.0
 40
51.914977999999998
 50
320.60721899999999
 51
326.92010800000003
  0
ARC
  5
7E5
  8
_________1
 62
     7
 10
85.382465999999994
 20
109.17911599999999
 30
0.0
 40
61.748567999999999
 50
326.71247099999999
 51
330.87388299999998
  0
ARC
  5
7E6
  8
_________1
 62
     7
 10
84.859242000000009
 20
109.562918
 30
0.0
 40
59.894241000000001
 50
324.43951099999998
 51
331.04129999999998
  0
ARC
  5
7E7
  8
_________1
 62
     7
 10
93.089468000000011
 20
103.885306
 30
0.0
 40
49.89733300000001
 50
320.67498999999998
 51
324.24701299999998
  0
LINE
  5
7E8
  8
_________1
 62
     7
 10
131.68799999999999
 20
72.264399999999995
 30
0.0
 11
129.98699999999999
 21
70.268699999999995
 31
0.0
  0
ARC
  5
7E9
  8
_________1
 62
     7
 10
353.64910600000002
 20
-123.718498
 30
0.0
 40
296.06713500000001
 50
139.06414599999999
 51
139.350438
  0
ARC
  5
7EA
  8
_________1
 62
     7
 10
188.97520800000001
 20
17.776385000000001
 30
0.0
 40
78.953637999999998
 50
139.40829500000001
 51
140.839707
  0
ARC
  5
7EB
  8
_________1
 62
     7
 10
162.06258600000001
 20
39.764750999999997
 30
0.0
 40
44.200620999999998
 50
140.91008199999999
 51
144.70379500000001
  0
ARC
  5
7EC
  8
_________1
 62
     7
 10
149.54830200000001
 20
48.791732000000003
 30
0.0
 40
28.771267999999999
 50
144.97624400000001
 51
149.71912800000001
  0
ARC
  5
7ED
  8
_________1
 62
     7
 10
142.90262999999999
 20
52.754029000000003
 30
0.0
 40
21.034478
 50
149.91167999999999
 51
157.21953300000001
  0
ARC
  5
7EE
  8
_________1
 62
     7
 10
138.21095299999999
 20
54.816132999999986
 30
0.0
 40
15.910550000000001
 50
157.52429000000001
 51
167.17770100000001
  0
ARC
  5
7EF
  8
_________1
 62
     7
 10
135.25531599999999
 20
55.56481999999999
 30
0.0
 40
12.862677
 50
167.50768400000001
 51
188.743875
  0
INSERT
  5
7F0
  8
_________1
 62
     7
  2
AIGNBL020100C0
 10
0.0
 20
0.0
 30
0.0
  0
ARC
  5
7F1
  8
_________1
 62
     7
 10
136.70178300000001
 20
79.106681999999992
 30
0.0
 40
1.635518
 50
56.702379000000001
 51
100.86230999999999
  0
ARC
  5
7F2
  8
_________1
 62
     7
 10
136.00106600000001
 20
78.02341899999999
 30
0.0
 40
2.9256410000000002
 50
48.71643499999999
 51
56.878981999999993
  0
ARC
  5
7F3
  8
_________1
 62
     7
 10
132.703802
 20
74.158309000000003
 30
0.0
 40
8.0059089999999991
 50
46.906224000000009
 51
49.234625999999992
  0
ARC
  5
7F4
  8
_________1
 62
     7
 10
142.92440400000001
 20
84.879362
 30
0.0
 40
6.8070719999999989
 50
225.737076
 51
230.66137599999999
  0
ARC
  5
7F5
  8
_________1
 62
     7
 10
140.33740399999999
 20
81.715637999999984
 30
0.0
 40
2.7203059999999999
 50
230.56295
 51
239.282218
  0
ARC
  5
7F6
  8
_________1
 62
     7
 10
139.748244
 20
80.767370999999997
 30
0.0
 40
1.604288999999999
 50
240.07198299999999
 51
286.23010399999998
  0
ARC
  5
7F7
  8
_________1
 62
     7
 10
137.190843
 20
80.056597999999994
 30
0.0
 40
1.6354599999999999
 50
56.708902000000009
 51
100.869761
  0
ARC
  5
7F8
  8
_________1
 62
     7
 10
136.49120600000001
 20
78.975021999999996
 30
0.0
 40
2.923581
 50
48.713743999999998
 51
56.882285000000003
  0
ARC
  5
7F9
  8
_________1
 62
     7
 10
133.21740700000001
 20
75.135814999999994
 30
0.0
 40
7.9689059999999987
 50
46.900618999999999
 51
49.239944000000001
  0
ARC
  5
7FA
  8
_________1
 62
     7
 10
143.39765199999999
 20
85.811901999999989
 30
0.0
 40
6.7836809999999987
 50
225.72906800000001
 51
230.67090999999999
  0
ARC
  5
7FB
  8
_________1
 62
     7
 10
140.826291
 20
82.665400000000005
 30
0.0
 40
2.7201469999999999
 50
230.56189499999999
 51
239.28280699999999
  0
ARC
  5
7FC
  8
_________1
 62
     7
 10
140.23736199999999
 20
81.716999000000001
 30
0.0
 40
1.6041309999999991
 50
240.06351900000001
 51
286.23506500000002
  0
ARC
  5
7FD
  8
_________1
 62
     7
 10
32.655934000000002
 20
81.730530000000016
 30
0.0
 40
1.6363599999999989
 50
83.929206000000008
 51
128.07303999999999
  0
ARC
  5
7FE
  8
_________1
 62
     7
 10
32.528238000000002
 20
80.449520000000007
 30
0.0
 40
2.923702
 50
75.927444999999992
 51
84.095703
  0
ARC
  5
7FF
  8
_________1
 62
     7
 10
31.366903000000011
 20
75.517071999999999
 30
0.0
 40
7.990832000000001
 50
74.116954000000007
 51
76.449756000000008
  0
ARC
  5
800
  8
_________1
 62
     7
 10
35.545803999999997
 20
89.696353000000002
 30
0.0
 40
6.7921949999999987
 50
252.94559300000009
 51
257.88070299999998
  0
ARC
  5
801
  8
_________1
 62
     7
 10
34.695507999999997
 20
85.713368000000003
 30
0.0
 40
2.7194679999999991
 50
257.77799700000003
 51
266.499706
  0
ARC
  5
802
  8
_________1
 62
     7
 10
34.605311
 20
84.601123999999984
 30
0.0
 40
1.603944
 50
267.28996799999999
 51
313.4629569999999
  0
ARC
  5
803
  8
_________1
 62
     7
 10
32.655934000000002
 20
82.798861000000002
 30
0.0
 40
1.6363599999999989
 50
83.929206000000008
 51
128.07303999999999
  0
ARC
  5
804
  8
_________1
 62
     7
 10
32.528238000000002
 20
81.517851000000007
 30
0.0
 40
2.923702
 50
75.927444999999992
 51
84.095703
  0
ARC
  5
805
  8
_________1
 62
     7
 10
31.366903000000011
 20
76.585402999999999
 30
0.0
 40
7.990832000000001
 50
74.116954000000007
 51
76.449756000000008
  0
ARC
  5
806
  8
_________1
 62
     7
 10
35.545803999999997
 20
90.764684000000017
 30
0.0
 40
6.7921949999999987
 50
252.94559300000009
 51
257.88070299999998
  0
ARC
  5
807
  8
_________1
 62
     7
 10
34.695507999999997
 20
86.781699000000003
 30
0.0
 40
2.7194679999999991
 50
257.77799700000003
 51
266.499706
  0
ARC
  5
808
  8
_________1
 62
     7
 10
34.605311
 20
85.669454999999999
 30
0.0
 40
1.603944
 50
267.28996799999999
 51
313.4629569999999
  0
ARC
  5
809
  8
_________1
 62
     7
 10
51.723874000000002
 20
81.730861000000004
 30
0.0
 40
1.6360399999999991
 50
83.924835999999999
 51
128.07754800000001
  0
ARC
  5
80A
  8
_________1
 62
     7
 10
51.596317999999989
 20
80.449753999999999
 30
0.0
 40
2.9234650000000002
 50
75.927189999999996
 51
84.096215999999984
  0
ARC
  5
80B
  8
_________1
 62
     7
 10
50.434938000000002
 20
75.517071999999999
 30
0.0
 40
7.990832000000001
 50
74.116954000000007
 51
76.449756000000008
  0
ARC
  5
80C
  8
_________1
 62
     7
 10
54.613021999999987
 20
89.693213999999998
 30
0.0
 40
6.7889549999999996
 50
252.94441499999999
 51
257.88188199999991
  0
ARC
  5
80D
  8
_________1
 62
     7
 10
53.763542999999999
 20
85.713368000000003
 30
0.0
 40
2.7194679999999991
 50
257.77799700000003
 51
266.499706
  0
ARC
  5
80E
  8
_________1
 62
     7
 10
53.673347
 20
84.601119999999995
 30
0.0
 40
1.603939999999999
 50
267.28990499999998
 51
313.46301999999997
  0
ARC
  5
80F
  8
_________1
 62
     7
 10
51.723874000000002
 20
82.799190999999993
 30
0.0
 40
1.6360399999999991
 50
83.924835999999999
 51
128.07754800000001
  0
ARC
  5
810
  8
_________1
 62
     7
 10
51.596317999999989
 20
81.518084000000002
 30
0.0
 40
2.9234650000000002
 50
75.927189999999996
 51
84.096215999999984
  0
ARC
  5
811
  8
_________1
 62
     7
 10
50.434938000000002
 20
76.585402999999999
 30
0.0
 40
7.990832000000001
 50
74.116954000000007
 51
76.449756000000008
  0
ARC
  5
812
  8
_________1
 62
     7
 10
54.613021999999987
 20
90.761544999999984
 30
0.0
 40
6.7889549999999996
 50
252.94441499999999
 51
257.88188199999991
  0
ARC
  5
813
  8
_________1
 62
     7
 10
53.763542999999999
 20
86.781699000000003
 30
0.0
 40
2.7194679999999991
 50
257.77799700000003
 51
266.499706
  0
ARC
  5
814
  8
_________1
 62
     7
 10
53.673347
 20
85.669450999999995
 30
0.0
 40
1.603939999999999
 50
267.28990499999998
 51
313.46301999999997
  0
ARC
  5
815
  8
_________1
 62
     7
 10
42.258853999999999
 20
78.463181000000006
 30
0.0
 40
1.6363599999999989
 50
83.929206000000008
 51
128.07303999999999
  0
ARC
  5
816
  8
_________1
 62
     7
 10
42.131157999999992
 20
77.182170999999997
 30
0.0
 40
2.923702
 50
75.927444999999992
 51
84.095703
  0
ARC
  5
817
  8
_________1
 62
     7
 10
40.969822999999991
 20
72.249723000000003
 30
0.0
 40
7.990832000000001
 50
74.116954000000007
 51
76.449756000000008
  0
ARC
  5
818
  8
_________1
 62
     7
 10
45.14872299999999
 20
86.429004000000006
 30
0.0
 40
6.7921949999999987
 50
252.94559300000009
 51
257.88070299999998
  0
ARC
  5
819
  8
_________1
 62
     7
 10
44.298428000000001
 20
82.446018999999993
 30
0.0
 40
2.7194679999999991
 50
257.77799700000003
 51
266.499706
  0
ARC
  5
81A
  8
_________1
 62
     7
 10
44.20823
 20
81.333774999999989
 30
0.0
 40
1.603944
 50
267.28996799999999
 51
313.4629569999999
  0
ARC
  5
81B
  8
_________1
 62
     7
 10
42.258853999999999
 20
79.531510999999995
 30
0.0
 40
1.6363599999999989
 50
83.929206000000008
 51
128.07303999999999
  0
ARC
  5
81C
  8
_________1
 62
     7
 10
42.131157999999992
 20
78.250501999999983
 30
0.0
 40
2.923702
 50
75.927444999999992
 51
84.095703
  0
ARC
  5
81D
  8
_________1
 62
     7
 10
40.969822999999991
 20
73.318054000000004
 30
0.0
 40
7.990832000000001
 50
74.116954000000007
 51
76.449756000000008
  0
ARC
  5
81E
  8
_________1
 62
     7
 10
45.14872299999999
 20
87.497333999999995
 30
0.0
 40
6.7921949999999987
 50
252.94559300000009
 51
257.88070299999998
  0
ARC
  5
81F
  8
_________1
 62
     7
 10
44.298428000000001
 20
83.514349999999993
 30
0.0
 40
2.7194679999999991
 50
257.77799700000003
 51
266.499706
  0
ARC
  5
820
  8
_________1
 62
     7
 10
44.20823
 20
82.402106000000003
 30
0.0
 40
1.603944
 50
267.28996799999999
 51
313.4629569999999
  0
ARC
  5
821
  8
_________1
 62
     7
 10
147.149079
 20
117.41360899999999
 30
0.0
 40
0.242907
 50
182.165989
 51
268.00280500000002
  0
ARC
  5
822
  8
_________1
 62
     7
 10
147.13152099999999
 20
117.41423899999999
 30
0.0
 40
0.243559
 50
272.13958600000001
 51
357.69165900000002
  0
ARC
  5
823
  8
_________1
 62
     7
 10
147.131472
 20
117.395287
 30
0.0
 40
0.243581
 50
2.1508150000000001
 51
87.849175000000002
  0
ARC
  5
824
  8
_________1
 62
     7
 10
147.149755
 20
117.395287
 30
0.0
 40
0.243581
 50
92.15080500000002
 51
177.849165
  0
LINE
  5
825
  8
_________1
 62
     7
 10
140.91399999999999
 20
111.10899999999999
 30
0.0
 11
130.071
 21
111.10899999999999
 31
0.0
  0
ARC
  5
826
  8
_________1
 62
     7
 10
178.62689399999999
 20
64.437154000000007
 30
0.0
 40
27.943251
 50
189.80682200000001
 51
193.3194739999999
  0
ARC
  5
827
  8
_________1
 62
     7
 10
187.380583
 20
66.050803999999999
 30
0.0
 40
36.844009
 50
187.879391
 51
189.96091000000001
  0
ARC
  5
828
  8
_________1
 62
     7
 10
186.86536000000001
 20
66.04889
 30
0.0
 40
36.332915
 50
192.79970299999999
 51
193.97304
  0
ARC
  5
829
  8
_________1
 62
     7
 10
138.455895
 20
54.006185000000002
 30
0.0
 40
13.551983
 50
0.035641
 51
13.961034
  0
ARC
  5
82A
  8
_________1
 62
     7
 10
138.294915
 20
54.050646999999998
 30
0.0
 40
13.713008
 50
323.92118699999997
 51
359.84945199999999
  0
ARC
  5
82B
  8
_________1
 62
     7
 10
37.472217000000001
 20
103.91147599999999
 30
0.0
 40
5.026540999999999
 50
317.89569499999999
 51
335.14541400000002
  0
ARC
  5
82C
  8
_________1
 62
     7
 10
37.50326900000001
 20
103.890372
 30
0.0
 40
4.9894980000000002
 50
335.21543500000001
 51
0.050228
  0
ARC
  5
82D
  8
_________1
 62
     7
 10
37.465800999999999
 20
103.905834
 30
0.0
 40
3.0274389999999989
 50
318.06911000000008
 51
359.790144
  0
ARC
  5
82E
  8
_________1
  6
AIGENLINE002
 62
     7
 10
37.450231000000002
 20
103.910685
 30
0.0
 40
4.0427929999999987
 50
318.11736300000001
 51
359.77409999999998
  0
ARC
  5
82F
  8
_________1
 62
     7
 10
37.860347999999988
 20
92.301918999999984
 30
0.0
 40
5.0504660000000001
 50
138.101326
 51
179.781025
  0
ARC
  5
830
  8
_________1
 62
     7
 10
37.838724999999997
 20
92.309421
 30
0.0
 40
3.0292829999999999
 50
138.08238299999999
 51
179.77683099999999
  0
ARC
  5
831
  8
_________1
  6
AIGENLINE002
 62
     7
 10
37.854304999999997
 20
92.304567000000006
 30
0.0
 40
4.0446470000000003
 50
138.12733700000001
 51
179.76408599999999
  0
LINE
  5
832
  8
_________1
 62
     7
 10
40.493200000000002
 20
103.895
 30
0.0
 11
40.493200000000002
 21
109.56100000000001
 31
0.0
  0
LINE
  5
833
  8
_________1
 62
     7
 10
34.101100000000002
 20
95.674700000000001
 30
0.0
 11
39.7181
 21
101.883
 31
0.0
  0
LINE
  5
834
  8
_________1
 62
     7
 10
41.201500000000003
 20
100.541
 30
0.0
 11
35.584600000000002
 21
94.333200000000005
 31
0.0
  0
LINE
  5
835
  8
_________1
  6
AIGENLINE002
 62
     7
 10
40.46009999999999
 20
101.212
 30
0.0
 11
34.842500000000001
 21
95.004299999999986
 31
0.0
  0
LINE
  5
836
  8
_________1
 62
     7
 10
32.809899999999999
 20
73.761300000000006
 30
0.0
 11
32.809899999999999
 21
83.254700000000014
 31
0.0
  0
LINE
  5
837
  8
_________1
 62
     7
 10
32.809899999999999
 20
84.5428
 30
0.0
 11
32.809899999999999
 21
92.321200000000005
 31
0.0
  0
LINE
  5
838
  8
_________1
 62
     7
 10
34.8095
 20
92.321200000000005
 30
0.0
 11
34.8095
 21
84.158999999999978
 31
0.0
  0
LINE
  5
839
  8
_________1
 62
     7
 10
34.8095
 20
82.895700000000005
 30
0.0
 11
34.8095
 21
73.761300000000006
 31
0.0
  0
LINE
  5
83A
  8
_________1
  6
AIGENLINE002
 62
     7
 10
33.809699999999999
 20
92.321200000000005
 30
0.0
 11
33.809699999999999
 21
66.590299999999999
 31
0.0
  0
LINE
  5
83B
  8
_________1
 62
     7
 10
31.6069
 20
69.860399999999998
 30
0.0
 11
31.6069
 21
67.759600000000006
 31
0.0
  0
LINE
  5
83C
  8
_________1
 62
     7
 10
32.707900000000002
 20
69.860399999999998
 30
0.0
 11
32.707900000000002
 21
67.759600000000006
 31
0.0
  0
ARC
  5
83D
  8
_________1
 62
     7
 10
34.336998000000001
 20
74.141292000000007
 30
0.0
 40
6.9411469999999991
 50
246.838573
 51
248.61020099999999
  0
ARC
  5
83E
  8
_________1
 62
     7
 10
32.296649000000002
 20
68.966534999999993
 30
0.0
 40
1.378741999999999
 50
249.130459
 51
260.29620299999999
  0
ARC
  5
83F
  8
_________1
 62
     7
 10
32.169484000000011
 20
68.315530999999993
 30
0.0
 40
0.715789
 50
261.54625899999991
 51
269.805947
  0
ARC
  5
840
  8
_________1
 62
     7
 10
32.166327000000003
 20
68.34079100000001
 30
0.0
 40
0.741045
 50
270.056647
 51
283.64261299999998
  0
ARC
  5
841
  8
_________1
 62
     7
 10
32.034917
 20
68.942716000000004
 30
0.0
 40
1.3570569999999991
 50
283.04011200000002
 51
294.86263300000002
  0
ARC
  5
842
  8
_________1
 62
     7
 10
31.539307000000001
 20
70.112440000000007
 30
0.0
 40
2.6270829999999998
 50
293.943804
 51
296.41322000000002
  0
ARC
  5
843
  8
_________1
 62
     7
 10
32.114913999999999
 20
68.982143000000008
 30
0.0
 40
1.0597529999999999
 50
55.972404000000012
 51
87.179580999999999
  0
ARC
  5
844
  8
_________1
 62
     7
 10
32.167584000000012
 20
69.297881000000004
 30
0.0
 40
0.742732
 50
90.040456999999975
 51
103.483451
  0
ARC
  5
845
  8
_________1
 62
     7
 10
32.259596999999999
 20
68.865335999999985
 30
0.0
 40
1.1848629999999989
 50
102.93323599999999
 51
115.275199
  0
ARC
  5
846
  8
_________1
 62
     7
 10
32.460771999999999
 20
68.39752
 30
0.0
 40
1.693883
 50
114.672245
 51
120.271698
  0
LINE
  5
847
  8
_________1
 62
     7
 10
36.0077
 20
69.860399999999998
 30
0.0
 11
36.0077
 21
67.759600000000006
 31
0.0
  0
LINE
  5
848
  8
_________1
 62
     7
 10
34.908000000000001
 20
69.860399999999998
 30
0.0
 11
34.908000000000001
 21
67.759600000000006
 31
0.0
  0
ARC
  5
849
  8
_________1
 62
     7
 10
37.354959000000001
 20
73.435996000000003
 30
0.0
 40
6.1813510000000003
 50
246.680251
 51
248.58029199999999
  0
ARC
  5
84A
  8
_________1
 62
     7
 10
35.629109
 20
69.053094999999999
 30
0.0
 40
1.470912999999999
 50
248.81488200000001
 51
259.50763599999999
  0
ARC
  5
84B
  8
_________1
 62
     7
 10
35.450688
 20
68.171464
 30
0.0
 40
0.5717260000000001
 50
260.99989500000009
 51
269.68061799999998
  0
ARC
  5
84C
  8
_________1
 62
     7
 10
35.446956
 20
68.338315000000009
 30
0.0
 40
0.738568
 50
270.04226499999999
 51
283.76064300000002
  0
ARC
  5
84D
  8
_________1
 62
     7
 10
35.33182
 20
68.886991000000009
 30
0.0
 40
1.299018
 50
282.93669499999999
 51
288.68073700000002
  0
ARC
  5
84E
  8
_________1
 62
     7
 10
34.800462000000003
 20
70.420186000000001
 30
0.0
 40
2.9216579999999999
 50
288.92176499999999
 51
294.40570100000002
  0
ARC
  5
84F
  8
_________1
 62
     7
 10
35.221742999999996
 20
68.515966000000006
 30
0.0
 40
1.557331
 50
59.690739999999998
 51
73.767541000000008
  0
ARC
  5
850
  8
_________1
 62
     7
 10
35.434477000000001
 20
69.186044999999993
 30
0.0
 40
0.8546660000000002
 50
74.903492
 51
89.126901000000004
  0
ARC
  5
851
  8
_________1
 62
     7
 10
35.447986
 20
69.418357999999984
 30
0.0
 40
0.622254
 50
90.044716999999991
 51
104.902368
  0
ARC
  5
852
  8
_________1
 62
     7
 10
35.588057999999997
 20
68.803877999999997
 30
0.0
 40
1.2522949999999999
 50
103.86523200000001
 51
116.21946
  0
ARC
  5
853
  8
_________1
 62
     7
 10
35.770698000000003
 20
68.378816
 30
0.0
 40
1.7144809999999999
 50
115.41908599999999
 51
120.211005
  0
ARC
  5
854
  8
_________1
 62
     7
 10
31.627725000000002
 20
62.340823
 30
0.0
 40
5.525398
 50
76.571942000000007
 51
78.726022999999998
  0
ARC
  5
855
  8
_________1
 62
     7
 10
34.032876999999999
 20
72.011956000000012
 30
0.0
 40
4.440868
 50
255.36515
 51
261.52057300000001
  0
ARC
  5
856
  8
_________1
 62
     7
 10
33.645301000000003
 20
69.397893999999994
 30
0.0
 40
1.798233
 50
261.45314200000001
 51
269.44203599999997
  0
LINE
  5
857
  8
_________1
 62
     7
 10
33.627800000000001
 20
67.599699999999999
 30
0.0
 11
33.987499999999997
 21
67.599699999999999
 31
0.0
  0
ARC
  5
858
  8
_________1
 62
     7
 10
33.986108000000002
 20
69.210203000000007
 30
0.0
 40
1.6104579999999991
 50
270.04811599999999
 51
279.31618900000001
  0
ARC
  5
859
  8
_________1
 62
     7
 10
33.734979000000003
 20
70.953331999999975
 30
0.0
 40
3.3714230000000001
 50
278.73215800000003
 51
282.24537900000001
  0
ARC
  5
85A
  8
_________1
 62
     7
 10
45.113989999999987
 20
20.389097
 30
0.0
 40
48.457475000000002
 50
102.15853300000001
 51
102.71301200000001
  0
ARC
  5
85B
  8
_________1
 62
     7
 10
33.887492999999999
 20
66.844757000000001
 30
0.0
 40
3.1836649999999991
 50
71.304220999999998
 51
77.883931000000004
  0
ARC
  5
85C
  8
_________1
 62
     7
 10
33.706290000000003
 20
66.181814000000003
 30
0.0
 40
3.8700600000000001
 50
77.321038999999999
 51
84.185220999999999
  0
ARC
  5
85D
  8
_________1
 62
     7
 10
33.891010000000001
 20
67.952704999999995
 30
0.0
 40
2.089570999999999
 50
84.304644999999994
 51
92.287002000000001
  0
ARC
  5
85E
  8
_________1
 62
     7
 10
33.739685999999999
 20
68.893476000000007
 30
0.0
 40
1.149146
 50
86.610629000000003
 51
91.351748000000015
  0
ARC
  5
85F
  8
_________1
 62
     7
 10
33.757022999999997
 20
67.856455000000011
 30
0.0
 40
2.1863000000000001
 50
91.164848000000006
 51
95.373587000000015
  0
ARC
  5
860
  8
_________1
 62
     7
 10
33.925971000000011
 20
66.056112999999996
 30
0.0
 40
3.994551
 50
95.367910999999978
 51
107.75347600000001
  0
LINE
  5
861
  8
_________1
 62
     7
 10
32.807200000000002
 20
70.181200000000004
 30
0.0
 11
33.807600000000001
 21
70.181200000000004
 31
0.0
  0
LINE
  5
862
  8
_________1
 62
     7
 10
34.807400000000001
 20
70.181200000000004
 30
0.0
 11
33.807600000000001
 21
70.181200000000004
 31
0.0
  0
LINE
  5
863
  8
_________1
 62
     7
 10
35.648000000000003
 20
67.560100000000006
 30
0.0
 11
33.807600000000001
 21
67.560100000000006
 31
0.0
  0
LINE
  5
864
  8
_________1
 62
     7
 10
33.807600000000001
 20
67.560100000000006
 30
0.0
 11
31.967199999999998
 21
67.560100000000006
 31
0.0
  0
LINE
  5
865
  8
_________1
 62
     7
 10
31.726800000000001
 20
67.719999999999999
 30
0.0
 11
31.967199999999998
 21
67.580100000000002
 31
0.0
  0
LINE
  5
866
  8
_________1
 62
     7
 10
31.967199999999998
 20
67.580100000000002
 30
0.0
 11
31.967199999999998
 21
67.560100000000006
 31
0.0
  0
LINE
  5
867
  8
_________1
 62
     7
 10
31.6069
 20
67.759600000000006
 30
0.0
 11
31.967199999999998
 21
67.580100000000002
 31
0.0
  0
LINE
  5
868
  8
_________1
 62
     7
 10
36.0077
 20
67.759600000000006
 30
0.0
 11
35.648000000000003
 21
67.560100000000006
 31
0.0
  0
LINE
  5
869
  8
_________1
 62
     7
 10
35.648000000000003
 20
70.060599999999994
 30
0.0
 11
31.967199999999998
 21
70.060599999999994
 31
0.0
  0
LINE
  5
86A
  8
_________1
 62
     7
 10
35.047899999999998
 20
70.160200000000003
 30
0.0
 11
32.567399999999999
 21
70.160200000000003
 31
0.0
  0
ARC
  5
86B
  8
_________1
 62
     7
 10
33.011850000000003
 20
70.725228000000001
 30
0.0
 40
0.5812850000000001
 50
217.33486099999999
 51
249.382463
  0
ARC
  5
86C
  8
_________1
 62
     7
 10
32.883119000000001
 20
70.611839000000003
 30
0.0
 40
0.4103410000000001
 50
198.659412
 51
215.64729900000009
  0
LINE
  5
86D
  8
_________1
 62
     7
 10
32.494300000000003
 20
70.480599999999995
 30
0.0
 11
32.467500000000001
 21
70.560500000000005
 31
0.0
  0
LINE
  5
86E
  8
_________1
 62
     7
 10
32.467500000000001
 20
70.560500000000005
 30
0.0
 11
32.467500000000001
 21
70.680700000000002
 31
0.0
  0
LINE
  5
86F
  8
_________1
 62
     7
 10
32.467500000000001
 20
70.680700000000002
 30
0.0
 11
32.507399999999997
 21
70.820599999999999
 31
0.0
  0
LINE
  5
870
  8
_________1
 62
     7
 10
35.127800000000001
 20
70.820599999999999
 30
0.0
 11
35.107799999999997
 21
70.820599999999999
 31
0.0
  0
ARC
  5
871
  8
_________1
 62
     7
 10
22.555907000000001
 20
68.953240000000008
 30
0.0
 40
12.709811999999999
 50
7.8116279999999998
 51
8.4485749999999982
  0
LINE
  5
872
  8
_________1
 62
     7
 10
35.147799999999997
 20
70.680700000000002
 30
0.0
 11
35.147799999999997
 21
70.560500000000005
 31
0.0
  0
LINE
  5
873
  8
_________1
 62
     7
 10
35.147799999999997
 20
70.560500000000005
 30
0.0
 11
35.121600000000001
 21
70.480599999999995
 31
0.0
  0
ARC
  5
874
  8
_________1
 62
     7
 10
34.28492
 20
70.759771999999998
 30
0.0
 40
0.8820339999999999
 50
336.41716000000002
 51
341.54486300000002
  0
ARC
  5
875
  8
_________1
 62
     7
 10
34.776898000000003
 20
70.543178999999995
 30
0.0
 40
0.344495
 50
302.13068900000002
 51
336.69582200000002
  0
ARC
  5
876
  8
_________1
 62
     7
 10
34.261113999999999
 20
71.411265999999983
 30
0.0
 40
1.3541739999999991
 50
294.71867800000001
 51
301.07673199999999
  0
LINE
  5
877
  8
_________1
 62
     7
 10
34.827399999999997
 20
70.181200000000004
 30
0.0
 11
34.807400000000001
 21
70.181200000000004
 31
0.0
  0
LINE
  5
878
  8
_________1
 62
     7
 10
34.9679
 20
71.160600000000002
 30
0.0
 11
32.667299999999997
 21
71.160600000000002
 31
0.0
  0
LINE
  5
879
  8
_________1
 62
     7
 10
34.9679
 20
72.760900000000007
 30
0.0
 11
33.807600000000001
 21
72.760900000000007
 31
0.0
  0
LINE
  5
87A
  8
_________1
 62
     7
 10
33.807600000000001
 20
72.760900000000007
 30
0.0
 11
32.667299999999997
 21
72.760900000000007
 31
0.0
  0
LINE
  5
87B
  8
_________1
 62
     7
 10
32.467500000000001
 20
73.200800000000001
 30
0.0
 11
32.467500000000001
 21
73.100899999999996
 31
0.0
  0
LINE
  5
87C
  8
_________1
 62
     7
 10
32.467500000000001
 20
73.100899999999996
 30
0.0
 11
32.5274
 21
73.000699999999995
 31
0.0
  0
LINE
  5
87D
  8
_________1
 62
     7
 10
35.1678
 20
73.200800000000001
 30
0.0
 11
35.147799999999997
 21
73.100899999999996
 31
0.0
  0
LINE
  5
87E
  8
_________1
 62
     7
 10
35.147799999999997
 20
73.100899999999996
 30
0.0
 11
35.107799999999997
 21
73.000699999999995
 31
0.0
  0
LINE
  5
87F
  8
_________1
 62
     7
 10
35.1678
 20
73.761300000000006
 30
0.0
 11
32.467500000000001
 21
73.761300000000006
 31
0.0
  0
LINE
  5
880
  8
_________1
 62
     7
 10
35.1678
 20
73.761300000000006
 30
0.0
 11
35.1678
 21
73.200800000000001
 31
0.0
  0
LINE
  5
881
  8
_________1
 62
     7
 10
32.467500000000001
 20
73.761300000000006
 30
0.0
 11
32.467500000000001
 21
73.200800000000001
 31
0.0
  0
LINE
  5
882
  8
_________1
 62
     7
 10
31.967199999999998
 20
70.060599999999994
 30
0.0
 11
31.6069
 21
69.860399999999998
 31
0.0
  0
LINE
  5
883
  8
_________1
 62
     7
 10
35.648000000000003
 20
70.060599999999994
 30
0.0
 11
36.0077
 21
69.860399999999998
 31
0.0
  0
LINE
  5
884
  8
_________1
 62
     7
 10
35.107799999999997
 20
73.000699999999995
 30
0.0
 11
34.9679
 21
72.760900000000007
 31
0.0
  0
LINE
  5
885
  8
_________1
 62
     7
 10
34.9679
 20
71.160600000000002
 30
0.0
 11
35.107799999999997
 21
70.820599999999999
 31
0.0
  0
LINE
  5
886
  8
_________1
 62
     7
 10
32.5274
 20
73.000699999999995
 30
0.0
 11
32.667299999999997
 21
72.760900000000007
 31
0.0
  0
LINE
  5
887
  8
_________1
 62
     7
 10
32.667299999999997
 20
71.160600000000002
 30
0.0
 11
32.507399999999997
 21
70.820599999999999
 31
0.0
  0
LINE
  5
888
  8
_________1
 62
     7
 10
34.9679
 20
72.760900000000007
 30
0.0
 11
34.9679
 21
71.160600000000002
 31
0.0
  0
LINE
  5
889
  8
_________1
 62
     7
 10
32.667299999999997
 20
72.760900000000007
 30
0.0
 11
32.667299999999997
 21
71.160600000000002
 31
0.0
  0
LINE
  5
88A
  8
_________1
 62
     7
 10
35.047899999999998
 20
70.160200000000003
 30
0.0
 11
35.047899999999998
 21
70.060599999999994
 31
0.0
  0
LINE
  5
88B
  8
_________1
 62
     7
 10
32.567399999999999
 20
70.160200000000003
 30
0.0
 11
32.567399999999999
 21
70.060599999999994
 31
0.0
  0
LINE
  5
88C
  8
_________1
 62
     7
 10
36.0077
 20
67.759600000000006
 30
0.0
 11
35.648000000000003
 21
67.560100000000006
 31
0.0
  0
LINE
  5
88D
  8
_________1
 62
     7
 10
31.6069
 20
67.759600000000006
 30
0.0
 11
31.967199999999998
 21
67.560100000000006
 31
0.0
  0
LINE
  5
88E
  8
_________1
  6
AIGENLINE002
 62
     7
 10
41.493000000000002
 20
103.895
 30
0.0
 11
41.493000000000002
 21
129.07900000000001
 31
0.0
  0
ARC
  5
88F
  8
_________1
 62
     7
 10
49.124282999999998
 20
103.920838
 30
0.0
 40
5.0405100000000003
 50
204.89833999999999
 51
222.10426200000001
  0
ARC
  5
890
  8
_________1
 62
     7
 10
49.082135999999991
 20
103.888724
 30
0.0
 40
4.9887730000000001
 50
179.930814
 51
204.76757900000001
  0
ARC
  5
891
  8
_________1
 62
     7
 10
49.123212000000002
 20
103.906172
 30
0.0
 40
3.0303209999999989
 50
180.21605600000001
 51
221.89055400000001
  0
ARC
  5
892
  8
_________1
  6
AIGENLINE002
 62
     7
 10
49.132201000000002
 20
103.909261
 30
0.0
 40
4.0390879999999987
 50
180.20592400000001
 51
221.90265199999999
  0
ARC
  5
893
  8
_________1
 62
     7
 10
48.72578
 20
92.301917000000003
 30
0.0
 40
5.0504699999999989
 50
0.218975
 51
41.898634999999999
  0
ARC
  5
894
  8
_________1
 62
     7
 10
48.745676000000003
 20
92.309792000000002
 30
0.0
 40
3.0303239999999998
 50
0.216056
 51
41.890515000000001
  0
ARC
  5
895
  8
_________1
  6
AIGENLINE002
 62
     7
 10
48.734718999999998
 20
92.304907
 30
0.0
 40
4.0417540000000001
 50
0.231236
 51
41.902928000000003
  0
LINE
  5
896
  8
_________1
 62
     7
 10
152.90799999999999
 20
80.360100000000003
 30
0.0
 11
153.00800000000001
 21
83.560299999999998
 31
0.0
  0
LINE
  5
897
  8
_________1
 62
     7
 10
153.30799999999999
 20
86.360100000000003
 30
0.0
 11
153.30799999999999
 21
83.560299999999998
 31
0.0
  0
LINE
  5
898
  8
_________1
 62
     7
 10
152.90799999999999
 20
80.360100000000003
 30
0.0
 11
151.458
 21
80.360100000000003
 31
0.0
  0
LINE
  5
899
  8
_________1
 62
     7
 10
153.30799999999999
 20
83.560299999999998
 30
0.0
 11
151.458
 21
83.560299999999998
 31
0.0
  0
LINE
  5
89A
  8
_________1
 62
     7
 10
153.30799999999999
 20
86.360100000000003
 30
0.0
 11
151.458
 21
86.360100000000003
 31
0.0
  0
LINE
  5
89B
  8
_________1
 62
     7
 10
44.5929
 20
86.360100000000003
 30
0.0
 11
44.692799999999998
 21
89.560299999999998
 31
0.0
  0
LINE
  5
89C
  8
_________1
 62
     7
 10
41.993200000000002
 20
86.360100000000003
 30
0.0
 11
41.892599999999987
 21
89.560299999999998
 31
0.0
  0
LINE
  5
89D
  8
_________1
 62
     7
 10
44.993199999999987
 20
92.360100000000003
 30
0.0
 11
44.993199999999987
 21
89.560299999999998
 31
0.0
  0
LINE
  5
89E
  8
_________1
 62
     7
 10
41.5929
 20
92.360100000000003
 30
0.0
 11
41.5929
 21
89.560299999999998
 31
0.0
  0
LINE
  5
89F
  8
_________1
 62
     7
 10
151.458
 20
73.761300000000006
 30
0.0
 11
151.458
 21
76.869900000000001
 31
0.0
  0
LINE
  5
8A0
  8
_________1
 62
     7
 10
151.458
 20
78.418800000000005
 30
0.0
 11
151.458
 21
109.56100000000001
 31
0.0
  0
LINE
  5
8A1
  8
_________1
 62
     7
 10
149.358
 20
109.56100000000001
 30
0.0
 11
149.358
 21
78.878699999999995
 31
0.0
  0
LINE
  5
8A2
  8
_________1
 62
     7
 10
149.358
 20
77.329800000000006
 30
0.0
 11
149.358
 21
73.761300000000006
 31
0.0
  0
LINE
  5
8A3
  8
_________1
 62
     7
 10
150.40799999999999
 20
67.759600000000006
 30
0.0
 11
150.40799999999999
 21
69.859700000000004
 31
0.0
  0
LINE
  5
8A4
  8
_________1
 62
     7
 10
148.5079999999999
 20
67.759600000000006
 30
0.0
 11
148.5079999999999
 21
69.859700000000004
 31
0.0
  0
ARC
  5
8A5
  8
_________1
 62
     7
 10
152.64794800000001
 20
84.281019999999998
 30
0.0
 40
17.032306999999999
 50
255.931276
 51
257.110343
  0
ARC
  5
8A6
  8
_________1
 62
     7
 10
149.65170800000001
 20
71.283944999999974
 30
0.0
 40
3.6944180000000002
 50
257.442609
 51
264.197473
  0
ARC
  5
8A7
  8
_________1
 62
     7
 10
149.471958
 20
69.758434999999992
 30
0.0
 40
2.1586919999999989
 50
264.85040299999997
 51
269.89853099999999
  0
ARC
  5
8A8
  8
_________1
 62
     7
 10
149.46730099999999
 20
69.642882999999983
 30
0.0
 40
2.0431369999999989
 50
270.02341000000001
 51
278.15603299999998
  0
ARC
  5
8A9
  8
_________1
 62
     7
 10
149.3072719999999
 20
70.926772
 30
0.0
 40
3.3368279999999988
 50
277.7484970000001
 51
281.36127399999998
  0
ARC
  5
8AA
  8
_________1
 62
     7
 10
148.436306
 20
75.148448000000002
 30
0.0
 40
7.6473849999999999
 50
281.527986
 51
284.94081699999998
  0
ARC
  5
8AB
  8
_________1
 62
     7
 10
149.14379099999999
 20
66.169679000000002
 30
0.0
 40
3.9006029999999989
 50
71.089146
 51
79.929068999999998
  0
ARC
  5
8AC
  8
_________1
 62
     7
 10
149.45147299999999
 20
67.726652999999985
 30
0.0
 40
2.314019
 50
80.688668000000007
 51
89.587419999999995
  0
ARC
  5
8AD
  8
_________1
 62
     7
 10
149.46955600000001
 20
67.685357999999994
 30
0.0
 40
2.3552550000000001
 50
90.034549000000013
 51
102.15573999999999
  0
ARC
  5
8AE
  8
_________1
 62
     7
 10
149.70018999999999
 20
66.432226999999983
 30
0.0
 40
3.6290569999999991
 50
101.549328
 51
109.184567
  0
ARC
  5
8AF
  8
_________1
 62
     7
 10
154.512023
 20
84.136229
 30
0.0
 40
16.883047000000001
 50
255.931164
 51
257.12111700000003
  0
ARC
  5
8B0
  8
_________1
 62
     7
 10
151.546954
 20
71.255639000000002
 30
0.0
 40
3.6656539999999991
 50
257.42607099999998
 51
264.34897799999999
  0
ARC
  5
8B1
  8
_________1
 62
     7
 10
151.37117900000001
 20
69.732167000000004
 30
0.0
 40
2.1324229999999988
 50
265.01818100000003
 51
269.90848799999998
  0
ARC
  5
8B2
  8
_________1
 62
     7
 10
151.36694
 20
69.647386999999995
 30
0.0
 40
2.0476399999999999
 50
270.02329900000001
 51
278.14704399999999
  0
ARC
  5
8B3
  8
_________1
 62
     7
 10
151.207821
 20
70.92367800000001
 30
0.0
 40
3.333682
 50
277.74563599999999
 51
281.362188
  0
ARC
  5
8B4
  8
_________1
 62
     7
 10
150.323205
 20
75.210639
 30
0.0
 40
7.7109369999999986
 50
281.53089299999999
 51
284.91808100000009
  0
LINE
  5
8B5
  8
_________1
 62
     7
 10
152.30799999999999
 20
67.759600000000006
 30
0.0
 11
152.30799999999999
 21
69.859700000000004
 31
0.0
  0
ARC
  5
8B6
  8
_________1
 62
     7
 10
151.044893
 20
66.171948999999998
 30
0.0
 40
3.8982049999999999
 50
71.089117999999999
 51
79.936796000000001
  0
ARC
  5
8B7
  8
_________1
 62
     7
 10
151.35128700000001
 20
67.722243000000006
 30
0.0
 40
2.318427999999999
 50
80.697756000000012
 51
89.59258100000001
  0
ARC
  5
8B8
  8
_________1
 62
     7
 10
151.36920699999999
 20
67.690993999999989
 30
0.0
 40
2.3496179999999991
 50
90.034953999999999
 51
102.170366
  0
ARC
  5
8B9
  8
_________1
 62
     7
 10
151.60137
 20
66.429550000000006
 30
0.0
 40
3.6318649999999999
 50
101.555227
 51
109.183404
  0
LINE
  5
8BA
  8
_________1
 62
     7
 10
152.30799999999999
 20
67.599699999999999
 30
0.0
 11
152.30799999999999
 21
67.759600000000006
 31
0.0
  0
LINE
  5
8BB
  8
_________1
 62
     7
 10
152.30799999999999
 20
69.859700000000004
 30
0.0
 11
152.30799999999999
 21
70.040599999999984
 31
0.0
  0
LINE
  5
8BC
  8
_________1
 62
     7
 10
148.5079999999999
 20
67.599699999999999
 30
0.0
 11
148.5079999999999
 21
67.759600000000006
 31
0.0
  0
LINE
  5
8BD
  8
_________1
 62
     7
 10
148.5079999999999
 20
69.859700000000004
 30
0.0
 11
148.5079999999999
 21
70.040599999999984
 31
0.0
  0
LINE
  5
8BE
  8
_________1
 62
     7
 10
151.40799999999999
 20
70.180099999999996
 30
0.0
 11
150.40799999999999
 21
70.180099999999996
 31
0.0
  0
LINE
  5
8BF
  8
_________1
 62
     7
 10
150.40799999999999
 20
70.180099999999996
 30
0.0
 11
149.40799999999999
 21
70.180099999999996
 31
0.0
  0
LINE
  5
8C0
  8
_________1
 62
     7
 10
152.30799999999999
 20
67.599699999999999
 30
0.0
 11
152.24799999999999
 21
67.560100000000006
 31
0.0
  0
LINE
  5
8C1
  8
_________1
 62
     7
 10
152.24799999999999
 20
67.560100000000006
 30
0.0
 11
148.56800000000001
 21
67.560100000000006
 31
0.0
  0
LINE
  5
8C2
  8
_________1
 62
     7
 10
148.56800000000001
 20
67.560100000000006
 30
0.0
 11
148.5079999999999
 21
67.599699999999999
 31
0.0
  0
ARC
  5
8C3
  8
_________1
 62
     7
 10
152.289342
 20
70.005206999999999
 30
0.0
 40
0.040156
 50
61.844869999999993
 51
93.596935999999985
  0
ARC
  5
8C4
  8
_________1
 62
     7
 10
152.12562199999999
 20
68.447580999999985
 30
0.0
 40
1.6058149999999991
 50
84.238643999999994
 51
88.699180000000013
  0
ARC
  5
8C5
  8
_________1
 62
     7
 10
151.58399399999999
 20
52.387481000000001
 30
0.0
 40
17.674956999999999
 50
88.125721999999996
 51
89.581359000000006
  0
ARC
  5
8C6
  8
_________1
 62
     7
 10
150.72500199999999
 20
-35.105573
 30
0.0
 40
105.17218099999999
 50
89.461666000000008
 51
90.080635999999984
  0
ARC
  5
8C7
  8
_________1
 62
     7
 10
151.04826
 20
-431.72313799999989
 30
0.0
 40
501.78986299999991
 50
90.053803999999985
 51
90.283241999999973
  0
LINE
  5
8C8
  8
_________1
 62
     7
 10
148.56800000000001
 20
70.060599999999994
 30
0.0
 11
148.5079999999999
 21
70.040599999999984
 31
0.0
  0
LINE
  5
8C9
  8
_________1
 62
     7
 10
151.648
 20
70.060599999999994
 30
0.0
 11
151.648
 21
70.160200000000003
 31
0.0
  0
LINE
  5
8CA
  8
_________1
 62
     7
 10
151.648
 20
70.160200000000003
 30
0.0
 11
149.16800000000001
 21
70.160200000000003
 31
0.0
  0
LINE
  5
8CB
  8
_________1
 62
     7
 10
149.16800000000001
 20
70.060599999999994
 30
0.0
 11
149.16800000000001
 21
70.160200000000003
 31
0.0
  0
LINE
  5
8CC
  8
_________1
 62
     7
 10
149.40799999999999
 20
70.180099999999996
 30
0.0
 11
149.108
 21
70.421000000000006
 31
0.0
  0
LINE
  5
8CD
  8
_________1
 62
     7
 10
149.108
 20
70.421000000000006
 30
0.0
 11
149.08799999999999
 21
70.820599999999999
 31
0.0
  0
LINE
  5
8CE
  8
_________1
 62
     7
 10
151.72900000000001
 20
70.820599999999999
 30
0.0
 11
151.708
 21
70.421000000000006
 31
0.0
  0
LINE
  5
8CF
  8
_________1
 62
     7
 10
151.708
 20
70.421000000000006
 30
0.0
 11
151.40799999999999
 21
70.180099999999996
 31
0.0
  0
LINE
  5
8D0
  8
_________1
 62
     7
 10
151.56800000000001
 20
71.160600000000002
 30
0.0
 11
149.24799999999999
 21
71.160600000000002
 31
0.0
  0
LINE
  5
8D1
  8
_________1
 62
     7
 10
149.24799999999999
 20
71.160600000000002
 30
0.0
 11
149.08799999999999
 21
70.820599999999999
 31
0.0
  0
LINE
  5
8D2
  8
_________1
 62
     7
 10
151.72900000000001
 20
70.820599999999999
 30
0.0
 11
151.56800000000001
 21
71.160600000000002
 31
0.0
  0
LINE
  5
8D3
  8
_________1
 62
     7
 10
151.56800000000001
 20
72.760900000000007
 30
0.0
 11
149.24799999999999
 21
72.760900000000007
 31
0.0
  0
LINE
  5
8D4
  8
_________1
 62
     7
 10
32.159500000000001
 20
62.180900000000001
 30
0.0
 11
32.159500000000001
 21
67.207999999999998
 31
0.0
  0
LINE
  5
8D5
  8
_________1
 62
     7
 10
35.459899999999998
 20
62.180900000000001
 30
0.0
 11
35.459899999999998
 21
67.207999999999998
 31
0.0
  0
INSERT
  5
8D6
  8
_________1
 62
     7
  2
AIGNBL020100C1
 10
0.0
 20
0.0
 30
0.0
  0
LINE
  5
8D7
  8
_________1
 62
     7
 10
149.24799999999999
 20
71.160600000000002
 30
0.0
 11
149.24799999999999
 21
72.760900000000007
 31
0.0
  0
LINE
  5
8D8
  8
_________1
 62
     7
 10
151.56800000000001
 20
71.160600000000002
 30
0.0
 11
151.56800000000001
 21
72.760900000000007
 31
0.0
  0
LINE
  5
8D9
  8
_________1
 62
     7
 10
149.24799999999999
 20
72.760900000000007
 30
0.0
 11
149.108
 21
73.001300000000001
 31
0.0
  0
LINE
  5
8DA
  8
_________1
 62
     7
 10
151.708
 20
73.001300000000001
 30
0.0
 11
151.56800000000001
 21
72.760900000000007
 31
0.0
  0
LINE
  5
8DB
  8
_________1
 62
     7
 10
149.108
 20
73.001300000000001
 30
0.0
 11
149.06800000000001
 21
73.100899999999996
 31
0.0
  0
LINE
  5
8DC
  8
_________1
 62
     7
 10
149.06800000000001
 20
73.100899999999996
 30
0.0
 11
149.06800000000001
 21
73.200800000000001
 31
0.0
  0
ARC
  5
8DD
  8
_________1
 62
     7
 10
151.336299
 20
73.242248000000004
 30
0.0
 40
0.433779
 50
346.88973600000003
 51
354.519431
  0
ARC
  5
8DE
  8
_________1
 62
     7
 10
151.14456300000001
 20
73.281786999999994
 30
0.0
 40
0.6295060000000001
 50
333.54506900000001
 51
347.343186
  0
LINE
  5
8DF
  8
_________1
 62
     7
 10
151.768
 20
73.200800000000001
 30
0.0
 11
151.768
 21
73.761300000000006
 31
0.0
  0
LINE
  5
8E0
  8
_________1
 62
     7
 10
151.768
 20
73.761300000000006
 30
0.0
 11
149.06800000000001
 21
73.761300000000006
 31
0.0
  0
LINE
  5
8E1
  8
_________1
 62
     7
 10
149.06800000000001
 20
73.200800000000001
 30
0.0
 11
149.06800000000001
 21
73.761300000000006
 31
0.0
  0
LINE
  5
8E2
  8
_________1
 62
     7
 10
46.0929
 20
103.895
 30
0.0
 11
46.0929
 21
109.56100000000001
 31
0.0
  0
LINE
  5
8E3
  8
_________1
 62
     7
 10
52.484999999999992
 20
95.674700000000001
 30
0.0
 11
46.867400000000004
 21
101.883
 31
0.0
  0
LINE
  5
8E4
  8
_________1
 62
     7
 10
45.384599999999992
 20
100.541
 30
0.0
 11
51.0015
 21
94.333200000000005
 31
0.0
  0
LINE
  5
8E5
  8
_________1
  6
AIGENLINE002
 62
     7
 10
46.125999999999998
 20
101.212
 30
0.0
 11
51.742899999999999
 21
95.004299999999986
 31
0.0
  0
LINE
  5
8E6
  8
_________1
 62
     7
 10
53.776200000000003
 20
73.761300000000006
 30
0.0
 11
53.776200000000003
 21
82.907799999999995
 31
0.0
  0
LINE
  5
8E7
  8
_________1
 62
     7
 10
53.776200000000003
 20
84.171099999999996
 30
0.0
 11
53.776200000000003
 21
92.321200000000005
 31
0.0
  0
LINE
  5
8E8
  8
_________1
 62
     7
 10
51.776000000000003
 20
92.321200000000005
 30
0.0
 11
51.776000000000003
 21
84.542500000000004
 31
0.0
  0
LINE
  5
8E9
  8
_________1
 62
     7
 10
51.776000000000003
 20
83.254400000000004
 30
0.0
 11
51.776000000000003
 21
73.761300000000006
 31
0.0
  0
LINE
  5
8EA
  8
_________1
  6
AIGENLINE002
 62
     7
 10
52.776400000000002
 20
92.321200000000005
 30
0.0
 11
52.776400000000002
 21
66.590299999999999
 31
0.0
  0
LINE
  5
8EB
  8
_________1
 62
     7
 10
54.9786
 20
69.860399999999998
 30
0.0
 11
54.9786
 21
67.759600000000006
 31
0.0
  0
LINE
  5
8EC
  8
_________1
 62
     7
 10
53.8782
 20
69.860399999999998
 30
0.0
 11
53.8782
 21
67.759600000000006
 31
0.0
  0
ARC
  5
8ED
  8
_________1
 62
     7
 10
52.339771999999989
 20
73.903002000000001
 30
0.0
 40
6.6861490000000003
 50
291.40992499999999
 51
293.245071
  0
ARC
  5
8EE
  8
_________1
 62
     7
 10
54.290503000000001
 20
68.961572000000004
 30
0.0
 40
1.3736779999999991
 50
279.69677000000001
 51
290.89662499999997
  0
ARC
  5
8EF
  8
_________1
 62
     7
 10
54.416659000000003
 20
68.315382
 30
0.0
 40
0.7156400000000001
 50
270.19321300000001
 51
278.45462099999997
  0
ARC
  5
8F0
  8
_________1
 62
     7
 10
54.419810999999989
 20
68.340796999999995
 30
0.0
 40
0.7410510000000001
 50
256.35746599999999
 51
269.94289400000002
  0
ARC
  5
8F1
  8
_________1
 62
     7
 10
54.551121000000002
 20
68.942459999999997
 30
0.0
 40
1.3567849999999999
 50
245.13645
 51
256.96156200000001
  0
ARC
  5
8F2
  8
_________1
 62
     7
 10
55.046824999999998
 20
70.112440000000007
 30
0.0
 40
2.6270829999999998
 50
243.5868000000001
 51
246.05621600000001
  0
ARC
  5
8F3
  8
_________1
 62
     7
 10
54.472076000000001
 20
68.979566000000005
 30
0.0
 40
1.0623689999999999
 50
92.859797999999984
 51
123.98817699999999
  0
ARC
  5
8F4
  8
_________1
 62
     7
 10
54.418548000000001
 20
69.298068000000001
 30
0.0
 40
0.742544
 50
76.514817000000008
 51
89.959564
  0
ARC
  5
8F5
  8
_________1
 62
     7
 10
54.327537
 20
68.869721999999996
 30
0.0
 40
1.180358999999999
 50
64.689154000000002
 51
77.06747
  0
ARC
  5
8F6
  8
_________1
 62
     7
 10
54.133445999999999
 20
68.418336999999994
 30
0.0
 40
1.6714830000000001
 50
59.628342000000004
 51
65.289784999999995
  0
LINE
  5
8F7
  8
_________1
 62
     7
 10
50.578499999999998
 20
69.860399999999998
 30
0.0
 11
50.578499999999998
 21
67.759600000000006
 31
0.0
  0
LINE
  5
8F8
  8
_________1
 62
     7
 10
51.678100000000001
 20
69.860399999999998
 30
0.0
 11
51.678100000000001
 21
67.759600000000006
 31
0.0
  0
ARC
  5
8F9
  8
_________1
 62
     7
 10
49.239792000000001
 20
73.415984999999992
 30
0.0
 40
6.1595639999999987
 50
291.41279200000002
 51
293.31983300000002
  0
ARC
  5
8FA
  8
_________1
 62
     7
 10
50.957588000000001
 20
69.052315000000007
 30
0.0
 40
1.4699699999999991
 50
280.46078799999998
 51
291.17440900000003
  0
ARC
  5
8FB
  8
_________1
 62
     7
 10
51.134359000000003
 20
68.17998399999999
 30
0.0
 40
0.5802490000000001
 50
270.35390000000001
 51
278.93503600000003
  0
ARC
  5
8FC
  8
_________1
 62
     7
 10
51.138497999999998
 20
68.334614000000002
 30
0.0
 40
0.7348680000000001
 50
256.20460400000002
 51
269.95672200000001
  0
ARC
  5
8FD
  8
_________1
 62
     7
 10
51.25441
 20
68.886258999999995
 30
0.0
 40
1.298378
 50
251.30191199999999
 51
257.041922
  0
ARC
  5
8FE
  8
_________1
 62
     7
 10
51.788606999999999
 20
70.426936999999995
 30
0.0
 40
2.9290189999999989
 50
245.59655599999999
 51
251.065425
  0
ARC
  5
8FF
  8
_________1
 62
     7
 10
51.365229999999997
 20
68.514526000000004
 30
0.0
 40
1.558999
 50
106.253568
 51
120.30919299999999
  0
ARC
  5
900
  8
_________1
 62
     7
 10
51.151127000000002
 20
69.188766999999999
 30
0.0
 40
0.8519469999999998
 50
90.886704000000023
 51
105.121421
  0
ARC
  5
901
  8
_________1
 62
     7
 10
51.137461999999999
 20
69.415014999999997
 30
0.0
 40
0.6255970000000001
 50
75.137706999999992
 51
89.955945000000014
  0
ARC
  5
902
  8
_________1
 62
     7
 10
50.998531
 20
68.80439100000001
 30
0.0
 40
1.251627
 50
63.789332999999992
 51
76.160420999999999
  0
ARC
  5
903
  8
_________1
 62
     7
 10
50.816644000000011
 20
68.380990999999995
 30
0.0
 40
1.7119919999999991
 50
59.78733900000001
 51
64.586546999999996
  0
ARC
  5
904
  8
_________1
 62
     7
 10
54.968418000000007
 20
62.295105
 30
0.0
 40
5.5721910000000001
 50
101.283002
 51
103.418992
  0
ARC
  5
905
  8
_________1
 62
     7
 10
52.553255000000007
 20
72.011956000000012
 30
0.0
 40
4.440868
 50
278.47944699999999
 51
284.63486999999998
  0
ARC
  5
906
  8
_________1
 62
     7
 10
52.940831000000003
 20
69.397893999999994
 30
0.0
 40
1.798233
 50
270.55798399999998
 51
278.54687799999999
  0
LINE
  5
907
  8
_________1
 62
     7
 10
52.958300000000001
 20
67.599699999999999
 30
0.0
 11
52.598700000000001
 21
67.599699999999999
 31
0.0
  0
ARC
  5
908
  8
_________1
 62
     7
 10
52.600034999999991
 20
69.211724000000004
 30
0.0
 40
1.6119779999999999
 50
260.68823500000002
 51
269.95156200000002
  0
ARC
  5
909
  8
_________1
 62
     7
 10
52.851202000000001
 20
70.956967000000006
 30
0.0
 40
3.375041
 50
257.76263999999998
 51
261.27452099999999
  0
ARC
  5
90A
  8
_________1
 62
     7
 10
40.836984999999991
 20
17.537723
 30
0.0
 40
51.378667999999998
 50
77.29607
 51
77.818741000000003
  0
ARC
  5
90B
  8
_________1
 62
     7
 10
52.700263999999997
 20
66.839935999999994
 30
0.0
 40
3.188752
 50
102.12916300000001
 51
108.695657
  0
ARC
  5
90C
  8
_________1
 62
     7
 10
52.878813999999991
 20
66.187905000000001
 30
0.0
 40
3.8639260000000002
 50
95.813112000000004
 51
102.68615200000001
  0
ARC
  5
90D
  8
_________1
 62
     7
 10
52.694997000000001
 20
67.949822999999995
 30
0.0
 40
2.0924559999999999
 50
87.712695999999994
 51
95.692153000000005
  0
ARC
  5
90E
  8
_________1
 62
     7
 10
52.846331999999997
 20
68.89722900000001
 30
0.0
 40
1.1453930000000001
 50
88.646428999999983
 51
93.394736999999992
  0
ARC
  5
90F
  8
_________1
 62
     7
 10
52.828888999999997
 20
67.858287000000004
 30
0.0
 40
2.1844689999999991
 50
84.623728999999997
 51
88.832753999999994
  0
ARC
  5
910
  8
_________1
 62
     7
 10
52.659255999999999
 20
66.051054000000008
 30
0.0
 40
3.9996449999999988
 50
72.256242
 51
84.630073999999993
  0
LINE
  5
911
  8
_________1
 62
     7
 10
53.778300000000002
 20
70.181200000000004
 30
0.0
 11
52.778500000000001
 21
70.181200000000004
 31
0.0
  0
LINE
  5
912
  8
_________1
 62
     7
 10
51.778700000000001
 20
70.181200000000004
 30
0.0
 11
52.778500000000001
 21
70.181200000000004
 31
0.0
  0
LINE
  5
913
  8
_________1
 62
     7
 10
50.938099999999999
 20
67.560100000000006
 30
0.0
 11
52.778500000000001
 21
67.560100000000006
 31
0.0
  0
LINE
  5
914
  8
_________1
 62
     7
 10
52.778500000000001
 20
67.560100000000006
 30
0.0
 11
54.618899999999996
 21
67.560100000000006
 31
0.0
  0
LINE
  5
915
  8
_________1
 62
     7
 10
54.858699999999999
 20
67.719999999999999
 30
0.0
 11
54.618899999999996
 21
67.580100000000002
 31
0.0
  0
LINE
  5
916
  8
_________1
 62
     7
 10
54.618899999999996
 20
67.580100000000002
 30
0.0
 11
54.618899999999996
 21
67.560100000000006
 31
0.0
  0
LINE
  5
917
  8
_________1
 62
     7
 10
54.9786
 20
67.759600000000006
 30
0.0
 11
54.618899999999996
 21
67.580100000000002
 31
0.0
  0
LINE
  5
918
  8
_________1
 62
     7
 10
50.578499999999998
 20
67.759600000000006
 30
0.0
 11
50.938099999999999
 21
67.560100000000006
 31
0.0
  0
LINE
  5
919
  8
_________1
 62
     7
 10
50.938099999999999
 20
70.060599999999994
 30
0.0
 11
54.618899999999996
 21
70.060599999999994
 31
0.0
  0
LINE
  5
91A
  8
_________1
 62
     7
 10
51.5383
 20
70.160200000000003
 30
0.0
 11
54.018700000000003
 21
70.160200000000003
 31
0.0
  0
ARC
  5
91B
  8
_________1
 62
     7
 10
53.575664000000003
 20
70.723349999999996
 30
0.0
 40
0.5788000000000001
 50
290.49121100000002
 51
322.71127899999999
  0
ARC
  5
91C
  8
_________1
 62
     7
 10
53.698340000000002
 20
70.615213999999995
 30
0.0
 40
0.415853
 50
324.32501999999999
 51
341.10600099999999
  0
LINE
  5
91D
  8
_________1
 62
     7
 10
54.091799999999999
 20
70.480599999999995
 30
0.0
 11
54.118699999999997
 21
70.560500000000005
 31
0.0
  0
LINE
  5
91E
  8
_________1
 62
     7
 10
54.118699999999997
 20
70.560500000000005
 30
0.0
 11
54.118699999999997
 21
70.680700000000002
 31
0.0
  0
LINE
  5
91F
  8
_________1
 62
     7
 10
54.118699999999997
 20
70.680700000000002
 30
0.0
 11
54.078699999999991
 21
70.820599999999999
 31
0.0
  0
LINE
  5
920
  8
_________1
 62
     7
 10
51.458300000000001
 20
70.820599999999999
 30
0.0
 11
51.47829999999999
 21
70.820599999999999
 31
0.0
  0
ARC
  5
921
  8
_________1
 62
     7
 10
69.897557999999989
 20
68.115048999999999
 30
0.0
 40
18.636651000000001
 50
171.65268699999999
 51
172.08707000000001
  0
LINE
  5
922
  8
_________1
 62
     7
 10
51.438400000000001
 20
70.680700000000002
 30
0.0
 11
51.438400000000001
 21
70.560500000000005
 31
0.0
  0
LINE
  5
923
  8
_________1
 62
     7
 10
51.438400000000001
 20
70.560500000000005
 30
0.0
 11
51.464500000000001
 21
70.480599999999995
 31
0.0
  0
ARC
  5
924
  8
_________1
 62
     7
 10
52.298788999999999
 20
70.758956999999995
 30
0.0
 40
0.8794780000000001
 50
198.45478700000001
 51
203.83743699999999
  0
ARC
  5
925
  8
_________1
 62
     7
 10
51.807315000000003
 20
70.541119999999992
 30
0.0
 40
0.341891
 50
203.73203100000001
 51
237.915379
  0
ARC
  5
926
  8
_________1
 62
     7
 10
52.315806000000002
 20
71.396826000000004
 30
0.0
 40
1.337205999999999
 50
238.93090000000001
 51
245.38115099999999
  0
LINE
  5
927
  8
_________1
 62
     7
 10
51.758800000000001
 20
70.181200000000004
 30
0.0
 11
51.778700000000001
 21
70.181200000000004
 31
0.0
  0
LINE
  5
928
  8
_________1
 62
     7
 10
51.618200000000002
 20
71.160600000000002
 30
0.0
 11
53.918799999999997
 21
71.160600000000002
 31
0.0
  0
LINE
  5
929
  8
_________1
 62
     7
 10
51.618200000000002
 20
72.760900000000007
 30
0.0
 11
52.778500000000001
 21
72.760900000000007
 31
0.0
  0
LINE
  5
92A
  8
_________1
 62
     7
 10
52.778500000000001
 20
72.760900000000007
 30
0.0
 11
53.918799999999997
 21
72.760900000000007
 31
0.0
  0
LINE
  5
92B
  8
_________1
 62
     7
 10
54.118699999999997
 20
73.200800000000001
 30
0.0
 11
54.118699999999997
 21
73.100899999999996
 31
0.0
  0
LINE
  5
92C
  8
_________1
 62
     7
 10
54.118699999999997
 20
73.100899999999996
 30
0.0
 11
54.058700000000002
 21
73.000699999999995
 31
0.0
  0
LINE
  5
92D
  8
_________1
 62
     7
 10
51.418399999999998
 20
73.200800000000001
 30
0.0
 11
51.438400000000001
 21
73.100899999999996
 31
0.0
  0
LINE
  5
92E
  8
_________1
 62
     7
 10
51.438400000000001
 20
73.100899999999996
 30
0.0
 11
51.47829999999999
 21
73.000699999999995
 31
0.0
  0
LINE
  5
92F
  8
_________1
 62
     7
 10
51.418399999999998
 20
73.761300000000006
 30
0.0
 11
54.118699999999997
 21
73.761300000000006
 31
0.0
  0
LINE
  5
930
  8
_________1
 62
     7
 10
51.418399999999998
 20
73.761300000000006
 30
0.0
 11
51.418399999999998
 21
73.200800000000001
 31
0.0
  0
LINE
  5
931
  8
_________1
 62
     7
 10
54.118699999999997
 20
73.761300000000006
 30
0.0
 11
54.118699999999997
 21
73.200800000000001
 31
0.0
  0
LINE
  5
932
  8
_________1
 62
     7
 10
54.618899999999996
 20
70.060599999999994
 30
0.0
 11
54.9786
 21
69.860399999999998
 31
0.0
  0
LINE
  5
933
  8
_________1
 62
     7
 10
50.938099999999999
 20
70.060599999999994
 30
0.0
 11
50.578499999999998
 21
69.860399999999998
 31
0.0
  0
LINE
  5
934
  8
_________1
 62
     7
 10
51.47829999999999
 20
73.000699999999995
 30
0.0
 11
51.618200000000002
 21
72.760900000000007
 31
0.0
  0
LINE
  5
935
  8
_________1
 62
     7
 10
51.618200000000002
 20
71.160600000000002
 30
0.0
 11
51.47829999999999
 21
70.820599999999999
 31
0.0
  0
LINE
  5
936
  8
_________1
 62
     7
 10
54.058700000000002
 20
73.000699999999995
 30
0.0
 11
53.918799999999997
 21
72.760900000000007
 31
0.0
  0
LINE
  5
937
  8
_________1
 62
     7
 10
53.918799999999997
 20
71.160600000000002
 30
0.0
 11
54.078699999999991
 21
70.820599999999999
 31
0.0
  0
LINE
  5
938
  8
_________1
 62
     7
 10
51.618200000000002
 20
72.760900000000007
 30
0.0
 11
51.618200000000002
 21
71.160600000000002
 31
0.0
  0
LINE
  5
939
  8
_________1
 62
     7
 10
53.918799999999997
 20
72.760900000000007
 30
0.0
 11
53.918799999999997
 21
71.160600000000002
 31
0.0
  0
LINE
  5
93A
  8
_________1
 62
     7
 10
51.5383
 20
70.160200000000003
 30
0.0
 11
51.5383
 21
70.060599999999994
 31
0.0
  0
LINE
  5
93B
  8
_________1
 62
     7
 10
54.018700000000003
 20
70.160200000000003
 30
0.0
 11
54.018700000000003
 21
70.060599999999994
 31
0.0
  0
LINE
  5
93C
  8
_________1
 62
     7
 10
50.578499999999998
 20
67.759600000000006
 30
0.0
 11
50.938099999999999
 21
67.560100000000006
 31
0.0
  0
LINE
  5
93D
  8
_________1
 62
     7
 10
54.9786
 20
67.759600000000006
 30
0.0
 11
54.618899999999996
 21
67.560100000000006
 31
0.0
  0
LINE
  5
93E
  8
_________1
 62
     7
 10
177.61000000000001
 20
67.560100000000006
 30
0.0
 11
153.17699999999999
 21
67.560100000000006
 31
0.0
  0
LINE
  5
93F
  8
_________1
 62
     7
 10
152.80799999999999
 20
69.341899999999995
 30
0.0
 11
152.80799999999999
 21
76.841999999999999
 31
0.0
  0
LINE
  5
940
  8
_________1
 62
     7
 10
152.80799999999999
 20
78.346100000000007
 30
0.0
 11
152.809
 21
80.360100000000003
 31
0.0
  0
LINE
  5
941
  8
_________1
 62
     7
 10
152.809
 20
86.360100000000003
 30
0.0
 11
152.809
 21
109.56100000000001
 31
0.0
  0
ARC
  5
942
  8
_________1
 62
     7
 10
138.03872100000001
 20
55.584798999999997
 30
0.0
 40
17.590325
 50
270.02883600000001
 51
291.381236
  0
ARC
  5
943
  8
_________1
 62
     7
 10
138.51528099999999
 20
53.94158199999999
 30
0.0
 40
15.887221
 50
291.94135699999998
 51
312.86411299999997
  0
ARC
  5
944
  8
_________1
 62
     7
 10
138.57307399999999
 20
53.709451000000001
 30
0.0
 40
13.28754
 50
286.03358199999991
 51
324.40512200000001
  0
ARC
  5
945
  8
_________1
 62
     7
 10
138.31332900000001
 20
54.333768000000013
 30
0.0
 40
13.959526
 50
270.46748300000002
 51
286.350459
  0
LINE
  5
946
  8
_________1
 62
     7
 10
42.033200000000001
 20
109.56100000000001
 30
0.0
 11
42.033200000000001
 21
81.156599999999997
 31
0.0
  0
LINE
  5
947
  8
_________1
 62
     7
 10
42.033200000000001
 20
80.088300000000004
 30
0.0
 11
42.033200000000001
 21
54.243400000000001
 31
0.0
  0
LINE
  5
948
  8
_________1
 62
     7
 10
44.552900000000001
 20
54.243400000000001
 30
0.0
 11
44.552900000000001
 21
79.762699999999995
 31
0.0
  0
LINE
  5
949
  8
_________1
 62
     7
 10
44.552900000000001
 20
80.831100000000006
 30
0.0
 11
44.552900000000001
 21
109.56100000000001
 31
0.0
  0
LINE
  5
94A
  8
_________1
 62
     7
 10
128.57499999999999
 20
49.521500000000003
 30
0.0
 11
122.593
 21
47.344200000000001
 31
0.0
  0
LINE
  5
94B
  8
_________1
 62
     7
 10
127.477
 20
52.70859999999999
 30
0.0
 11
121.44
 21
50.511600000000001
 31
0.0
  0
LINE
  5
94C
  8
_________1
 62
     7
 10
127.247
 20
50.696599999999989
 30
0.0
 11
127.273
 21
50.416499999999999
 31
0.0
  0
LINE
  5
94D
  8
_________1
 62
     7
 10
127.273
 20
50.416499999999999
 30
0.0
 11
127.259
 21
50.379300000000001
 31
0.0
  0
LINE
  5
94E
  8
_________1
 62
     7
 10
127.259
 20
50.379300000000001
 30
0.0
 11
127.164
 21
50.344900000000003
 31
0.0
  0
LINE
  5
94F
  8
_________1
 62
     7
 10
127.164
 20
50.344900000000003
 30
0.0
 11
127.13
 21
50.363799999999998
 31
0.0
  0
LINE
  5
950
  8
_________1
 62
     7
 10
127.13
 20
50.363799999999998
 30
0.0
 11
126.97199999999999
 21
50.590899999999998
 31
0.0
  0
LINE
  5
951
  8
_________1
 62
     7
 10
126.97199999999999
 20
50.590899999999998
 30
0.0
 11
126.691
 21
50.565399999999997
 31
0.0
  0
LINE
  5
952
  8
_________1
 62
     7
 10
126.691
 20
50.565399999999997
 30
0.0
 11
126.655
 21
50.579799999999999
 31
0.0
  0
LINE
  5
953
  8
_________1
 62
     7
 10
126.655
 20
50.579799999999999
 30
0.0
 11
126.621
 21
50.674599999999998
 31
0.0
  0
LINE
  5
954
  8
_________1
 62
     7
 10
126.621
 20
50.674599999999998
 30
0.0
 11
126.639
 21
50.7087
 31
0.0
  0
LINE
  5
955
  8
_________1
 62
     7
 10
126.639
 20
50.7087
 30
0.0
 11
126.866
 21
50.866500000000002
 31
0.0
  0
LINE
  5
956
  8
_________1
 62
     7
 10
126.866
 20
50.866500000000002
 30
0.0
 11
126.84099999999999
 21
51.146599999999999
 31
0.0
  0
LINE
  5
957
  8
_________1
 62
     7
 10
126.84099999999999
 20
51.146599999999999
 30
0.0
 11
126.854
 21
51.184100000000001
 31
0.0
  0
LINE
  5
958
  8
_________1
 62
     7
 10
126.854
 20
51.184100000000001
 30
0.0
 11
126.95
 21
51.218200000000003
 31
0.0
  0
LINE
  5
959
  8
_________1
 62
     7
 10
126.95
 20
51.218200000000003
 30
0.0
 11
126.98399999999999
 21
51.199300000000001
 31
0.0
  0
LINE
  5
95A
  8
_________1
 62
     7
 10
126.98399999999999
 20
51.199300000000001
 30
0.0
 11
127.142
 21
50.972200000000001
 31
0.0
  0
LINE
  5
95B
  8
_________1
 62
     7
 10
127.142
 20
50.972200000000001
 30
0.0
 11
127.422
 21
50.997700000000002
 31
0.0
  0
LINE
  5
95C
  8
_________1
 62
     7
 10
127.422
 20
50.997700000000002
 30
0.0
 11
127.459
 21
50.9833
 31
0.0
  0
LINE
  5
95D
  8
_________1
 62
     7
 10
127.459
 20
50.9833
 30
0.0
 11
127.494
 21
50.888500000000001
 31
0.0
  0
LINE
  5
95E
  8
_________1
 62
     7
 10
127.494
 20
50.888500000000001
 30
0.0
 11
127.474
 21
50.854399999999998
 31
0.0
  0
LINE
  5
95F
  8
_________1
 62
     7
 10
127.474
 20
50.854399999999998
 30
0.0
 11
127.247
 21
50.696599999999989
 31
0.0
  0
LINE
  5
960
  8
_________1
 62
     7
 10
128.19200000000001
 20
50.131300000000003
 30
0.0
 11
127.508
 21
52.010899999999999
 31
0.0
  0
ARC
  5
961
  8
_________1
 62
     7
 10
128.276883
 20
48.924484
 30
0.0
 40
3.180715999999999
 50
103.983839
 51
114.401872
  0
ARC
  5
962
  8
_________1
 62
     7
 10
127.86111
 20
49.885370000000002
 30
0.0
 40
2.1339739999999998
 50
114.8943629999999
 51
128.81550100000001
  0
ARC
  5
963
  8
_________1
 62
     7
 10
127.41410500000001
 20
50.465466999999997
 30
0.0
 40
1.4018749999999991
 50
129.441721
 51
152.13818699999999
  0
ARC
  5
964
  8
_________1
 62
     7
 10
127.00890800000001
 20
50.707962000000002
 30
0.0
 40
0.930658
 50
153.67865800000001
 51
188.52643599999999
  0
ARC
  5
965
  8
_________1
 62
     7
 10
126.882547
 20
50.718955999999999
 30
0.0
 40
0.807867
 50
190.62673899999999
 51
236.85807600000001
  0
ARC
  5
966
  8
_________1
 62
     7
 10
127.020888
 20
50.903846999999999
 30
0.0
 40
1.0384180000000001
 50
236.04407699999999
 51
256.68200200000013
  0
ARC
  5
967
  8
_________1
 62
     7
 10
127.12393400000001
 20
51.277042000000002
 30
0.0
 40
1.4253849999999999
 50
256.106876
 51
273.856157
  0
ARC
  5
968
  8
_________1
 62
     7
 10
127.103889
 20
51.939165000000003
 30
0.0
 40
2.0875010000000001
 50
273.18290100000002
 51
287.90998100000002
  0
ARC
  5
969
  8
_________1
 62
     7
 10
126.84602099999999
 20
52.852936999999997
 30
0.0
 40
3.036502
 50
287.23760499999997
 51
296.322361
  0
ARC
  5
96A
  8
_________1
 62
     7
 10
126.873261
 20
51.352319999999999
 30
0.0
 40
0.181554
 50
115.730682
 51
128.133364
  0
ARC
  5
96B
  8
_________1
 62
     7
 10
138.800185
 20
33.456813000000011
 30
0.0
 40
21.68684
 50
123.719711
 51
124.705212
  0
ARC
  5
96C
  8
_________1
 62
     7
 10
-121.266993
 20
167.304498
 30
0.0
 40
273.54244899999998
 50
334.82113900000002
 51
334.90403800000001
  0
ARC
  5
96D
  8
_________1
 62
     7
 10
126.77354699999999
 20
50.916575000000002
 30
0.0
 40
0.4890970000000001
 50
178.7667889999999
 51
186.37053499999999
  0
ARC
  5
96E
  8
_________1
 62
     7
 10
156.92469500000001
 20
52.591196999999987
 30
0.0
 40
30.685967999999999
 50
183.22985600000001
 51
183.88849099999999
  0
LINE
  5
96F
  8
_________1
 62
     7
 10
126.309
 20
50.510199999999998
 30
0.0
 11
126.392
 21
50.397899999999993
 31
0.0
  0
LINE
  5
970
  8
_________1
 62
     7
 10
126.392
 20
50.397899999999993
 30
0.0
 11
126.559
 21
50.175400000000003
 31
0.0
  0
LINE
  5
971
  8
_________1
 62
     7
 10
126.559
 20
50.175400000000003
 30
0.0
 11
126.91800000000001
 21
50.007599999999989
 31
0.0
  0
ARC
  5
972
  8
_________1
 62
     7
 10
126.483867
 20
60.966714000000003
 30
0.0
 40
10.967701
 50
272.267358
 51
274.44892700000003
  0
ARC
  5
973
  8
_________1
 62
     7
 10
113.133337
 20
69.433688000000004
 30
0.0
 40
24.043710999999998
 50
306.20279799999997
 51
307.19601999999998
  0
ARC
  5
974
  8
_________1
 62
     7
 10
127.43688899999999
 20
50.424005000000001
 30
0.0
 40
0.272393
 50
328.367211
 51
338.63287200000002
  0
ARC
  5
975
  8
_________1
 62
     7
 10
104.634325
 20
61.155690999999997
 30
0.0
 40
25.473495
 50
334.837671
 51
335.61973499999999
  0
ARC
  5
976
  8
_________1
 62
     7
 10
121.593819
 20
50.142626999999997
 30
0.0
 40
6.2622450000000001
 50
4.5597510000000003
 51
6.5700589999999996
  0
ARC
  5
977
  8
_________1
 62
     7
 10
113.388927
 20
49.341144999999997
 30
0.0
 40
14.505656999999999
 50
6.00692
 51
6.7672409999999994
  0
ARC
  5
978
  8
_________1
 62
     7
 10
127.601499
 20
50.954419000000001
 30
0.0
 40
0.214693
 50
26.566134000000002
 51
37.911419000000002
  0
ARC
  5
979
  8
_________1
 62
     7
 10
90.846683999999996
 20
26.260275
 30
0.0
 40
44.494153999999988
 50
33.914990000000003
 51
34.390926
  0
LINE
  5
97A
  8
_________1
 62
     7
 10
127.563
 20
51.392200000000003
 30
0.0
 11
127.20399999999999
 21
51.558900000000001
 31
0.0
  0
ARC
  5
97B
  8
_________1
 62
     7
 10
129.29540900000001
 20
29.713100000000001
 30
0.0
 40
21.945744000000001
 50
95.469255000000004
 51
96.543714000000023
  0
LINE
  5
97C
  8
_________1
 62
     7
 10
122.919
 20
49.121200000000002
 30
0.0
 11
123.07899999999999
 21
48.889699999999998
 31
0.0
  0
LINE
  5
97D
  8
_________1
 62
     7
 10
123.07899999999999
 20
48.889699999999998
 30
0.0
 11
123.114
 21
48.871099999999991
 31
0.0
  0
LINE
  5
97E
  8
_________1
 62
     7
 10
123.114
 20
48.871099999999991
 30
0.0
 11
123.209
 21
48.905200000000001
 31
0.0
  0
LINE
  5
97F
  8
_________1
 62
     7
 10
123.209
 20
48.905200000000001
 30
0.0
 11
123.223
 21
48.94169999999999
 31
0.0
  0
LINE
  5
980
  8
_________1
 62
     7
 10
123.223
 20
48.94169999999999
 30
0.0
 11
123.19799999999999
 21
49.217300000000002
 31
0.0
  0
LINE
  5
981
  8
_________1
 62
     7
 10
123.19799999999999
 20
49.217300000000002
 30
0.0
 11
123.429
 21
49.3782
 31
0.0
  0
LINE
  5
982
  8
_________1
 62
     7
 10
123.429
 20
49.3782
 30
0.0
 11
123.449
 21
49.412300000000002
 31
0.0
  0
LINE
  5
983
  8
_________1
 62
     7
 10
123.449
 20
49.412300000000002
 30
0.0
 11
123.413
 21
49.506999999999998
 31
0.0
  0
LINE
  5
984
  8
_________1
 62
     7
 10
123.413
 20
49.506999999999998
 30
0.0
 11
123.377
 21
49.521500000000003
 31
0.0
  0
LINE
  5
985
  8
_________1
 62
     7
 10
123.377
 20
49.521500000000003
 30
0.0
 11
123.101
 21
49.496000000000002
 31
0.0
  0
LINE
  5
986
  8
_________1
 62
     7
 10
123.101
 20
49.496000000000002
 30
0.0
 11
122.941
 21
49.727499999999999
 31
0.0
  0
LINE
  5
987
  8
_________1
 62
     7
 10
122.941
 20
49.727499999999999
 30
0.0
 11
122.907
 21
49.746499999999997
 31
0.0
  0
LINE
  5
988
  8
_________1
 62
     7
 10
122.907
 20
49.746499999999997
 30
0.0
 11
122.812
 21
49.712400000000002
 31
0.0
  0
LINE
  5
989
  8
_________1
 62
     7
 10
122.812
 20
49.712400000000002
 30
0.0
 11
122.798
 21
49.675800000000002
 31
0.0
  0
LINE
  5
98A
  8
_________1
 62
     7
 10
122.798
 20
49.675800000000002
 30
0.0
 11
122.82299999999999
 21
49.400199999999998
 31
0.0
  0
LINE
  5
98B
  8
_________1
 62
     7
 10
122.82299999999999
 20
49.400199999999998
 30
0.0
 11
122.59099999999999
 21
49.2393
 31
0.0
  0
LINE
  5
98C
  8
_________1
 62
     7
 10
122.59099999999999
 20
49.2393
 30
0.0
 11
122.572
 21
49.206299999999999
 31
0.0
  0
LINE
  5
98D
  8
_________1
 62
     7
 10
122.572
 20
49.206299999999999
 30
0.0
 11
122.607
 21
49.110100000000003
 31
0.0
  0
LINE
  5
98E
  8
_________1
 62
     7
 10
122.607
 20
49.110100000000003
 30
0.0
 11
122.64400000000001
 21
49.097099999999998
 31
0.0
  0
LINE
  5
98F
  8
_________1
 62
     7
 10
122.64400000000001
 20
49.097099999999998
 30
0.0
 11
122.919
 21
49.121200000000002
 31
0.0
  0
LINE
  5
990
  8
_________1
 62
     7
 10
122.55800000000001
 20
48.0807
 30
0.0
 11
121.875
 21
49.9604
 31
0.0
  0
ARC
  5
991
  8
_________1
 62
     7
 10
123.26894799999999
 20
47.102963000000003
 30
0.0
 40
3.1793969999999998
 50
105.58655899999999
 51
116.007587
  0
ARC
  5
992
  8
_________1
 62
     7
 10
122.970304
 20
48.106188000000003
 30
0.0
 40
2.1328979999999991
 50
91.175053000000005
 51
105.100313
  0
ARC
  5
993
  8
_________1
 62
     7
 10
122.939987
 20
48.837415999999997
 30
0.0
 40
1.4012859999999989
 50
67.850854999999996
 51
90.548826000000005
  0
ARC
  5
994
  8
_________1
 62
     7
 10
123.094841
 20
49.283915999999998
 30
0.0
 40
0.929687
 50
31.44445
 51
66.315342000000001
  0
ARC
  5
995
  8
_________1
 62
     7
 10
123.183716
 20
49.372968999999991
 30
0.0
 40
0.8079489999999999
 50
343.12624399999999
 51
29.344048000000001
  0
ARC
  5
996
  8
_________1
 62
     7
 10
122.958281
 20
49.42598499999999
 30
0.0
 40
1.039170999999999
 50
323.31568499999997
 51
343.93687599999998
  0
ARC
  5
997
  8
_________1
 62
     7
 10
122.63950199999999
 20
49.645805000000003
 30
0.0
 40
1.4262049999999991
 50
306.14826199999999
 51
323.88448099999999
  0
ARC
  5
998
  8
_________1
 62
     7
 10
122.229793
 20
50.16535300000001
 30
0.0
 40
2.0875560000000002
 50
292.09416399999998
 51
306.81708200000003
  0
ARC
  5
999
  8
_________1
 62
     7
 10
121.840628
 20
51.029361999999999
 30
0.0
 40
3.034702999999999
 50
283.67985499999998
 51
292.76647700000001
  0
ARC
  5
99A
  8
_________1
 62
     7
 10
122.986198
 20
48.43650499999999
 30
0.0
 40
1.6230199999999999
 50
94.438640000000007
 51
98.741474000000011
  0
ARC
  5
99B
  8
_________1
 62
     7
 10
125.671581
 20
23.575652999999999
 30
0.0
 40
26.627793
 50
95.434955999999985
 51
96.059768000000005
  0
ARC
  5
99C
  8
_________1
 62
     7
 10
150.74548300000001
 20
108.78187
 30
0.0
 40
64.861457999999999
 50
244.82020900000001
 51
245.17011400000001
  0
ARC
  5
99D
  8
_________1
 62
     7
 10
123.21078900000001
 20
49.649914000000003
 30
0.0
 40
0.3994849999999999
 50
33.510047
 51
41.823258000000003
  0
ARC
  5
99E
  8
_________1
 62
     7
 10
93.837726000000004
 20
27.744948999999998
 30
0.0
 40
37.040432000000003
 50
36.123082000000011
 51
36.679200000000002
  0
LINE
  5
99F
  8
_________1
 62
     7
 10
123.75700000000001
 20
49.581099999999999
 30
0.0
 11
123.765
 21
49.44230000000001
 31
0.0
  0
LINE
  5
9A0
  8
_________1
 62
     7
 10
123.765
 20
49.44230000000001
 30
0.0
 11
123.782
 21
49.164200000000001
 31
0.0
  0
LINE
  5
9A1
  8
_________1
 62
     7
 10
123.782
 20
49.164200000000001
 30
0.0
 11
123.614
 21
48.804900000000004
 31
0.0
  0
ARC
  5
9A2
  8
_________1
 62
     7
 10
123.48508099999999
 20
48.934868999999999
 30
0.0
 40
0.182991
 50
302.41831400000001
 51
314.74936200000002
  0
ARC
  5
9A3
  8
_________1
 62
     7
 10
106.191033
 20
71.964461999999997
 30
0.0
 40
28.982543
 50
306.13008100000002
 51
306.87638600000002
  0
ARC
  5
9A4
  8
_________1
 62
     7
 10
121.743301
 20
71.175730999999999
 30
0.0
 40
22.672024
 50
272.83049499999998
 51
273.8857910000001
  0
ARC
  5
9A5
  8
_________1
 62
     7
 10
123.02783100000001
 20
48.971897999999989
 30
0.0
 40
0.470403
 50
241.99793700000001
 51
249.47136800000001
  0
ARC
  5
9A6
  8
_________1
 62
     7
 10
143.42372800000001
 20
92.775475999999998
 30
0.0
 40
48.788960000000003
 50
244.609714
 51
245.003062
  0
ARC
  5
9A7
  8
_________1
 62
     7
 10
134.165235
 20
56.824080000000002
 30
0.0
 40
14.212724
 50
213.203946
 51
214.866524
  0
ARC
  5
9A8
  8
_________1
 62
     7
 10
122.55321600000001
 20
49.101309000000001
 30
0.0
 40
0.286586
 50
182.48808700000001
 51
192.16856000000001
  0
ARC
  5
9A9
  8
_________1
 62
     7
 10
156.27613099999999
 20
52.705558999999987
 30
0.0
 40
34.200999000000003
 50
185.460756
 51
186.07029
  0
LINE
  5
9AA
  8
_________1
 62
     7
 10
122.23
 20
49.450899999999997
 30
0.0
 11
122.398
 21
49.809199999999997
 31
0.0
  0
ARC
  5
9AB
  8
_________1
 62
     7
 10
133.512123
 20
33.77028
 30
0.0
 40
19.513438000000001
 50
123.50842799999999
 51
124.72049
  0
LINE
  5
9AC
  8
_________1
 62
     7
 10
125.68600000000001
 20
54.752600000000001
 30
0.0
 11
121.494
 21
53.226700000000001
 31
0.0
  0
LINE
  5
9AD
  8
_________1
 62
     7
 10
121.494
 20
53.226700000000001
 30
0.0
 11
121.315
 21
53.076900000000002
 31
0.0
  0
ARC
  5
9AE
  8
_________1
 62
     7
 10
121.436549
 20
52.980108999999999
 30
0.0
 40
0.155096
 50
141.40735699999999
 51
156.69586200000001
  0
ARC
  5
9AF
  8
_________1
 62
     7
 10
121.61734
 20
52.897868000000003
 30
0.0
 40
0.353696
 50
156.04651100000001
 51
166.72805
  0
ARC
  5
9B0
  8
_________1
 62
     7
 10
122.071512
 20
52.786366000000001
 30
0.0
 40
0.8213459999999999
 50
166.430959
 51
173.473355
  0
ARC
  5
9B1
  8
_________1
 62
     7
 10
122.96445900000001
 20
52.679944999999996
 30
0.0
 40
1.7206079999999999
 50
173.33234400000001
 51
178.210386
  0
ARC
  5
9B2
  8
_________1
 62
     7
 10
124.643709
 20
52.620550000000001
 30
0.0
 40
3.4009010000000002
 50
178.0937429999999
 51
181.48306099999999
  0
ARC
  5
9B3
  8
_________1
 62
     7
 10
127.485215
 20
52.691701000000002
 30
0.0
 40
6.2432970000000001
 50
181.46090699999999
 51
184.152717
  0
ARC
  5
9B4
  8
_________1
 62
     7
 10
131.663713
 20
52.986102000000002
 30
0.0
 40
10.432148
 50
184.103522
 51
186.0931239999999
  0
ARC
  5
9B5
  8
_________1
 62
     7
 10
139.053079
 20
53.781691000000002
 30
0.0
 40
17.864218000000001
 50
186.114788
 51
192.29563200000001
  0
ARC
  5
9B6
  8
_________1
 62
     7
 10
124.658682
 20
50.639491
 30
0.0
 40
3.1308560000000001
 50
192.20857799999999
 51
197.92630799999989
  0
LINE
  5
9B7
  8
_________1
 62
     7
 10
121.68000000000001
 20
49.675800000000002
 30
0.0
 11
122.22799999999999
 21
48.17199999999999
 31
0.0
  0
ARC
  5
9B8
  8
_________1
 62
     7
 10
123.27991
 20
48.557534999999987
 30
0.0
 40
1.1207039999999999
 50
200.119226
 51
204.941395
  0
ARC
  5
9B9
  8
_________1
 62
     7
 10
126.23835099999999
 20
49.897931999999997
 30
0.0
 40
4.3685910000000003
 50
204.519656
 51
207.37927199999999
  0
ARC
  5
9BA
  8
_________1
 62
     7
 10
132.45504099999999
 20
53.090325
 30
0.0
 40
11.357037999999999
 50
207.257518
 51
209.15729999999999
  0
ARC
  5
9BB
  8
_________1
 62
     7
 10
139.41310799999999
 20
56.95431
 30
0.0
 40
19.315989999999999
 50
209.110826
 51
213.606256
  0
ARC
  5
9BC
  8
_________1
 62
     7
 10
130.927255
 20
51.324857000000002
 30
0.0
 40
9.1326559999999972
 50
213.65780699999999
 51
217.98485600000001
  0
ARC
  5
9BD
  8
_________1
 62
     7
 10
125.785122
 20
47.320205999999999
 30
0.0
 40
2.6151019999999998
 50
218.16847300000001
 51
226.18462
  0
ARC
  5
9BE
  8
_________1
 62
     7
 10
124.35624199999999
 20
45.840021
 30
0.0
 40
0.5578060000000001
 50
226.82724700000011
 51
243.19764900000001
  0
ARC
  5
9BF
  8
_________1
 62
     7
 10
124.161731
 20
45.475679999999997
 30
0.0
 40
0.1452
 50
246.880854
 51
258.761302
  0
ARC
  5
9C0
  8
_________1
 62
     7
 10
124.15678200000001
 20
45.403159999999993
 30
0.0
 40
0.073693
 50
251.52711199999999
 51
269.56582100000003
  0
ARC
  5
9C1
  8
_________1
 62
     7
 10
124.164402
 20
45.661599999999993
 30
0.0
 40
0.332231
 50
268.58939800000007
 51
279.29688599999997
  0
ARC
  5
9C2
  8
_________1
 62
     7
 10
124.007407
 20
46.731783999999998
 30
0.0
 40
1.413834
 50
278.56920600000001
 51
284.05514599999998
  0
ARC
  5
9C3
  8
_________1
 62
     7
 10
123.20957900000001
 20
50.023878000000011
 30
0.0
 40
4.801196
 50
283.75012700000002
 51
286.71946300000002
  0
ARC
  5
9C4
  8
_________1
 62
     7
 10
120.83540000000001
 20
58.027223999999997
 30
0.0
 40
13.149248
 50
286.594674
 51
288.33342699999997
  0
ARC
  5
9C5
  8
_________1
 62
     7
 10
115.14161199999999
 20
75.276553000000007
 30
0.0
 40
31.314005000000002
 50
288.29513700000001
 51
289.42725899999999
  0
ARC
  5
9C6
  8
_________1
 62
     7
 10
103.383701
 20
108.65391099999999
 30
0.0
 40
66.701804999999993
 50
289.41595100000001
 51
290.22689200000002
  0
ARC
  5
9C7
  8
_________1
 62
     7
 10
78.413597999999993
 20
176.496959
 30
0.0
 40
138.99416199999999
 50
290.21628299999998
 51
290.76656500000001
  0
ARC
  5
9C8
  8
_________1
 62
     7
 10
-43.656168999999998
 20
500.99566199999998
 30
0.0
 40
485.69316199999997
 50
290.65857399999999
 51
290.76738899999998
  0
LINE
  5
9C9
  8
_________1
 62
     7
 10
128.55799999999999
 20
46.859099999999991
 30
0.0
 11
128.738
 21
47.008999999999993
 31
0.0
  0
LINE
  5
9CA
  8
_________1
 62
     7
 10
128.738
 20
47.008999999999993
 30
0.0
 11
128.827
 21
47.232900000000001
 31
0.0
  0
ARC
  5
9CB
  8
_________1
 62
     7
 10
117.438383
 20
47.238008999999998
 30
0.0
 40
11.388678000000001
 50
359.97431
 51
5.3984930000000002
  0
ARC
  5
9CC
  8
_________1
 62
     7
 10
116.41546700000001
 20
47.220570000000002
 30
0.0
 40
12.408948000000001
 50
5.0342919999999989
 51
10.590137
  0
ARC
  5
9CD
  8
_________1
 62
     7
 10
121.277254
 20
48.094947999999988
 30
0.0
 40
7.4693539999999992
 50
10.851136
 51
15.639184
  0
ARC
  5
9CE
  8
_________1
 62
     7
 10
124.070267
 20
48.857913000000011
 30
0.0
 40
4.5741009999999998
 50
15.867385000000001
 51
19.835353000000001
  0
LINE
  5
9CF
  8
_________1
 62
     7
 10
128.37299999999999
 20
50.409999999999997
 30
0.0
 11
127.825
 21
51.912700000000001
 31
0.0
  0
ARC
  5
9D0
  8
_________1
 62
     7
 10
123.64476000000001
 20
50.392803999999991
 30
0.0
 40
4.448199999999999
 50
19.980422000000001
 51
25.599045
  0
ARC
  5
9D1
  8
_________1
 62
     7
 10
120.763493
 20
49.057877000000012
 30
0.0
 40
7.6235339999999994
 50
25.290745999999999
 51
30.26600800000001
  0
ARC
  5
9D2
  8
_________1
 62
     7
 10
116.64396600000001
 20
46.702050999999997
 30
0.0
 40
12.368988999999999
 50
30.073351000000009
 51
39.910277000000001
  0
LINE
  5
9D3
  8
_________1
 62
     7
 10
126.13200000000001
 20
54.637799999999991
 30
0.0
 11
125.919
 21
54.752600000000001
 31
0.0
  0
LINE
  5
9D4
  8
_________1
 62
     7
 10
125.919
 20
54.752600000000001
 30
0.0
 11
125.68600000000001
 21
54.752600000000001
 31
0.0
  0
ARC
  5
9D5
  8
_________1
 62
     7
 10
140.66481099999999
 20
54.90559300000001
 30
0.0
 40
18.025621999999998
 50
210.98502300000001
 51
224.77498800000001
  0
ARC
  5
9D6
  8
_________1
 62
     7
 10
138.54037
 20
52.952241999999998
 30
0.0
 40
15.142130999999999
 50
225.18990700000001
 51
241.40261100000001
  0
ARC
  5
9D7
  8
_________1
 62
     7
 10
137.88692499999999
 20
51.961960999999988
 30
0.0
 40
13.960243999999999
 50
241.81191699999999
 51
266.27780799999999
  0
ARC
  5
9D8
  8
_________1
 62
     7
 10
138.04109800000001
 20
53.337359999999997
 30
0.0
 40
15.342886
 50
266.03672299999999
 51
270.024182
  0
ARC
  5
9D9
  8
_________1
 62
     7
 10
138.52243100000001
 20
53.945305000000012
 30
0.0
 40
15.885341
 50
312.83522799999997
 51
0.107092
  0
ARC
  5
9DA
  8
_________1
 62
     7
 10
140.39148399999999
 20
54.205144999999987
 30
0.0
 40
14.01815
 50
359.059282
 51
14.753242999999999
  0
ARC
  5
9DB
  8
_________1
 62
     7
 10
195.308177
 20
67.555028000000007
 30
0.0
 40
42.501261
 50
180.376307
 51
193.303707
  0
LINE
  5
9DC
  8
_________1
 62
     7
 10
152.80799999999999
 20
67.275899999999993
 30
0.0
 11
152.80799999999999
 21
71.375600000000006
 31
0.0
  0
LINE
  5
9DD
  8
_________1
 62
     7
 10
152.80799999999999
 20
71.375600000000006
 30
0.0
 11
152.80799999999999
 21
72.776399999999995
 31
0.0
  0
ARC
  5
9DE
  8
_________1
 62
     7
 10
138.46561399999999
 20
52.907668999999991
 30
0.0
 40
12.533021
 50
231.13859099999999
 51
269.82450399999999
  0
ARC
  5
9DF
  8
_________1
 62
     7
 10
139.78099800000001
 20
54.661054
 30
0.0
 40
14.723839999999999
 50
215.75664800000001
 51
231.43393599999999
  0
ARC
  5
9E0
  8
_________1
 62
     7
 10
141.18078899999989
 20
55.811962999999999
 30
0.0
 40
16.532713999999999
 50
214.39275699999999
 51
216.15869799999999
  0
LINE
  5
9E1
  8
_________1
 62
     7
 10
45.582999999999998
 20
49.898400000000002
 30
0.0
 11
45.511400000000002
 21
49.626199999999997
 31
0.0
  0
LINE
  5
9E2
  8
_________1
 62
     7
 10
45.511400000000002
 20
49.626199999999997
 30
0.0
 11
45.486600000000003
 21
49.596600000000002
 31
0.0
  0
LINE
  5
9E3
  8
_________1
 62
     7
 10
45.486600000000003
 20
49.596600000000002
 30
0.0
 11
45.384599999999992
 21
49.596600000000002
 31
0.0
  0
LINE
  5
9E4
  8
_________1
 62
     7
 10
45.384599999999992
 20
49.596600000000002
 30
0.0
 11
45.359099999999998
 21
49.626199999999997
 31
0.0
  0
LINE
  5
9E5
  8
_________1
 62
     7
 10
45.359099999999998
 20
49.626199999999997
 30
0.0
 11
45.2881
 21
49.892899999999997
 31
0.0
  0
LINE
  5
9E6
  8
_________1
 62
     7
 10
45.2881
 20
49.892899999999997
 30
0.0
 11
45.015999999999998
 21
49.964500000000001
 31
0.0
  0
LINE
  5
9E7
  8
_________1
 62
     7
 10
45.015999999999998
 20
49.964500000000001
 30
0.0
 11
44.9863
 21
49.991100000000003
 31
0.0
  0
LINE
  5
9E8
  8
_________1
 62
     7
 10
44.9863
 20
49.991100000000003
 30
0.0
 11
44.9863
 21
50.09129999999999
 31
0.0
  0
LINE
  5
9E9
  8
_________1
 62
     7
 10
44.9863
 20
50.09129999999999
 30
0.0
 11
45.015999999999998
 21
50.116799999999998
 31
0.0
  0
LINE
  5
9EA
  8
_________1
 62
     7
 10
45.015999999999998
 20
50.116799999999998
 30
0.0
 11
45.28329999999999
 21
50.187399999999997
 31
0.0
  0
LINE
  5
9EB
  8
_________1
 62
     7
 10
45.28329999999999
 20
50.187399999999997
 30
0.0
 11
45.355699999999992
 21
50.460599999999999
 31
0.0
  0
LINE
  5
9EC
  8
_________1
 62
     7
 10
45.355699999999992
 20
50.460599999999999
 30
0.0
 11
45.3812
 21
50.490600000000001
 31
0.0
  0
LINE
  5
9ED
  8
_________1
 62
     7
 10
45.3812
 20
50.490600000000001
 30
0.0
 11
45.482399999999991
 21
50.490600000000001
 31
0.0
  0
LINE
  5
9EE
  8
_________1
 62
     7
 10
45.482399999999991
 20
50.490600000000001
 30
0.0
 11
45.507899999999999
 21
50.460599999999999
 31
0.0
  0
LINE
  5
9EF
  8
_________1
 62
     7
 10
45.507899999999999
 20
50.460599999999999
 30
0.0
 11
45.578200000000002
 21
50.192900000000002
 31
0.0
  0
LINE
  5
9F0
  8
_________1
 62
     7
 10
45.578200000000002
 20
50.192900000000002
 30
0.0
 11
45.8504
 21
50.121299999999991
 31
0.0
  0
LINE
  5
9F1
  8
_________1
 62
     7
 10
45.8504
 20
50.121299999999991
 30
0.0
 11
45.880699999999997
 21
50.09579999999999
 31
0.0
  0
LINE
  5
9F2
  8
_________1
 62
     7
 10
45.880699999999997
 20
50.09579999999999
 30
0.0
 11
45.880699999999997
 21
49.994500000000002
 31
0.0
  0
LINE
  5
9F3
  8
_________1
 62
     7
 10
45.880699999999997
 20
49.994500000000002
 30
0.0
 11
45.8504
 21
49.969000000000001
 31
0.0
  0
LINE
  5
9F4
  8
_________1
 62
     7
 10
45.8504
 20
49.969000000000001
 30
0.0
 11
45.582999999999998
 21
49.898400000000002
 31
0.0
  0
LINE
  5
9F5
  8
_________1
 62
     7
 10
46.2776
 20
49.042999999999999
 30
0.0
 11
46.2776
 21
51.043900000000001
 31
0.0
  0
ARC
  5
9F6
  8
_________1
 62
     7
 10
45.94411199999999
 20
47.883054999999992
 30
0.0
 40
3.1783769999999998
 50
83.977729000000011
 51
94.401711999999989
  0
ARC
  5
9F7
  8
_________1
 62
     7
 10
45.881902999999987
 20
48.927653999999997
 30
0.0
 40
2.1321609999999991
 50
94.889353999999997
 51
108.819068
  0
ARC
  5
9F8
  8
_________1
 62
     7
 10
45.660772999999992
 20
49.624333999999998
 30
0.0
 40
1.4014770000000001
 50
109.44976800000001
 51
132.14627999999999
  0
ARC
  5
9F9
  8
_________1
 62
     7
 10
45.36275599999999
 20
49.990833000000002
 30
0.0
 40
0.9301
 50
133.68466599999999
 51
168.550759
  0
ARC
  5
9FA
  8
_________1
 62
     7
 10
45.248869999999997
 20
50.044001000000002
 30
0.0
 40
0.8084659999999999
 50
170.64210299999999
 51
216.84699000000001
  0
ARC
  5
9FB
  8
_________1
 62
     7
 10
45.442501
 20
50.170743999999999
 30
0.0
 40
1.0395259999999991
 50
216.037237
 51
236.65476100000001
  0
ARC
  5
9FC
  8
_________1
 62
     7
 10
45.666387
 20
50.485227999999999
 30
0.0
 40
1.425373999999999
 50
236.08547100000001
 51
253.83186900000001
  0
ARC
  5
9FD
  8
_________1
 62
     7
 10
45.873939999999997
 20
51.113328000000003
 30
0.0
 40
2.08657
 50
253.16060400000001
 51
267.88898999999998
  0
ARC
  5
9FE
  8
_________1
 62
     7
 10
45.944223000000001
 20
52.059753000000001
 30
0.0
 40
3.0351469999999998
 50
267.22124000000002
 51
276.30549500000012
  0
ARC
  5
9FF
  8
_________1
 62
     7
 10
45.470991999999988
 20
50.570352999999997
 30
0.0
 40
0.255237
 50
97.505708999999996
 51
107.66292900000001
  0
ARC
  5
A00
  8
_________1
 62
     7
 10
53.921005000000008
 20
16.534727
 30
0.0
 40
35.323585999999999
 50
103.969745
 51
104.564781
  0
ARC
  5
A01
  8
_________1
 62
     7
 10
52.127352000000002
 20
43.362791999999992
 30
0.0
 40
10.219272999999999
 50
133.92545000000001
 51
136.145038
  0
ARC
  5
A02
  8
_________1
 62
     7
 10
44.990268
 20
50.343603999999999
 30
0.0
 40
0.252414
 50
156.794657
 51
166.99602300000001
  0
ARC
  5
A03
  8
_________1
 62
     7
 10
179.886214
 20
9.7599070000000001
 30
0.0
 40
141.12044299999999
 50
163.262655
 51
163.41364799999999
  0
LINE
  5
A04
  8
_________1
 62
     7
 10
44.637700000000002
 20
50.0441
 30
0.0
 11
44.677700000000002
 21
49.909399999999998
 31
0.0
  0
LINE
  5
A05
  8
_________1
 62
     7
 10
44.677700000000002
 20
49.909399999999998
 30
0.0
 11
44.758299999999998
 21
49.643799999999999
 31
0.0
  0
LINE
  5
A06
  8
_________1
 62
     7
 10
44.758299999999998
 20
49.643799999999999
 30
0.0
 11
45.037999999999997
 21
49.363700000000001
 31
0.0
  0
ARC
  5
A07
  8
_________1
 62
     7
 10
45.232736999999993
 20
49.852080000000001
 30
0.0
 40
0.52576
 50
248.26240300000001
 51
255.728227
  0
ARC
  5
A08
  8
_________1
 62
     7
 10
54.090416000000012
 20
79.178172000000004
 30
0.0
 40
31.159845000000001
 50
253.23630199999999
 51
253.87765200000001
  0
ARC
  5
A09
  8
_________1
 62
     7
 10
41.278271999999987
 20
63.860621000000002
 30
0.0
 40
15.197085
 50
285.884322
 51
287.45989100000003
  0
ARC
  5
A0A
  8
_________1
 62
     7
 10
45.645705
 20
49.603487000000001
 30
0.0
 40
0.307347
 50
308.72461700000002
 51
318.36031400000002
  0
ARC
  5
A0B
  8
_________1
 62
     7
 10
26.539562
 20
68.803341000000003
 30
0.0
 40
27.393291000000001
 50
314.89908800000001
 51
315.61913399999997
  0
ARC
  5
A0C
  8
_________1
 62
     7
 10
-1.2492270000000001
 20
61.677778000000004
 30
0.0
 40
48.871710999999991
 50
345.74510199999997
 51
346.22882600000003
  0
ARC
  5
A0D
  8
_________1
 62
     7
 10
45.951372999999997
 20
50.008887000000001
 30
0.0
 40
0.268574
 50
7.5376539999999981
 51
17.787679000000001
  0
ARC
  5
A0E
  8
_________1
 62
     7
 10
9.2876639999999995
 20
40.90611599999999
 30
0.0
 40
38.044792000000001
 50
13.970431
 51
14.517563000000001
  0
LINE
  5
A0F
  8
_________1
 62
     7
 10
46.117699999999992
 20
50.443100000000001
 30
0.0
 11
45.838000000000001
 21
50.723199999999999
 31
0.0
  0
ARC
  5
A10
  8
_________1
 62
     7
 10
36.644382
 20
14.861366
 30
0.0
 40
37.021477000000012
 50
75.621201999999997
 51
76.25989100000001
  0
LINE
  5
A11
  8
_________1
 62
     7
 10
40.136299999999999
 20
48.3949
 30
0.0
 11
46.509099999999989
 21
48.3949
 31
0.0
  0
LINE
  5
A12
  8
_________1
 62
     7
 10
40.077699999999993
 20
51.765000000000001
 30
0.0
 11
46.509099999999989
 21
51.765000000000001
 31
0.0
  0
LINE
  5
A13
  8
_________1
 62
     7
 10
40.977600000000002
 20
49.898400000000002
 30
0.0
 11
41.049300000000002
 21
49.626199999999997
 31
0.0
  0
LINE
  5
A14
  8
_________1
 62
     7
 10
41.049300000000002
 20
49.626199999999997
 30
0.0
 11
41.074100000000001
 21
49.596600000000002
 31
0.0
  0
LINE
  5
A15
  8
_________1
 62
     7
 10
41.074100000000001
 20
49.596600000000002
 30
0.0
 11
41.176000000000002
 21
49.596600000000002
 31
0.0
  0
LINE
  5
A16
  8
_________1
 62
     7
 10
41.176000000000002
 20
49.596600000000002
 30
0.0
 11
41.201500000000003
 21
49.626199999999997
 31
0.0
  0
LINE
  5
A17
  8
_________1
 62
     7
 10
41.201500000000003
 20
49.626199999999997
 30
0.0
 11
41.272500000000001
 21
49.892899999999997
 31
0.0
  0
LINE
  5
A18
  8
_________1
 62
     7
 10
41.272500000000001
 20
49.892899999999997
 30
0.0
 11
41.544699999999992
 21
49.964500000000001
 31
0.0
  0
LINE
  5
A19
  8
_________1
 62
     7
 10
41.544699999999992
 20
49.964500000000001
 30
0.0
 11
41.574300000000001
 21
49.991100000000003
 31
0.0
  0
LINE
  5
A1A
  8
_________1
 62
     7
 10
41.574300000000001
 20
49.991100000000003
 30
0.0
 11
41.574300000000001
 21
50.09129999999999
 31
0.0
  0
LINE
  5
A1B
  8
_________1
 62
     7
 10
41.574300000000001
 20
50.09129999999999
 30
0.0
 11
41.544699999999992
 21
50.116799999999998
 31
0.0
  0
LINE
  5
A1C
  8
_________1
 62
     7
 10
41.544699999999992
 20
50.116799999999998
 30
0.0
 11
41.277999999999992
 21
50.187399999999997
 31
0.0
  0
LINE
  5
A1D
  8
_________1
 62
     7
 10
41.277999999999992
 20
50.187399999999997
 30
0.0
 11
41.204999999999991
 21
50.460599999999999
 31
0.0
  0
LINE
  5
A1E
  8
_________1
 62
     7
 10
41.204999999999991
 20
50.460599999999999
 30
0.0
 11
41.17949999999999
 21
50.490600000000001
 31
0.0
  0
LINE
  5
A1F
  8
_________1
 62
     7
 10
41.17949999999999
 20
50.490600000000001
 30
0.0
 11
41.078200000000002
 21
50.490600000000001
 31
0.0
  0
LINE
  5
A20
  8
_________1
 62
     7
 10
41.078200000000002
 20
50.490600000000001
 30
0.0
 11
41.052699999999987
 21
50.460599999999999
 31
0.0
  0
LINE
  5
A21
  8
_________1
 62
     7
 10
41.052699999999987
 20
50.460599999999999
 30
0.0
 11
40.982399999999991
 21
50.192900000000002
 31
0.0
  0
LINE
  5
A22
  8
_________1
 62
     7
 10
40.982399999999991
 20
50.192900000000002
 30
0.0
 11
40.710299999999989
 21
50.121299999999991
 31
0.0
  0
LINE
  5
A23
  8
_________1
 62
     7
 10
40.710299999999989
 20
50.121299999999991
 30
0.0
 11
40.679900000000004
 21
50.09579999999999
 31
0.0
  0
LINE
  5
A24
  8
_________1
 62
     7
 10
40.679900000000004
 20
50.09579999999999
 30
0.0
 11
40.679900000000004
 21
49.994500000000002
 31
0.0
  0
LINE
  5
A25
  8
_________1
 62
     7
 10
40.679900000000004
 20
49.994500000000002
 30
0.0
 11
40.710299999999989
 21
49.969000000000001
 31
0.0
  0
LINE
  5
A26
  8
_________1
 62
     7
 10
40.710299999999989
 20
49.969000000000001
 30
0.0
 11
40.977600000000002
 21
49.898400000000002
 31
0.0
  0
LINE
  5
A27
  8
_________1
 62
     7
 10
40.283099999999997
 20
49.042999999999999
 30
0.0
 11
40.283099999999997
 21
51.043900000000001
 31
0.0
  0
ARC
  5
A28
  8
_________1
 62
     7
 10
40.616529
 20
47.883026999999998
 30
0.0
 40
3.1784050000000001
 50
85.598257000000004
 51
96.022245999999996
  0
ARC
  5
A29
  8
_________1
 62
     7
 10
40.678715999999987
 20
48.927571
 30
0.0
 40
2.132245999999999
 50
71.181139999999999
 51
85.110152999999997
  0
ARC
  5
A2A
  8
_________1
 62
     7
 10
40.899865000000013
 20
49.624333999999998
 30
0.0
 40
1.4014770000000001
 50
47.853700000000011
 51
70.550212000000002
  0
ARC
  5
A2B
  8
_________1
 62
     7
 10
41.197859999999999
 20
49.990811000000001
 30
0.0
 40
0.930132
 50
11.450245000000001
 51
46.315260000000002
  0
ARC
  5
A2C
  8
_________1
 62
     7
 10
41.311577
 20
50.044053999999988
 30
0.0
 40
0.808651
 50
323.15809900000011
 51
9.3518639999999991
  0
ARC
  5
A2D
  8
_________1
 62
     7
 10
41.118428999999999
 20
50.170427000000011
 30
0.0
 40
1.039104
 50
303.34170899999998
 51
323.96747699999997
  0
ARC
  5
A2E
  8
_________1
 62
     7
 10
40.894257000000003
 20
50.485227999999999
 30
0.0
 40
1.425373999999999
 50
286.16815100000002
 51
303.91454900000002
  0
ARC
  5
A2F
  8
_________1
 62
     7
 10
40.686653
 20
51.113634000000012
 30
0.0
 40
2.086876999999999
 50
272.1119490000001
 51
286.83830699999999
  0
ARC
  5
A30
  8
_________1
 62
     7
 10
40.616416000000001
 20
52.059753000000001
 30
0.0
 40
3.0351469999999998
 50
263.694525
 51
272.77877999999998
  0
ARC
  5
A31
  8
_________1
 62
     7
 10
40.869103999999993
 20
49.517552000000002
 30
0.0
 40
1.3303020000000001
 50
74.279234000000017
 51
78.997845999999996
  0
ARC
  5
A32
  8
_________1
 62
     7
 10
36.468612999999998
 20
31.522772
 30
0.0
 40
19.854583999999999
 50
75.25094399999999
 51
76.125829999999993
  0
ARC
  5
A33
  8
_________1
 62
     7
 10
24.798065000000001
 20
33.738734000000001
 30
0.0
 40
23.837033999999999
 50
44.488976000000001
 51
45.440496000000003
  0
ARC
  5
A34
  8
_________1
 62
     7
 10
41.576078000000003
 20
50.345244999999991
 30
0.0
 40
0.247155
 50
12.895127
 51
23.314153999999998
  0
ARC
  5
A35
  8
_________1
 62
     7
 10
-4.9046320000000003
 20
36.313623
 30
0.0
 40
48.799059999999997
 50
16.341868000000002
 51
16.778289999999998
  0
LINE
  5
A36
  8
_________1
 62
     7
 10
41.922899999999991
 20
50.0441
 30
0.0
 11
41.883000000000003
 21
49.909399999999998
 31
0.0
  0
LINE
  5
A37
  8
_________1
 62
     7
 10
41.883000000000003
 20
49.909399999999998
 30
0.0
 11
41.803100000000001
 21
49.643799999999999
 31
0.0
  0
LINE
  5
A38
  8
_________1
 62
     7
 10
41.803100000000001
 20
49.643799999999999
 30
0.0
 11
41.523299999999999
 21
49.363700000000001
 31
0.0
  0
ARC
  5
A39
  8
_________1
 62
     7
 10
41.443780999999987
 20
49.537756000000002
 30
0.0
 40
0.191358
 50
282.64679799999999
 51
294.55717199999998
  0
ARC
  5
A3A
  8
_________1
 62
     7
 10
34.560268000000001
 20
72.10955899999999
 30
0.0
 40
23.788893000000002
 50
286.01406900000001
 51
286.92499500000002
  0
ARC
  5
A3B
  8
_________1
 62
     7
 10
44.517969000000001
 20
61.308233999999999
 30
0.0
 40
12.532999
 50
252.372658
 51
254.28316899999999
  0
ARC
  5
A3C
  8
_________1
 62
     7
 10
40.919361000000002
 20
49.606304999999999
 30
0.0
 40
0.312319
 50
221.52038300000001
 51
230.96502899999999
  0
ARC
  5
A3D
  8
_________1
 62
     7
 10
62.909058999999999
 20
71.690760999999995
 30
0.0
 40
31.476913
 50
224.460486
 51
225.08747600000001
  0
ARC
  5
A3E
  8
_________1
 62
     7
 10
119.590993
 20
69.609385000000003
 30
0.0
 40
81.627459999999999
 50
193.86824899999991
 51
194.15786199999999
  0
ARC
  5
A3F
  8
_________1
 62
     7
 10
40.615009000000001
 20
50.007595999999999
 30
0.0
 40
0.274438
 50
162.322092
 51
172.35253499999999
  0
ARC
  5
A40
  8
_________1
 62
     7
 10
77.010370999999992
 20
40.97278
 30
0.0
 40
37.773862000000001
 50
165.48045500000001
 51
166.03151099999999
  0
LINE
  5
A41
  8
_________1
 62
     7
 10
40.442900000000002
 20
50.443100000000001
 30
0.0
 11
40.722700000000003
 21
50.723199999999999
 31
0.0
  0
ARC
  5
A42
  8
_________1
 62
     7
 10
49.057940000000002
 20
18.288729
 30
0.0
 40
33.488334000000002
 50
103.706396
 51
104.412471
  0
LINE
  5
A43
  8
_________1
 62
     7
 10
41.05749999999999
 20
54.243400000000001
 30
0.0
 11
45.517600000000002
 21
54.243400000000001
 31
0.0
  0
LINE
  5
A44
  8
_________1
 62
     7
 10
45.517600000000002
 20
54.243400000000001
 30
0.0
 11
45.737399999999987
 21
54.163800000000002
 31
0.0
  0
ARC
  5
A45
  8
_________1
 62
     7
 10
45.65681699999999
 20
54.031505000000003
 30
0.0
 40
0.154883
 50
43.353470000000002
 51
58.658996999999999
  0
ARC
  5
A46
  8
_________1
 62
     7
 10
45.514488
 20
53.891883999999997
 30
0.0
 40
0.354245
 50
33.311065999999997
 51
43.970481999999997
  0
ARC
  5
A47
  8
_________1
 62
     7
 10
45.126677999999998
 20
53.63238599999999
 30
0.0
 40
0.820861
 50
26.538021000000001
 51
33.582145000000011
  0
ARC
  5
A48
  8
_________1
 62
     7
 10
44.327139999999993
 20
53.228279000000001
 30
0.0
 40
1.716713999999999
 50
21.793472999999999
 51
26.681605999999999
  0
ARC
  5
A49
  8
_________1
 62
     7
 10
42.761143999999987
 20
52.595210999999999
 30
0.0
 40
3.4058259999999998
 50
18.517675000000001
 51
21.901592999999998
  0
ARC
  5
A4A
  8
_________1
 62
     7
 10
40.054264000000003
 20
51.686805999999997
 30
0.0
 40
6.2610669999999988
 50
15.849053
 51
18.533003000000001
  0
ARC
  5
A4B
  8
_________1
 62
     7
 10
36.037708000000002
 20
50.538660999999998
 30
0.0
 40
10.438497
 50
13.902183000000001
 51
15.890554
  0
ARC
  5
A4C
  8
_________1
 62
     7
 10
28.820945999999999
 20
48.759278999999999
 30
0.0
 40
17.871385
 50
7.7022570000000012
 51
13.880777
  0
ARC
  5
A4D
  8
_________1
 62
     7
 10
43.417552000000001
 20
50.728468999999997
 30
0.0
 40
3.142552999999999
 50
2.0956359999999998
 51
7.7913949999999987
  0
LINE
  5
A4E
  8
_________1
 62
     7
 10
46.558
 20
50.843400000000003
 30
0.0
 11
46.558
 21
49.2438
 31
0.0
  0
ARC
  5
A4F
  8
_________1
 62
     7
 10
45.436864
 20
49.246904000000001
 30
0.0
 40
1.1211439999999999
 50
355.018215
 51
359.84225700000002
  0
ARC
  5
A50
  8
_________1
 62
     7
 10
42.164333999999997
 20
49.498740000000012
 30
0.0
 40
4.403306999999999
 50
352.61293599999999
 51
355.45150000000001
  0
ARC
  5
A51
  8
_________1
 62
     7
 10
35.180435000000003
 20
50.381178999999989
 30
0.0
 40
11.44272
 50
350.84079300000002
 51
352.72718200000003
  0
ARC
  5
A52
  8
_________1
 62
     7
 10
27.378605
 20
51.624017000000002
 30
0.0
 40
19.342914
 50
346.39418799999999
 51
350.88490299999989
  0
ARC
  5
A53
  8
_________1
 62
     7
 10
37.315719000000001
 20
49.226865999999987
 30
0.0
 40
9.1207600000000006
 50
342.01136600000001
 51
346.34560299999998
  0
ARC
  5
A54
  8
_________1
 62
     7
 10
43.505029
 20
47.225999999999999
 30
0.0
 40
2.6160860000000001
 50
333.81103400000001
 51
341.82793400000003
  0
ARC
  5
A55
  8
_________1
 62
     7
 10
45.354473999999989
 20
46.323362000000003
 30
0.0
 40
0.5581700000000001
 50
316.79769700000003
 51
333.16994799999998
  0
ARC
  5
A56
  8
_________1
 62
     7
 10
45.661889000000002
 20
46.047469999999997
 30
0.0
 40
0.145514
 50
301.24961000000002
 51
313.11756200000002
  0
ARC
  5
A57
  8
_________1
 62
     7
 10
45.691502999999997
 20
45.980797999999993
 30
0.0
 40
0.073736
 50
290.45454100000001
 51
308.4719740000001
  0
ARC
  5
A58
  8
_________1
 62
     7
 10
45.595933000000002
 20
46.221383000000003
 30
0.0
 40
0.332596
 50
280.70605799999998
 51
291.39668599999999
  0
ARC
  5
A59
  8
_________1
 62
     7
 10
45.377240999999998
 20
47.282316999999999
 30
0.0
 40
1.4158010000000001
 50
275.94964599999997
 51
281.42621099999991
  0
ARC
  5
A5A
  8
_________1
 62
     7
 10
45.001018000000002
 20
50.652547999999989
 30
0.0
 40
4.806938999999999
 50
273.280958
 51
276.24593299999998
  0
ARC
  5
A5B
  8
_________1
 62
     7
 10
44.495845000000003
 20
58.967820999999986
 30
0.0
 40
13.137525
 50
271.66504700000002
 51
273.40501499999999
  0
ARC
  5
A5C
  8
_________1
 62
     7
 10
43.945376000000003
 20
77.140497999999994
 30
0.0
 40
31.318532000000001
 50
270.573891
 51
271.705671
  0
ARC
  5
A5D
  8
_________1
 62
     7
 10
43.574604999999998
 20
112.836005
 30
0.0
 40
67.015962999999999
 50
269.7781470000001
 51
270.5852000000001
  0
ARC
  5
A5E
  8
_________1
 62
     7
 10
43.840127000000003
 20
187.314211
 30
0.0
 40
141.494641
 50
269.24685099999999
 51
269.78741100000002
  0
ARC
  5
A5F
  8
_________1
 62
     7
 10
48.713214999999998
 20
649.148234
 30
0.0
 40
603.35400900000002
 50
269.27298999999999
 51
269.36061699999999
  0
LINE
  5
A60
  8
_________1
 62
     7
 10
41.05749999999999
 20
45.84279999999999
 30
0.0
 11
40.837699999999998
 21
45.923099999999998
 31
0.0
  0
LINE
  5
A61
  8
_________1
 62
     7
 10
40.837699999999998
 20
45.923099999999998
 30
0.0
 11
40.677199999999999
 21
46.102899999999991
 31
0.0
  0
ARC
  5
A62
  8
_________1
 62
     7
 10
51.454999999999998
 20
50.021411999999998
 30
0.0
 40
11.468038999999999
 50
194.59166400000001
 51
199.97985499999999
  0
ARC
  5
A63
  8
_________1
 62
     7
 10
52.36949899999999
 20
50.341066999999988
 30
0.0
 40
12.433823
 50
189.41107099999991
 51
194.95550499999999
  0
ARC
  5
A64
  8
_________1
 62
     7
 10
47.466604999999987
 20
49.494244999999999
 30
0.0
 40
7.458524999999999
 50
184.35826599999999
 51
189.15202099999999
  0
ARC
  5
A65
  8
_________1
 62
     7
 10
44.581270000000004
 20
49.256394999999991
 30
0.0
 40
4.5634949999999987
 50
180.157938
 51
184.13354899999999
  0
LINE
  5
A66
  8
_________1
 62
     7
 10
40.017800000000001
 20
49.2438
 30
0.0
 11
40.017800000000001
 21
50.843400000000003
 31
0.0
  0
ARC
  5
A67
  8
_________1
 62
     7
 10
44.488281000000001
 20
50.840835999999989
 30
0.0
 40
4.4704879999999987
 50
174.37700100000001
 51
179.96731600000001
  0
ARC
  5
A68
  8
_________1
 62
     7
 10
47.659440999999987
 20
50.569133000000001
 30
0.0
 40
7.6531179999999992
 50
169.72259099999999
 51
174.678867
  0
ARC
  5
A69
  8
_________1
 62
     7
 10
52.360926999999997
 20
49.759230000000002
 30
0.0
 40
12.42374
 50
160.124976
 51
169.91583499999999
  0
LINE
  5
A6A
  8
_________1
 62
     7
 10
40.677199999999999
 20
53.982900000000001
 30
0.0
 11
40.837699999999998
 21
54.163800000000002
 31
0.0
  0
LINE
  5
A6B
  8
_________1
 62
     7
 10
40.837699999999998
 20
54.163800000000002
 30
0.0
 11
41.05749999999999
 21
54.243400000000001
 31
0.0
  0
INSERT
  5
A6C
  8
_________1
 62
     7
  2
AIGNBL020100C3
 10
0.0
 20
0.0
 30
0.0
  0
LINE
  5
A6D
  8
_________1
 62
     7
 10
41.493000000000002
 20
112.23
 30
0.0
 11
41.093400000000003
 21
112.23
 31
0.0
  0
LINE
  5
A6E
  8
_________1
 62
     7
 10
43.292700000000004
 20
113.361
 30
0.0
 11
39.292900000000003
 21
113.361
 31
0.0
  0
LINE
  5
A6F
  8
_________1
 62
     7
 10
39.292900000000003
 20
113.361
 30
0.0
 11
39.292900000000003
 21
112.31399999999999
 31
0.0
  0
ARC
  5
A70
  8
_________1
 62
     7
 10
39.481335999999999
 20
112.347182
 30
0.0
 40
0.191309
 50
190.011641
 51
200.96245500000001
  0
ARC
  5
A71
  8
_________1
 62
     7
 10
39.670307000000001
 20
112.413116
 30
0.0
 40
0.391408
 50
200.07898399999999
 51
232.10934700000001
  0
ARC
  5
A72
  8
_________1
 62
     7
 10
39.768754000000001
 20
112.523398
 30
0.0
 40
0.538995
 50
231.050254
 51
249.411967
  0
ARC
  5
A73
  8
_________1
 62
     7
 10
39.871369999999999
 20
112.77847
 30
0.0
 40
0.8138850000000001
 50
248.96378100000001
 51
263.89801199999999
  0
ARC
  5
A74
  8
_________1
 62
     7
 10
39.932600999999998
 20
113.212136
 30
0.0
 40
1.2516899999999991
 50
263.22117300000002
 51
270.20950199999999
  0
LINE
  5
A75
  8
_________1
 62
     7
 10
39.937199999999997
 20
111.95999999999999
 30
0.0
 11
43.292700000000004
 21
111.95999999999999
 31
0.0
  0
LINE
  5
A76
  8
_________1
 62
     7
 10
41.493000000000002
 20
113.361
 30
0.0
 11
41.493000000000002
 21
112.23
 31
0.0
  0
ARC
  5
A77
  8
_________1
 62
     7
 10
41.746797999999991
 20
112.390322
 30
0.0
 40
0.300274
 50
212.30172899999999
 51
221.23228800000001
  0
ARC
  5
A78
  8
_________1
 62
     7
 10
42.013424000000001
 20
112.61423600000001
 30
0.0
 40
0.648415
 50
220.58333500000001
 51
262.06607100000002
  0
ARC
  5
A79
  8
_________1
 62
     7
 10
42.063659000000001
 20
112.80952499999999
 30
0.0
 40
0.849074
 50
260.527491
 51
270.17553800000002
  0
LINE
  5
A7A
  8
_________1
 62
     7
 10
41.093400000000003
 20
113.361
 30
0.0
 11
41.093400000000003
 21
112.23
 31
0.0
  0
ARC
  5
A7B
  8
_________1
 62
     7
 10
40.322753999999989
 20
113.641164
 30
0.0
 40
1.607980999999999
 50
294.71251999999998
 51
298.63562200000013
  0
ARC
  5
A7C
  8
_________1
 62
     7
 10
39.832870999999997
 20
114.62184999999999
 30
0.0
 40
2.7038829999999998
 50
283.57325299999991
 51
295.45477399999999
  0
ARC
  5
A7D
  8
_________1
 62
     7
 10
40.169532999999987
 20
113.31222
 30
0.0
 40
1.351966
 50
270.98630000000003
 51
282.72964300000001
  0
LINE
  5
A7E
  8
_________1
 62
     7
 10
45.0931
 20
112.23
 30
0.0
 11
45.492800000000003
 21
112.23
 31
0.0
  0
LINE
  5
A7F
  8
_________1
 62
     7
 10
43.292700000000004
 20
113.361
 30
0.0
 11
47.293199999999999
 21
113.361
 31
0.0
  0
LINE
  5
A80
  8
_________1
 62
     7
 10
47.293199999999999
 20
113.361
 30
0.0
 11
47.293199999999999
 21
112.31399999999999
 31
0.0
  0
ARC
  5
A81
  8
_________1
 62
     7
 10
47.107565000000001
 20
112.34504099999999
 30
0.0
 40
0.188217
 50
339.37440900000001
 51
350.48358899999999
  0
ARC
  5
A82
  8
_________1
 62
     7
 10
46.918895999999997
 20
112.409218
 30
0.0
 40
0.387453
 50
308.07729399999999
 51
340.32048500000002
  0
ARC
  5
A83
  8
_________1
 62
     7
 10
46.799990000000001
 20
112.546876
 30
0.0
 40
0.569213
 50
282.23337700000002
 51
308.95343400000002
  0
ARC
  5
A84
  8
_________1
 62
     7
 10
46.671196999999992
 20
113.00133
 30
0.0
 40
1.041058
 50
268.927525
 51
283.861133
  0
LINE
  5
A85
  8
_________1
 62
     7
 10
46.651699999999991
 20
111.95999999999999
 30
0.0
 11
43.292700000000004
 21
111.95999999999999
 31
0.0
  0
LINE
  5
A86
  8
_________1
 62
     7
 10
45.0931
 20
113.361
 30
0.0
 11
45.0931
 21
112.23
 31
0.0
  0
ARC
  5
A87
  8
_________1
 62
     7
 10
44.848775999999987
 20
112.38323699999999
 30
0.0
 40
0.288509
 50
318.59085099999999
 51
327.88574199999999
  0
ARC
  5
A88
  8
_________1
 62
     7
 10
44.572716
 20
112.614234
 30
0.0
 40
0.648412
 50
277.93330700000001
 51
319.41668199999998
  0
ARC
  5
A89
  8
_________1
 62
     7
 10
44.522488000000003
 20
112.809352
 30
0.0
 40
0.8489020000000001
 50
269.82350000000002
 51
279.47350999999998
  0
LINE
  5
A8A
  8
_________1
 62
     7
 10
45.492800000000003
 20
113.361
 30
0.0
 11
45.492800000000003
 21
112.23
 31
0.0
  0
ARC
  5
A8B
  8
_________1
 62
     7
 10
46.355207999999998
 20
113.822194
 30
0.0
 40
1.8108880000000001
 50
241.55926299999999
 51
245.22979799999999
  0
ARC
  5
A8C
  8
_________1
 62
     7
 10
46.746509000000003
 20
114.605692
 30
0.0
 40
2.6863830000000002
 50
244.653289
 51
256.69972200000001
  0
ARC
  5
A8D
  8
_________1
 62
     7
 10
46.415632000000002
 20
113.301573
 30
0.0
 40
1.3413040000000001
 50
257.63884900000011
 51
269.047191
  0
LINE
  5
A8E
  8
_________1
 62
     7
 10
46.393300000000004
 20
111.95999999999999
 30
0.0
 11
46.393300000000004
 21
109.56100000000001
 31
0.0
  0
LINE
  5
A8F
  8
_________1
 62
     7
 10
40.192799999999998
 20
111.95999999999999
 30
0.0
 11
40.192799999999998
 21
109.56100000000001
 31
0.0
  0
LINE
  5
A90
  8
_________1
 62
     7
 10
46.5931
 20
109.76000000000001
 30
0.0
 11
39.993000000000002
 21
109.76000000000001
 31
0.0
  0
LINE
  5
A91
  8
_________1
 62
     7
 10
44.5929
 20
86.360100000000003
 30
0.0
 11
44.552900000000001
 21
86.360100000000003
 31
0.0
  0
LINE
  5
A92
  8
_________1
 62
     7
 10
42.033200000000001
 20
86.360100000000003
 30
0.0
 11
41.993200000000002
 21
86.360100000000003
 31
0.0
  0
LINE
  5
A93
  8
_________1
 62
     7
 10
44.993199999999987
 20
89.560299999999998
 30
0.0
 11
44.552900000000001
 21
89.560299999999998
 31
0.0
  0
LINE
  5
A94
  8
_________1
 62
     7
 10
42.033200000000001
 20
89.560299999999998
 30
0.0
 11
41.5929
 21
89.560299999999998
 31
0.0
  0
LINE
  5
A95
  8
_________1
 62
     7
 10
44.993199999999987
 20
92.360100000000003
 30
0.0
 11
44.552900000000001
 21
92.360100000000003
 31
0.0
  0
LINE
  5
A96
  8
_________1
 62
     7
 10
42.033200000000001
 20
92.360100000000003
 30
0.0
 11
41.5929
 21
92.360100000000003
 31
0.0
  0
LINE
  5
A97
  8
_________1
 62
     7
 10
46.5931
 20
109.76000000000001
 30
0.0
 11
46.393300000000004
 21
109.56100000000001
 31
0.0
  0
LINE
  5
A98
  8
_________1
 62
     7
 10
46.393300000000004
 20
109.56100000000001
 30
0.0
 11
40.192799999999998
 21
109.56100000000001
 31
0.0
  0
LINE
  5
A99
  8
_________1
 62
     7
 10
40.192799999999998
 20
109.56100000000001
 30
0.0
 11
39.993000000000002
 21
109.76000000000001
 31
0.0
  0
LINE
  5
A9A
  8
_________1
 62
     7
 10
39.993000000000002
 20
109.76000000000001
 30
0.0
 11
39.993000000000002
 21
111.95999999999999
 31
0.0
  0
LINE
  5
A9B
  8
_________1
 62
     7
 10
39.993000000000002
 20
111.95999999999999
 30
0.0
 11
46.5931
 21
111.95999999999999
 31
0.0
  0
LINE
  5
A9C
  8
_________1
 62
     7
 10
46.5931
 20
111.95999999999999
 30
0.0
 11
46.5931
 21
109.76000000000001
 31
0.0
  0
LINE
  5
A9D
  8
_________1
 62
     7
 10
46.393300000000004
 20
127.56100000000001
 30
0.0
 11
46.393300000000004
 21
119.56100000000001
 31
0.0
  0
LINE
  5
A9E
  8
_________1
 62
     7
 10
40.192799999999998
 20
127.56100000000001
 30
0.0
 11
40.192799999999998
 21
119.56100000000001
 31
0.0
  0
LINE
  5
A9F
  8
_________1
 62
     7
 10
46.5931
 20
119.56100000000001
 30
0.0
 11
39.993000000000002
 21
119.56100000000001
 31
0.0
  0
LINE
  5
AA0
  8
_________1
 62
     7
 10
39.993000000000002
 20
119.56100000000001
 30
0.0
 11
39.993000000000002
 21
127.56100000000001
 31
0.0
  0
LINE
  5
AA1
  8
_________1
 62
     7
 10
39.993000000000002
 20
127.56100000000001
 30
0.0
 11
46.5931
 21
127.56100000000001
 31
0.0
  0
LINE
  5
AA2
  8
_________1
 62
     7
 10
46.5931
 20
127.56100000000001
 30
0.0
 11
46.5931
 21
119.56100000000001
 31
0.0
  0
LINE
  5
AA3
  8
_________1
 62
     7
 10
47.692799999999998
 20
113.361
 30
0.0
 11
38.892600000000002
 21
113.361
 31
0.0
  0
LINE
  5
AA4
  8
_________1
 62
     7
 10
38.892600000000002
 20
113.361
 30
0.0
 11
38.892600000000002
 21
113.861
 31
0.0
  0
LINE
  5
AA5
  8
_________1
 62
     7
 10
38.892600000000002
 20
113.861
 30
0.0
 11
47.692799999999998
 21
113.861
 31
0.0
  0
LINE
  5
AA6
  8
_________1
 62
     7
 10
47.692799999999998
 20
113.861
 30
0.0
 11
47.692799999999998
 21
113.361
 31
0.0
  0
LINE
  5
AA7
  8
_________1
 62
     7
 10
48.093099999999993
 20
113.861
 30
0.0
 11
38.493000000000002
 21
113.861
 31
0.0
  0
LINE
  5
AA8
  8
_________1
 62
     7
 10
38.493000000000002
 20
113.861
 30
0.0
 11
38.493000000000002
 21
114.161
 31
0.0
  0
LINE
  5
AA9
  8
_________1
 62
     7
 10
38.493000000000002
 20
114.161
 30
0.0
 11
48.093099999999993
 21
114.161
 31
0.0
  0
LINE
  5
AAA
  8
_________1
 62
     7
 10
48.093099999999993
 20
114.161
 30
0.0
 11
48.093099999999993
 21
113.861
 31
0.0
  0
LINE
  5
AAB
  8
_________1
 62
     7
 10
48.093099999999993
 20
114.161
 30
0.0
 11
38.493000000000002
 21
114.161
 31
0.0
  0
LINE
  5
AAC
  8
_________1
 62
     7
 10
38.493000000000002
 20
114.161
 30
0.0
 11
38.493000000000002
 21
114.56100000000001
 31
0.0
  0
LINE
  5
AAD
  8
_________1
 62
     7
 10
38.493000000000002
 20
114.56100000000001
 30
0.0
 11
48.093099999999993
 21
114.56100000000001
 31
0.0
  0
LINE
  5
AAE
  8
_________1
 62
     7
 10
48.093099999999993
 20
114.56100000000001
 30
0.0
 11
48.093099999999993
 21
114.161
 31
0.0
  0
LINE
  5
AAF
  8
_________1
  6
AIGENLINE002
 62
     7
 10
45.0931
 20
103.895
 30
0.0
 11
45.0931
 21
129.07900000000001
 31
0.0
  0
LINE
  5
AB0
  8
_________1
 62
     7
 10
102.892
 20
125.349
 30
0.0
 11
102.3
 21
127.56100000000001
 31
0.0
  0
LINE
  5
AB1
  8
_________1
 62
     7
 10
102.3
 20
127.56100000000001
 30
0.0
 11
101.70699999999999
 21
125.349
 31
0.0
  0
LINE
  5
AB2
  8
_________1
 62
     7
 10
101.70699999999999
 20
125.349
 30
0.0
 11
102.892
 21
125.349
 31
0.0
  0
LINE
  5
AB3
  8
_________1
 62
     7
 10
140.91399999999999
 20
111.10899999999999
 30
0.0
 11
147.14099999999999
 21
117.404
 31
0.0
  0
LINE
  5
AB4
  8
_________1
 62
     7
 10
101.70699999999999
 20
40.206200000000003
 30
0.0
 11
102.3
 21
37.994500000000002
 31
0.0
  0
LINE
  5
AB5
  8
_________1
 62
     7
 10
102.3
 20
37.994500000000002
 30
0.0
 11
102.892
 21
40.206200000000003
 31
0.0
  0
LINE
  5
AB6
  8
_________1
 62
     7
 10
102.892
 20
40.206200000000003
 30
0.0
 11
101.70699999999999
 21
40.206200000000003
 31
0.0
  0
LINE
  5
AB7
  8
_________1
 62
     7
 10
102.3
 20
127.56100000000001
 30
0.0
 11
102.3
 21
37.994500000000002
 31
0.0
  0
LINE
  5
AB8
  8
_________1
 62
     7
 10
133.84700000000001
 20
37.994500000000002
 30
0.0
 11
101.59999999999999
 21
37.994500000000002
 31
0.0
  0
INSERT
  5
AB9
  8
_________1
 62
     7
  2
AIGNBL020100C4
 10
0.0
 20
0.0
 30
0.0
  0
INSERT
  5
ABA
  8
_________1
 62
     7
  2
AIGNBL020100C5
 10
0.0
 20
0.0
 30
0.0
  0
LINE
  5
ABB
  8
_________1
 62
     7
 10
169.738
 20
83.560299999999998
 30
0.0
 11
154.37799999999999
 21
83.560299999999998
 31
0.0
  0
LINE
  5
ABC
  8
_________1
  6
AIGENLINE002
 62
     7
 10
149.208
 20
121.785
 30
0.0
 11
149.208
 21
108.447
 31
0.0
  0
LINE
  5
ABD
  8
_________1
  6
AIGENLINE002
 62
     7
 10
151.608
 20
121.59699999999999
 30
0.0
 11
151.608
 21
67.275899999999993
 31
0.0
  0
LINE
  5
ABE
  8
_________1
 62
     7
 10
148.608
 20
112.23
 30
0.0
 11
148.208
 21
112.23
 31
0.0
  0
LINE
  5
ABF
  8
_________1
 62
     7
 10
150.40799999999999
 20
113.361
 30
0.0
 11
146.40799999999999
 21
113.361
 31
0.0
  0
LINE
  5
AC0
  8
_________1
 62
     7
 10
146.40799999999999
 20
113.361
 30
0.0
 11
146.40799999999999
 21
112.31399999999999
 31
0.0
  0
ARC
  5
AC1
  8
_________1
 62
     7
 10
146.59278
 20
112.34615700000001
 30
0.0
 40
0.187392
 50
189.904732
 51
201.08564699999999
  0
ARC
  5
AC2
  8
_________1
 62
     7
 10
146.78540000000001
 20
112.412989
 30
0.0
 40
0.391219
 50
200.06922800000001
 51
232.114486
  0
ARC
  5
AC3
  8
_________1
 62
     7
 10
146.883962
 20
112.52336
 30
0.0
 40
0.5389470000000001
 50
231.05006900000001
 51
249.41393199999999
  0
ARC
  5
AC4
  8
_________1
 62
     7
 10
146.986546
 20
112.778211
 30
0.0
 40
0.81362
 50
248.9614850000001
 51
263.90099199999997
  0
ARC
  5
AC5
  8
_________1
 62
     7
 10
147.04782299999999
 20
113.21171
 30
0.0
 40
1.251263999999999
 50
263.219987
 51
270.21045600000002
  0
LINE
  5
AC6
  8
_________1
 62
     7
 10
147.05199999999999
 20
111.95999999999999
 30
0.0
 11
150.40799999999999
 21
111.95999999999999
 31
0.0
  0
LINE
  5
AC7
  8
_________1
 62
     7
 10
148.608
 20
113.361
 30
0.0
 11
148.608
 21
112.23
 31
0.0
  0
ARC
  5
AC8
  8
_________1
 62
     7
 10
148.85688099999999
 20
112.38746
 30
0.0
 40
0.294967
 50
212.295683
 51
221.39669799999999
  0
ARC
  5
AC9
  8
_________1
 62
     7
 10
149.12958499999999
 20
112.617075
 30
0.0
 40
0.651423
 50
220.68559200000001
 51
261.97734600000001
  0
ARC
  5
ACA
  8
_________1
 62
     7
 10
149.178256
 20
112.80773499999999
 30
0.0
 40
0.8472839999999999
 50
260.51751899999999
 51
270.17289099999999
  0
LINE
  5
ACB
  8
_________1
 62
     7
 10
148.208
 20
113.361
 30
0.0
 11
148.208
 21
112.23
 31
0.0
  0
ARC
  5
ACC
  8
_________1
 62
     7
 10
147.45738900000001
 20
113.60097500000001
 30
0.0
 40
1.563083999999999
 50
294.66019399999999
 51
298.69549599999999
  0
ARC
  5
ACD
  8
_________1
 62
     7
 10
146.94693899999999
 20
114.622201
 30
0.0
 40
2.704415
 50
283.58824299999998
 51
295.46114799999998
  0
ARC
  5
ACE
  8
_________1
 62
     7
 10
147.284696
 20
113.30962100000001
 30
0.0
 40
1.3493679999999999
 50
270.99153200000001
 51
282.74227400000001
  0
LINE
  5
ACF
  8
_________1
 62
     7
 10
152.208
 20
112.23
 30
0.0
 11
152.608
 21
112.23
 31
0.0
  0
LINE
  5
AD0
  8
_________1
 62
     7
 10
150.40799999999999
 20
113.361
 30
0.0
 11
154.40799999999999
 21
113.361
 31
0.0
  0
LINE
  5
AD1
  8
_________1
 62
     7
 10
154.40799999999999
 20
113.361
 30
0.0
 11
154.40799999999999
 21
112.31399999999999
 31
0.0
  0
ARC
  5
AD2
  8
_________1
 62
     7
 10
154.218211
 20
112.345732
 30
0.0
 40
0.192184
 50
338.75468599999999
 51
350.47310900000002
  0
ARC
  5
AD3
  8
_________1
 62
     7
 10
154.032926
 20
112.40963600000001
 30
0.0
 40
0.388107
 50
308.10060399999998
 51
339.87368500000002
  0
ARC
  5
AD4
  8
_________1
 62
     7
 10
153.91445999999999
 20
112.54706400000001
 30
0.0
 40
0.5694150000000001
 50
282.23743899999999
 51
308.94835899999998
  0
ARC
  5
AD5
  8
_________1
 62
     7
 10
153.78574900000001
 20
113.00133
 30
0.0
 40
1.041058
 50
268.927525
 51
283.861133
  0
LINE
  5
AD6
  8
_________1
 62
     7
 10
153.76599999999999
 20
111.95999999999999
 30
0.0
 11
150.40799999999999
 21
111.95999999999999
 31
0.0
  0
LINE
  5
AD7
  8
_________1
 62
     7
 10
152.208
 20
113.361
 30
0.0
 11
152.208
 21
112.23
 31
0.0
  0
ARC
  5
AD8
  8
_________1
 62
     7
 10
151.96332799999999
 20
112.38323699999999
 30
0.0
 40
0.288509
 50
318.59085099999999
 51
327.88574199999999
  0
ARC
  5
AD9
  8
_________1
 62
     7
 10
151.68726799999999
 20
112.614234
 30
0.0
 40
0.648412
 50
277.93330700000001
 51
319.41668199999998
  0
ARC
  5
ADA
  8
_________1
 62
     7
 10
151.63702599999999
 20
112.80952499999999
 30
0.0
 40
0.849074
 50
269.82448199999999
 51
279.47252900000001
  0
LINE
  5
ADB
  8
_________1
 62
     7
 10
152.608
 20
113.361
 30
0.0
 11
152.608
 21
112.23
 31
0.0
  0
ARC
  5
ADC
  8
_________1
 62
     7
 10
153.46234999999999
 20
113.804157
 30
0.0
 40
1.791170999999999
 50
241.512294
 51
245.21955
  0
ARC
  5
ADD
  8
_________1
 62
     7
 10
153.85957999999999
 20
114.598268
 30
0.0
 40
2.678799999999999
 50
244.624785
 51
256.69561499999998
  0
ARC
  5
ADE
  8
_________1
 62
     7
 10
153.53011699999999
 20
113.300299
 30
0.0
 40
1.3400289999999999
 50
257.63313599999998
 51
269.049147
  0
LINE
  5
ADF
  8
_________1
 62
     7
 10
153.5079999999999
 20
111.95999999999999
 30
0.0
 11
153.5079999999999
 21
109.56100000000001
 31
0.0
  0
LINE
  5
AE0
  8
_________1
 62
     7
 10
147.30799999999999
 20
111.95999999999999
 30
0.0
 11
147.30799999999999
 21
109.56100000000001
 31
0.0
  0
LINE
  5
AE1
  8
_________1
 62
     7
 10
153.708
 20
109.76000000000001
 30
0.0
 11
147.108
 21
109.76000000000001
 31
0.0
  0
LINE
  5
AE2
  8
_________1
 62
     7
 10
153.708
 20
109.76000000000001
 30
0.0
 11
153.5079999999999
 21
109.56100000000001
 31
0.0
  0
LINE
  5
AE3
  8
_________1
 62
     7
 10
153.5079999999999
 20
109.56100000000001
 30
0.0
 11
147.30799999999999
 21
109.56100000000001
 31
0.0
  0
LINE
  5
AE4
  8
_________1
 62
     7
 10
147.30799999999999
 20
109.56100000000001
 30
0.0
 11
147.108
 21
109.76000000000001
 31
0.0
  0
LINE
  5
AE5
  8
_________1
 62
     7
 10
147.108
 20
109.76000000000001
 30
0.0
 11
147.108
 21
111.95999999999999
 31
0.0
  0
LINE
  5
AE6
  8
_________1
 62
     7
 10
147.108
 20
111.95999999999999
 30
0.0
 11
153.708
 21
111.95999999999999
 31
0.0
  0
LINE
  5
AE7
  8
_________1
 62
     7
 10
153.708
 20
111.95999999999999
 30
0.0
 11
153.708
 21
109.76000000000001
 31
0.0
  0
LINE
  5
AE8
  8
_________1
 62
     7
 10
153.5079999999999
 20
127.56100000000001
 30
0.0
 11
153.5079999999999
 21
119.56100000000001
 31
0.0
  0
LINE
  5
AE9
  8
_________1
 62
     7
 10
147.30799999999999
 20
127.56100000000001
 30
0.0
 11
147.30799999999999
 21
119.56100000000001
 31
0.0
  0
LINE
  5
AEA
  8
_________1
 62
     7
 10
153.708
 20
119.56100000000001
 30
0.0
 11
147.108
 21
119.56100000000001
 31
0.0
  0
LINE
  5
AEB
  8
_________1
 62
     7
 10
147.108
 20
119.56100000000001
 30
0.0
 11
147.108
 21
127.56100000000001
 31
0.0
  0
LINE
  5
AEC
  8
_________1
 62
     7
 10
147.108
 20
127.56100000000001
 30
0.0
 11
153.708
 21
127.56100000000001
 31
0.0
  0
LINE
  5
AED
  8
_________1
 62
     7
 10
153.708
 20
127.56100000000001
 30
0.0
 11
153.708
 21
119.56100000000001
 31
0.0
  0
LINE
  5
AEE
  8
_________1
 62
     7
 10
154.80799999999999
 20
113.361
 30
0.0
 11
146.00800000000001
 21
113.361
 31
0.0
  0
LINE
  5
AEF
  8
_________1
 62
     7
 10
146.00800000000001
 20
113.361
 30
0.0
 11
146.00800000000001
 21
113.861
 31
0.0
  0
LINE
  5
AF0
  8
_________1
 62
     7
 10
146.00800000000001
 20
113.861
 30
0.0
 11
154.80799999999999
 21
113.861
 31
0.0
  0
LINE
  5
AF1
  8
_________1
 62
     7
 10
154.80799999999999
 20
113.861
 30
0.0
 11
154.80799999999999
 21
113.361
 31
0.0
  0
LINE
  5
AF2
  8
_________1
 62
     7
 10
155.208
 20
113.861
 30
0.0
 11
145.608
 21
113.861
 31
0.0
  0
LINE
  5
AF3
  8
_________1
 62
     7
 10
145.608
 20
113.861
 30
0.0
 11
145.608
 21
114.161
 31
0.0
  0
LINE
  5
AF4
  8
_________1
 62
     7
 10
145.608
 20
114.161
 30
0.0
 11
155.208
 21
114.161
 31
0.0
  0
LINE
  5
AF5
  8
_________1
 62
     7
 10
155.208
 20
114.161
 30
0.0
 11
155.208
 21
113.861
 31
0.0
  0
LINE
  5
AF6
  8
_________1
 62
     7
 10
155.208
 20
114.161
 30
0.0
 11
145.608
 21
114.161
 31
0.0
  0
LINE
  5
AF7
  8
_________1
 62
     7
 10
145.608
 20
114.161
 30
0.0
 11
145.608
 21
114.56100000000001
 31
0.0
  0
LINE
  5
AF8
  8
_________1
 62
     7
 10
145.608
 20
114.56100000000001
 30
0.0
 11
155.208
 21
114.56100000000001
 31
0.0
  0
LINE
  5
AF9
  8
_________1
 62
     7
 10
155.208
 20
114.56100000000001
 30
0.0
 11
155.208
 21
114.161
 31
0.0
  0
INSERT
  5
AFA
  8
_________1
 62
     7
  2
AIGNBL020100C6
 10
0.0
 20
0.0
 30
0.0
  0
LINE
  5
AFB
  8
_________1
 62
     7
 10
143.90799999999999
 20
119.56100000000001
 30
0.0
 11
134.97300000000001
 21
119.56100000000001
 31
0.0
  0
INSERT
  5
AFC
  8
_________1
 62
     7
  2
AIGNBL020100C8
 10
0.0
 20
0.0
 30
0.0
  0
LINE
  5
AFD
  8
_________1
 62
     7
 10
138.23400000000001
 20
223.87899999999999
 30
0.0
 11
144.29599999999999
 21
223.87899999999999
 31
0.0
  0
INSERT
  5
AFE
  8
_________1
 62
     7
  2
AIGNBL020100CA
 10
0.0
 20
0.0
 30
0.0
  0
LINE
  5
AFF
  8
_________1
  6
AIGENLINE002
 62
     7
 10
150.40799999999999
 20
234.93000000000001
 30
0.0
 11
150.40799999999999
 21
224.97300000000001
 31
0.0
  0
ARC
  5
B00
  8
_________1
 62
     7
 10
150.27369200000001
 20
229.856583
 30
0.0
 40
3.636995999999999
 50
2.118552999999999
 51
87.884256000000008
  0
ARC
  5
B01
  8
_________1
 62
     7
 10
150.40787800000001
 20
229.99094600000001
 30
0.0
 40
3.5001540000000002
 50
89.998589999999993
 51
179.99856
  0
ARC
  5
B02
  8
_________1
 62
     7
 10
150.40787599999999
 20
229.991119
 30
0.0
 40
3.500151999999999
 50
180.00142
 51
270.00143000000003
  0
ARC
  5
B03
  8
_________1
 62
     7
 10
150.274304
 20
230.12487100000001
 30
0.0
 40
3.6363620000000001
 50
272.10646400000002
 51
357.89072599999997
  0
LINE
  5
B04
  8
_________1
  6
AIGENLINE002
 62
     7
 10
143.46899999999999
 20
229.99100000000001
 30
0.0
 11
157.185
 21
229.99100000000001
 31
0.0
  0
TEXT
  5
B05
  8
_________2
 62
     7
 10
50.740900000000003
 20
46.497399999999999
 30
0.0
 40
4.2168199999999993
  1
※水受けトレイ（別売）
 41
0.5
  0
TEXT
  5
B06
  8
_________2
 62
     7
 10
50.740900000000003
 20
41.226300000000002
 30
0.0
 40
4.2168199999999993
  1
　が必要です。
 41
0.5
  0
LINE
  5
B07
  8
_________2
 62
     7
 10
143.887
 20
258.911
 30
0.0
 11
143.887
 21
237.911
 31
0.0
  0
LINE
  5
B08
  8
_________2
 62
     7
 10
168.803
 20
258.911
 30
0.0
 11
168.803
 21
237.911
 31
0.0
  0
TEXT
  5
B09
  8
_________2
 62
     7
 10
171.20570733333329
 20
240.06100000000001
 30
0.0
 40
3.3734599999999988
  1
ステンレス
 41
0.5
 72
     1
 11
176.041
 21
240.06100000000001
 31
0.0
  0
TEXT
  5
B0A
  8
_________2
 62
     7
 10
173.11733466666669
 20
247.06100000000001
 30
0.0
 40
3.3734599999999988
  1
クロム
 41
0.5
 72
     1
 11
176.041
 21
247.06100000000001
 31
0.0
  0
TEXT
  5
B0B
  8
_________2
 62
     7
 10
174.24182133333329
 20
254.06200000000001
 30
0.0
 40
3.3734599999999988
  1
仕上
 41
0.5
 72
     1
 11
176.041
 21
254.06200000000001
 31
0.0
  0
TEXT
  5
B0C
  8
_________2
 62
     7
 10
146.84086333333329
 20
240.06100000000001
 30
0.0
 40
3.3734599999999988
  1
KW0151102-700
 41
0.5
 72
     1
 11
156.399
 21
240.06100000000001
 31
0.0
  0
TEXT
  5
B0D
  8
_________2
 62
     7
 10
149.9332016666666
 20
247.06200000000001
 30
0.0
 40
3.3734599999999988
  1
KW0151102
 41
0.5
 72
     1
 11
156.399
 21
247.06200000000001
 31
0.0
  0
TEXT
  5
B0E
  8
_________2
 62
     7
 10
154.5998213333333
 20
254.06200000000001
 30
0.0
 40
3.3734599999999988
  1
品番
 41
0.5
 72
     1
 11
156.399
 21
254.06200000000001
 31
0.0
  0
LINE
  5
B0F
  8
_________2
 62
     7
 10
143.887
 20
237.911
 30
0.0
 11
183.55099999999999
 21
237.911
 31
0.0
  0
LINE
  5
B10
  8
_________2
 62
     7
 10
143.887
 20
244.911
 30
0.0
 11
183.55099999999999
 21
244.911
 31
0.0
  0
LINE
  5
B11
  8
_________2
 62
     7
 10
143.887
 20
251.911
 30
0.0
 11
183.55099999999999
 21
251.911
 31
0.0
  0
TEXT
  5
B12
  8
_________2
 62
     7
 10
24.586400000000001
 20
0.707627
 30
0.0
 40
3.9357000000000002
  1
（社）日本水道協会認証品
 41
0.5
  0
TEXT
  5
B13
  8
_________2
 62
     7
 10
109.179
 20
25.2761
 30
0.0
 40
3.9357000000000002
  1
オノ キッチン用湯混合水栓
 41
0.5
  0
TEXT
  5
B14
  8
_________2
 62
     7
 10
109.179
 20
20.3565
 30
0.0
 40
3.9357000000000002
  1
（スパウト引出しタイプ）
 41
0.5
  0
LINE
  5
B15
  8
_________2
 62
     7
 10
205.30099999999999
 20
127.411
 30
0.0
 11
183.55099999999999
 21
127.411
 31
0.0
  0
LINE
  5
B16
  8
_________2
 62
     7
 10
100.3
 20
-4.0910799999999998
 30
0.0
 11
100.3
 21
-21.071000000000002
 31
0.0
  0
LINE
  5
B17
  8
_________2
 62
     7
 10
100.3
 20
275.93099999999998
 30
0.0
 11
100.3
 21
258.911
 31
0.0
  0
LINE
  5
B18
  8
_________2
 62
     7
 10
17.049199999999999
 20
127.411
 30
0.0
 11
-4.7012099999999988
 21
127.411
 31
0.0
  0
INSERT
  5
B19
  8
_________2
 62
     7
  2
AIGNBL03010002
 10
0.0
 20
0.0
 30
0.0
  0
TEXT
  5
B1A
  8
_________2
 62
     7
 10
104.605
 20
1.6794899999999999
 30
0.0
 40
3.0923400000000001
  1
図番
 41
0.5
  0
LINE
  5
B1B
  8
_________2
 62
     7
 10
103.55
 20
5.9087199999999989
 30
0.0
 11
183.55099999999999
 21
5.9087199999999989
 31
0.0
  0
TEXT
  5
B1C
  8
_________2
 62
     7
 10
104.605
 20
11.6793
 30
0.0
 40
3.0923400000000001
  1
品番
 41
0.5
  0
TEXT
  5
B1D
  8
_________2
 62
     7
 10
104.605
 20
31.8184
 30
0.0
 40
3.0923400000000001
  1
名称
 41
0.5
  0
TEXT
  5
B1E
  8
_________2
 62
     7
 10
91.844758333333345
 20
26.822299999999998
 30
0.0
 40
3.6545800000000002
  1
mm
 41
0.5
 72
     1
 11
93.367500000000007
 21
26.822299999999998
 31
0.0
  0
TEXT
  5
B1F
  8
_________2
 62
     7
 10
85.642899999999983
 20
31.8184
 30
0.0
 40
3.0923400000000001
  1
単位
 41
0.5
  0
TEXT
  5
B20
  8
_________2
 62
     7
 10
85.642899999999983
 20
19.410799999999998
 30
0.0
 40
3.0923400000000001
  1
尺度
 41
0.5
  0
TEXT
  5
B21
  8
_________2
 62
     7
 10
90.548458666666676
 20
13.2182
 30
0.0
 40
3.6545800000000002
  1
1 ： 5
 41
0.5
 72
     1
 11
93.959400000000016
 21
13.2182
 31
0.0
  0
TEXT
  5
B22
  8
_________2
 62
     7
 10
136.66252499999999
 20
9.1082000000000001
 30
0.0
 40
3.9357000000000002
  1
図中の表参照
 41
0.5
 72
     1
 11
143.55000000000001
 21
9.1082000000000001
 31
0.0
  0
TEXT
  5
B23
  8
_________2
 62
     7
 10
136.006575
 20
-0.8926299999999999
 30
0.0
 40
3.9357000000000002
  1
KW0151102
 41
0.5
 72
     1
 11
143.55000000000001
 21
-0.8926299999999999
 31
0.0
  0
TEXT
  5
B24
  8
_________2
 62
     7
 10
39.364090666666669
 20
13.603400000000001
 30
0.0
 40
3.6545800000000002
  1
平井
 41
0.5
 72
     1
 11
41.313200000000002
 21
13.603400000000001
 31
0.0
  0
TEXT
  5
B25
  8
_________2
 62
     7
 10
20.790090666666661
 20
13.603400000000001
 30
0.0
 40
3.6545800000000002
  1
石原
 41
0.5
 72
     1
 11
22.7392
 21
13.603400000000001
 31
0.0
  0
TEXT
  5
B26
  8
_________2
 62
     7
 10
67.785399999999996
 20
13.2182
 30
0.0
 40
3.6545800000000002
  1
17.03.27
 41
0.5
  0
TEXT
  5
B27
  8
_________2
 62
     7
 10
66.592699999999994
 20
19.410799999999998
 30
0.0
 40
3.0923400000000001
  1
日付
 41
0.5
  0
TEXT
  5
B28
  8
_________2
 62
     7
 10
29.638999999999999
 20
19.410799999999998
 30
0.0
 40
3.0923400000000001
  1
検図
 41
0.5
  0
TEXT
  5
B29
  8
_________2
 62
     7
 10
18.020700000000001
 20
5.21143
 30
0.0
 40
3.0923400000000001
  1
備考
 41
0.5
  0
TEXT
  5
B2A
  8
_________2
 62
     7
 10
18.020700000000001
 20
19.410799999999998
 30
0.0
 40
3.0923400000000001
  1
製図
 41
0.5
  0
TEXT
  5
B2B
  8
_________2
 62
     7
 10
23.788165333333339
 20
27.936800000000002
 30
0.0
 40
4.4979399999999989
  1
セラトレーディング株式会社
 41
0.5
 72
     1
 11
41.180199999999999
 21
27.936800000000002
 31
0.0
  0
LINE
  5
B2C
  8
_________2
 62
     7
 10
183.55099999999999
 20
-4.0910799999999998
 30
0.0
 11
17.049199999999999
 21
-4.0910799999999998
 31
0.0
  0
LINE
  5
B2D
  8
_________2
 62
     7
 10
17.049199999999999
 20
-4.0910799999999998
 30
0.0
 11
17.049199999999999
 21
258.911
 31
0.0
  0
LINE
  5
B2E
  8
_________2
 62
     7
 10
17.049199999999999
 20
258.911
 30
0.0
 11
183.55099999999999
 21
258.911
 31
0.0
  0
LINE
  5
B2F
  8
_________2
 62
     7
 10
183.55099999999999
 20
258.911
 30
0.0
 11
183.55099999999999
 21
-4.0910799999999998
 31
0.0
  0
LINE
  5
B30
  8
_________2
 62
     7
 10
65.549599999999998
 20
9.4092999999999982
 30
0.0
 11
65.549599999999998
 21
35.909100000000002
 31
0.0
  0
LINE
  5
B31
  8
_________2
 62
     7
 10
84.549400000000006
 20
9.4092999999999982
 30
0.0
 11
84.549400000000006
 21
35.909100000000002
 31
0.0
  0
LINE
  5
B32
  8
_________2
 62
     7
 10
103.55
 20
-4.0910799999999998
 30
0.0
 11
103.55
 21
35.909100000000002
 31
0.0
  0
LINE
  5
B33
  8
_________2
 62
     7
 10
28.548999999999999
 20
9.4092999999999982
 30
0.0
 11
28.548999999999999
 21
23.409199999999998
 31
0.0
  0
LINE
  5
B34
  8
_________2
 62
     7
 10
17.049199999999999
 20
9.4092999999999982
 30
0.0
 11
103.55
 21
9.4092999999999982
 31
0.0
  0
LINE
  5
B35
  8
_________2
 62
     7
 10
17.049199999999999
 20
23.409199999999998
 30
0.0
 11
103.55
 21
23.409199999999998
 31
0.0
  0
LINE
  5
B36
  8
_________2
 62
     7
 10
103.55
 20
15.9085
 30
0.0
 11
183.55099999999999
 21
15.9085
 31
0.0
  0
LINE
  5
B37
  8
_________2
 62
     7
 10
17.049199999999999
 20
35.909100000000002
 30
0.0
 11
183.55099999999999
 21
35.909100000000002
 31
0.0
  0
ENDSEC
  0
EOF
