  0
SECTION
  2
HEADER
  9
$ACADVER
  1
AC1009
  9
$INSBASE
 10
0.0
 20
0.0
 30
0.0
  9
$EXTMIN
 10
-4.70052
 20
-21.071400000000001
 30
0.0
  9
$EXTMAX
 10
205.30099999999999
 20
275.93099999999998
 30
0.0
  9
$LIMMIN
 10
0.0
 20
0.0
  9
$LIMMAX
 10
12.0
 20
9.0
  9
$ORTHOMODE
 70
     0
  9
$REGENMODE
 70
     1
  9
$FILLMODE
 70
     1
  9
$QTEXTMODE
 70
     0
  9
$MIRRTEXT
 70
     1
  9
$DRAGMODE
 70
     2
  9
$LTSCALE
 40
1.0
  9
$OSMODE
 70
    37
  9
$ATTMODE
 70
     1
  9
$TEXTSIZE
 40
0.0
  9
$TRACEWID
 40
0.05
  9
$TEXTSTYLE
  7
STANDARD
  9
$CLAYER
  8
0
  9
$CELTYPE
  6
CONTINUOUS
  9
$CECOLOR
 62
   256
  9
$DIMSCALE
 40
1.0
  9
$DIMASZ
 40
0.18
  9
$DIMEXO
 40
0.0625
  9
$DIMDLI
 40
0.38
  9
$DIMRND
 40
0.0
  9
$DIMDLE
 40
0.0
  9
$DIMEXE
 40
0.18
  9
$DIMTP
 40
0.0
  9
$DIMTM
 40
0.0
  9
$DIMTXT
 40
0.18
  9
$DIMCEN
 40
0.09
  9
$DIMTSZ
 40
0.0
  9
$DIMTOL
 70
     0
  9
$DIMLIM
 70
     0
  9
$DIMTIH
 70
     1
  9
$DIMTOH
 70
     1
  9
$DIMSE1
 70
     0
  9
$DIMSE2
 70
     0
  9
$DIMTAD
 70
     0
  9
$DIMZIN
 70
     0
  9
$DIMBLK
  1

  9
$DIMASO
 70
     1
  9
$DIMSHO
 70
     1
  9
$DIMPOST
  1

  9
$DIMAPOST
  1

  9
$DIMALT
 70
     0
  9
$DIMALTD
 70
     2
  9
$DIMALTF
 40
25.399999999999999
  9
$DIMLFAC
 40
1.0
  9
$DIMTOFL
 70
     0
  9
$DIMTVP
 40
0.0
  9
$DIMTIX
 70
     0
  9
$DIMSOXD
 70
     0
  9
$DIMSAH
 70
     0
  9
$DIMBLK1
  1

  9
$DIMBLK2
  1

  9
$DIMSTYLE
  2
STANDARD
  9
$DIMCLRD
 70
     0
  9
$DIMCLRE
 70
     0
  9
$DIMCLRT
 70
     0
  9
$DIMTFAC
 40
1.0
  9
$DIMGAP
 40
0.09
  9
$LUNITS
 70
     2
  9
$LUPREC
 70
     4
  9
$SKETCHINC
 40
0.1
  9
$FILLETRAD
 40
0.0
  9
$AUNITS
 70
     0
  9
$AUPREC
 70
     0
  9
$MENU
  1
.
  9
$ELEVATION
 40
0.0
  9
$PELEVATION
 40
0.0
  9
$THICKNESS
 40
0.0
  9
$LIMCHECK
 70
     0
  9
$BLIPMODE
 70
     0
  9
$CHAMFERA
 40
0.0
  9
$CHAMFERB
 40
0.0
  9
$SKPOLY
 70
     0
  9
$TDCREATE
 40
2444972.375
  9
$TDUPDATE
 40
2457892.2473548609
  9
$TDINDWG
 40
0.0000332755
  9
$TDUSRTIMER
 40
0.0000332755
  9
$USRTIMER
 70
     1
  9
$ANGBASE
 50
0.0
  9
$ANGDIR
 70
     0
  9
$PDMODE
 70
     0
  9
$PDSIZE
 40
0.0
  9
$PLINEWID
 40
0.0
  9
$COORDS
 70
     1
  9
$SPLFRAME
 70
     0
  9
$SPLINETYPE
 70
     6
  9
$SPLINESEGS
 70
     8
  9
$ATTDIA
 70
     1
  9
$ATTREQ
 70
     1
  9
$HANDLING
 70
     1
  9
$HANDSEED
  5
4D8
  9
$SURFTAB1
 70
     6
  9
$SURFTAB2
 70
     6
  9
$SURFTYPE
 70
     6
  9
$SURFU
 70
     6
  9
$SURFV
 70
     6
  9
$UCSNAME
  2

  9
$UCSORG
 10
0.0
 20
0.0
 30
0.0
  9
$UCSXDIR
 10
1.0
 20
0.0
 30
0.0
  9
$UCSYDIR
 10
0.0
 20
1.0
 30
0.0
  9
$PUCSNAME
  2

  9
$PUCSORG
 10
0.0
 20
0.0
 30
0.0
  9
$PUCSXDIR
 10
1.0
 20
0.0
 30
0.0
  9
$PUCSYDIR
 10
0.0
 20
1.0
 30
0.0
  9
$USERI1
 70
     0
  9
$USERI2
 70
     0
  9
$USERI3
 70
     0
  9
$USERI4
 70
     0
  9
$USERI5
 70
     0
  9
$USERR1
 40
0.0
  9
$USERR2
 40
0.0
  9
$USERR3
 40
0.0
  9
$USERR4
 40
0.0
  9
$USERR5
 40
0.0
  9
$WORLDVIEW
 70
     1
  9
$SHADEDGE
 70
     3
  9
$SHADEDIF
 70
    70
  9
$TILEMODE
 70
     1
  9
$MAXACTVP
 70
    48
  9
$PLIMCHECK
 70
     0
  9
$PEXTMIN
 10
1.0000000000000000E+020
 20
1.0000000000000000E+020
 30
1.0000000000000000E+020
  9
$PEXTMAX
 10
-1.0000000000000000E+020
 20
-1.0000000000000000E+020
 30
-1.0000000000000000E+020
  9
$PLIMMIN
 10
0.0
 20
0.0
  9
$PLIMMAX
 10
12.0
 20
9.0
  9
$UNITMODE
 70
     0
  9
$VISRETAIN
 70
     1
  9
$PLINEGEN
 70
     0
  9
$PSLTSCALE
 70
     1
  0
ENDSEC
  0
SECTION
  2
TABLES
  0
TABLE
  2
VPORT
 70
     1
  0
VPORT
  2
*ACTIVE
 70
     0
 10
0.0
 20
0.0
 11
1.0
 21
1.0
 12
226.67893394973211
 22
127.4298
 13
0.0
 23
0.0
 14
1.0
 24
1.0
 15
0.0
 25
0.0
 16
0.0
 26
0.0
 36
1.0
 17
0.0
 27
0.0
 37
0.0
 40
272.82219812461602
 41
1.479591836734693
 42
50.0
 43
0.0
 44
0.0
 50
0.0
 51
0.0
 71
     0
 72
   100
 73
     1
 74
     1
 75
     0
 76
     0
 77
     0
 78
     0
  0
ENDTAB
  0
TABLE
  2
LTYPE
 70
     2
  0
LTYPE
  2
CONTINUOUS
 70
     0
  3
Solid line
 72
    65
 73
     0
 40
0.0
  0
LTYPE
  2
AIGENLINE001
 70
     0
  3
generate AI->DXF Converter
 72
    65
 73
     4
 40
5.8561449999999988
 49
3.5278
 49
-0.776115
 49
0.776115
 49
-0.776115
  0
ENDTAB
  0
TABLE
  2
LAYER
 70
     2
  0
LAYER
  2
0
 70
     0
 62
     7
  6
CONTINUOUS
  0
LAYER
  2
_________2
 70
     0
 62
     7
  6
CONTINUOUS
  0
ENDTAB
  0
TABLE
  2
STYLE
 70
     1
  0
STYLE
  2
STANDARD
 70
     0
 40
0.0
 41
0.0
 50
0.0
 71
     0
 42
0.0
  3
TXT
  4
EXTFONT.SHX
  0
ENDTAB
  0
TABLE
  2
VIEW
 70
     0
  0
ENDTAB
  0
TABLE
  2
UCS
 70
     0
  0
ENDTAB
  0
TABLE
  2
APPID
 70
     3
  0
APPID
  2
ACAD
 70
     0
  0
APPID
  2
ACAD_NAV_VCDISPLAY
 70
     0
  0
APPID
  2
ACAD_MLEADERVER
 70
     0
  0
ENDTAB
  0
TABLE
  2
DIMSTYLE
 70
     1
  0
DIMSTYLE
  2
STANDARD
 70
     0
  3

  4

  5

  6

  7

 40
1.0
 41
0.18
 42
0.0625
 43
0.38
 44
0.18
 45
0.0
 46
0.0
 47
0.0
 48
0.0
140
0.18
141
0.09
142
0.0
143
25.399999999999999
144
1.0
145
0.0
146
1.0
147
0.09
 71
     0
 72
     0
 73
     1
 74
     1
 75
     0
 76
     0
 77
     0
 78
     0
170
     0
171
     2
172
     0
173
     0
174
     0
175
     0
176
     0
177
     0
178
     0
  0
ENDTAB
  0
ENDSEC
  0
SECTION
  2
BLOCKS
  0
BLOCK
  8
0
  2
$MODEL_SPACE
 70
     0
 10
0.0
 20
0.0
 30
0.0
  3
$MODEL_SPACE
  1

  0
ENDBLK
  5
1A
  8
0
  0
BLOCK
 67
     1
  8
0
  2
$PAPER_SPACE
 70
     0
 10
0.0
 20
0.0
 30
0.0
  3
$PAPER_SPACE
  1

  0
ENDBLK
  5
17
 67
     1
  8
0
  0
ENDSEC
  0
SECTION
  2
ENTITIES
  0
TEXT
  5
22
  8
0
 62
     7
 10
111.614024
 20
167.393
 30
0.0
 40
3.0923400000000001
  1
サーモスタットハンドル
 41
0.5
 72
     2
 11
131.405
 21
167.393
 31
0.0
  0
TEXT
  5
23
  8
0
 62
     7
 10
40.240543999999993
 20
167.393
 30
0.0
 40
3.0923400000000001
  1
切替ハンドル
 41
0.5
 72
     2
 11
50.7545
 21
167.393
 31
0.0
  0
TEXT
  5
24
  8
0
 62
     7
 10
39.83550000000001
 20
215.649
 30
0.0
 40
3.0923400000000001
  1
PJ 1/2
 41
0.5
  0
TEXT
  5
25
  8
0
 62
     7
 10
64.874924499999992
 20
222.52000000000001
 30
0.0
 40
3.0923400000000001
  1
150\U+00B115（取付芯）
 41
0.5
 72
     1
 11
72.837699999999998
 21
222.52000000000001
 31
0.0
  0
TEXT
  5
26
  8
0
 62
     7
 10
146.05113499999999
 20
78.169700000000006
 30
0.0
 40
3.0923400000000001
  1
192
 41
0.5
 72
     1
 11
147.85499999999999
 21
78.169700000000006
 31
0.0
  0
TEXT
  5
27
  8
0
 62
     7
 10
70.776440000000008
 20
78.169700000000006
 30
0.0
 40
3.0923400000000001
  1
296
 41
0.5
 72
     1
 11
72.838000000000008
 21
78.169700000000006
 31
0.0
  0
TEXT
  5
28
  8
0
 62
     7
 10
79.193297999999984
 20
86.784899999999993
 30
0.0
 40
3.0923400000000001
  1
G 1/2
 41
0.5
 72
     2
 11
85.274900000000002
 21
86.784899999999993
 31
0.0
  0
TEXT
  5
29
  8
0
 62
     7
 10
71.162982500000012
 20
125.27200000000001
 30
0.0
 40
3.0923400000000001
  1
150
 41
0.5
 72
     1
 11
72.838000000000008
 21
125.27200000000001
 31
0.0
  0
TEXT
  5
2A
  8
0
 62
     7
 10
26.175000000000001
 20
110.63052500000001
 30
0.0
 40
3.0923400000000001
  1
37
 50
90.0
 41
0.5
 72
     1
 11
26.175000000000001
 21
111.919
 31
0.0
  0
TEXT
  5
2B
  8
0
 62
     7
 10
26.175000000000001
 20
101.13337249999999
 30
0.0
 40
3.0923400000000001
  1
40
 50
90.0
 41
0.5
 72
     1
 11
26.175000000000001
 21
102.29300000000001
 31
0.0
  0
TEXT
  5
2C
  8
0
 62
     7
 10
157.404653
 20
86.784899999999993
 30
0.0
 40
3.0923400000000001
  1
78～84
 41
0.5
 72
     1
 11
161.167
 21
86.784899999999993
 31
0.0
  0
LINE
  5
2D
  8
0
 62
     7
 10
101.80800000000001
 20
166.6929999999999
 30
0.0
 11
131.405
 21
166.6929999999999
 31
0.0
  0
LINE
  5
2E
  8
0
 62
     7
 10
106.175
 20
175.84999999999999
 30
0.0
 11
106.45999999999999
 21
178.12200000000001
 31
0.0
  0
LINE
  5
2F
  8
0
 62
     7
 10
106.45999999999999
 20
178.12200000000001
 30
0.0
 11
105.077
 21
176.29599999999999
 31
0.0
  0
LINE
  5
30
  8
0
 62
     7
 10
105.077
 20
176.29599999999999
 30
0.0
 11
106.175
 21
175.84999999999999
 31
0.0
  0
LINE
  5
31
  8
0
 62
     7
 10
106.45999999999999
 20
178.12200000000001
 30
0.0
 11
101.80800000000001
 21
166.6929999999999
 31
0.0
  0
LINE
  5
32
  8
0
 62
     7
 10
33.0321
 20
166.6929999999999
 30
0.0
 11
50.7545
 21
166.6929999999999
 31
0.0
  0
LINE
  5
33
  8
0
 62
     7
 10
155.333
 20
104.209
 30
0.0
 11
156.393
 21
103.148
 31
0.0
  0
LINE
  5
34
  8
0
 62
     7
 10
156.393
 20
103.148
 30
0.0
 11
154.625
 21
101.38
 31
0.0
  0
LINE
  5
35
  8
0
 62
     7
 10
154.625
 20
101.38
 30
0.0
 11
153.565
 21
102.441
 31
0.0
  0
LINE
  5
36
  8
0
  6
AIGENLINE001
 62
     7
 10
150.47999999999999
 20
107.29300000000001
 30
0.0
 11
156.43000000000001
 21
101.34399999999999
 31
0.0
  0
ARC
  5
37
  8
0
 62
     7
 10
150.47996599999999
 20
107.29335399999999
 30
0.0
 40
1.187532
 50
270.00002000000001
 51
359.99999000000003
  0
ARC
  5
38
  8
0
 62
     7
 10
150.47996599999999
 20
107.29335399999999
 30
0.0
 40
1.187532
 50
179.99996999999999
 51
270.00002000000001
  0
ARC
  5
39
  8
0
 62
     7
 10
150.47996599999999
 20
107.29335399999999
 30
0.0
 40
1.187532
 50
90.0
 51
179.99996999999999
  0
ARC
  5
3A
  8
0
 62
     7
 10
150.47996599999999
 20
107.29335399999999
 30
0.0
 40
1.187532
 50
0.00001
 51
89.999980000000008
  0
LINE
  5
3B
  8
0
 62
     7
 10
57.049399999999999
 20
215.541
 30
0.0
 11
54.837699999999991
 21
214.94900000000001
 31
0.0
  0
LINE
  5
3C
  8
0
 62
     7
 10
54.837699999999991
 20
214.94900000000001
 30
0.0
 11
57.049399999999999
 21
214.35599999999999
 31
0.0
  0
LINE
  5
3D
  8
0
 62
     7
 10
57.049399999999999
 20
214.35599999999999
 30
0.0
 11
57.049399999999999
 21
215.541
 31
0.0
  0
LINE
  5
3E
  8
0
 62
     7
 10
47.37619999999999
 20
214.35599999999999
 30
0.0
 11
49.588000000000001
 21
214.94900000000001
 31
0.0
  0
LINE
  5
3F
  8
0
 62
     7
 10
49.588000000000001
 20
214.94900000000001
 30
0.0
 11
47.37619999999999
 21
215.542
 31
0.0
  0
LINE
  5
40
  8
0
 62
     7
 10
47.37619999999999
 20
215.542
 30
0.0
 11
47.37619999999999
 21
214.35599999999999
 31
0.0
  0
LINE
  5
41
  8
0
 62
     7
 10
39.83550000000001
 20
214.94900000000001
 30
0.0
 11
58.5505
 21
214.94900000000001
 31
0.0
  0
LINE
  5
42
  8
0
 62
     7
 10
91.252499999999984
 20
221.23500000000001
 30
0.0
 11
93.462900000000005
 21
221.827
 31
0.0
  0
LINE
  5
43
  8
0
 62
     7
 10
93.462900000000005
 20
221.827
 30
0.0
 11
91.252499999999984
 21
222.41900000000001
 31
0.0
  0
LINE
  5
44
  8
0
 62
     7
 10
91.252499999999984
 20
222.41900000000001
 30
0.0
 11
91.252499999999984
 21
221.23500000000001
 31
0.0
  0
LINE
  5
45
  8
0
 62
     7
 10
54.422899999999991
 20
222.405
 30
0.0
 11
52.212499999999999
 21
221.81200000000001
 31
0.0
  0
LINE
  5
46
  8
0
 62
     7
 10
52.212499999999999
 20
221.81200000000001
 30
0.0
 11
54.422899999999991
 21
221.22
 31
0.0
  0
LINE
  5
47
  8
0
 62
     7
 10
54.422899999999991
 20
221.22
 30
0.0
 11
54.422899999999991
 21
222.405
 31
0.0
  0
LINE
  5
48
  8
0
 62
     7
 10
93.462900000000005
 20
221.81999999999999
 30
0.0
 11
52.212499999999999
 21
221.81999999999999
 31
0.0
  0
LINE
  5
49
  8
0
 62
     7
 10
93.462900000000005
 20
222.52000000000001
 30
0.0
 11
93.462900000000005
 21
210.60900000000001
 31
0.0
  0
LINE
  5
4A
  8
0
 62
     7
 10
52.212499999999999
 20
222.52000000000001
 30
0.0
 11
52.212499999999999
 21
210.60900000000001
 31
0.0
  0
LINE
  5
4B
  8
0
 62
     7
 10
49.588000000000001
 20
208.50200000000001
 30
0.0
 11
49.837400000000002
 21
208.75200000000001
 31
0.0
  0
LINE
  5
4C
  8
0
 62
     7
 10
49.588000000000001
 20
209.45699999999999
 30
0.0
 11
49.588000000000001
 21
215.649
 31
0.0
  0
LINE
  5
4D
  8
0
 62
     7
 10
54.837699999999991
 20
209.45699999999999
 30
0.0
 11
54.837699999999991
 21
215.649
 31
0.0
  0
LINE
  5
4E
  8
0
 62
     7
 10
49.588000000000001
 20
205.24700000000001
 30
0.0
 11
49.588000000000001
 21
208.50200000000001
 31
0.0
  0
LINE
  5
4F
  8
0
 62
     7
 10
54.837699999999991
 20
208.50200000000001
 30
0.0
 11
49.588000000000001
 21
208.50200000000001
 31
0.0
  0
LINE
  5
50
  8
0
 62
     7
 10
54.587499999999999
 20
208.75200000000001
 30
0.0
 11
49.837400000000002
 21
208.75200000000001
 31
0.0
  0
LINE
  5
51
  8
0
 62
     7
 10
49.837400000000002
 20
205.24700000000001
 30
0.0
 11
49.837400000000002
 21
208.75200000000001
 31
0.0
  0
LINE
  5
52
  8
0
 62
     7
 10
54.587499999999999
 20
205.24700000000001
 30
0.0
 11
54.587499999999999
 21
208.75200000000001
 31
0.0
  0
LINE
  5
53
  8
0
 62
     7
 10
54.837699999999991
 20
205.24700000000001
 30
0.0
 11
54.837699999999991
 21
208.50200000000001
 31
0.0
  0
LINE
  5
54
  8
0
 62
     7
 10
54.837699999999991
 20
208.50200000000001
 30
0.0
 11
54.587499999999999
 21
208.75200000000001
 31
0.0
  0
LINE
  5
55
  8
0
 62
     7
 10
90.837800000000001
 20
208.50200000000001
 30
0.0
 11
91.087900000000005
 21
208.75200000000001
 31
0.0
  0
LINE
  5
56
  8
0
 62
     7
 10
90.837800000000001
 20
205.24700000000001
 30
0.0
 11
90.837800000000001
 21
208.50200000000001
 31
0.0
  0
LINE
  5
57
  8
0
 62
     7
 10
96.088099999999997
 20
208.50200000000001
 30
0.0
 11
90.837800000000001
 21
208.50200000000001
 31
0.0
  0
LINE
  5
58
  8
0
 62
     7
 10
95.837999999999994
 20
208.75200000000001
 30
0.0
 11
91.087900000000005
 21
208.75200000000001
 31
0.0
  0
LINE
  5
59
  8
0
 62
     7
 10
91.087900000000005
 20
205.24700000000001
 30
0.0
 11
91.087900000000005
 21
208.75200000000001
 31
0.0
  0
LINE
  5
5A
  8
0
 62
     7
 10
95.837999999999994
 20
205.24700000000001
 30
0.0
 11
95.837999999999994
 21
208.75200000000001
 31
0.0
  0
LINE
  5
5B
  8
0
 62
     7
 10
96.088099999999997
 20
205.24700000000001
 30
0.0
 11
96.088099999999997
 21
208.50200000000001
 31
0.0
  0
LINE
  5
5C
  8
0
 62
     7
 10
96.088099999999997
 20
208.50200000000001
 30
0.0
 11
95.837999999999994
 21
208.75200000000001
 31
0.0
  0
LINE
  5
5D
  8
0
  6
AIGENLINE001
 62
     7
 10
52.212499999999999
 20
203.82599999999999
 30
0.0
 11
52.212499999999999
 21
209.90899999999999
 31
0.0
  0
LINE
  5
5E
  8
0
  6
AIGENLINE001
 62
     7
 10
93.462900000000005
 20
203.82599999999999
 30
0.0
 11
93.462900000000005
 21
209.90899999999999
 31
0.0
  0
LINE
  5
5F
  8
0
  6
AIGENLINE001
 62
     7
 10
91.588099999999997
 20
97.324200000000005
 30
0.0
 11
91.588099999999997
 21
117.137
 31
0.0
  0
LINE
  5
60
  8
0
  6
AIGENLINE001
 62
     7
 10
54.088000000000001
 20
97.324200000000005
 30
0.0
 11
54.088000000000001
 21
117.137
 31
0.0
  0
LINE
  5
61
  8
0
  6
AIGENLINE001
 62
     7
 10
91.588099999999997
 20
185.80000000000001
 30
0.0
 11
91.588099999999997
 21
207.363
 31
0.0
  0
LINE
  5
62
  8
0
  6
AIGENLINE001
 62
     7
 10
72.838000000000008
 20
94.924700000000001
 30
0.0
 11
72.838000000000008
 21
116.48699999999999
 31
0.0
  0
LINE
  5
63
  8
0
  6
AIGENLINE001
 62
     7
 10
54.088000000000001
 20
185.80000000000001
 30
0.0
 11
54.088000000000001
 21
207.363
 31
0.0
  0
ARC
  5
64
  8
0
 62
     7
 10
76.585257999999996
 20
178.96589
 30
0.0
 40
0.252916
 50
0.084522
 51
16.710080999999999
  0
ARC
  5
65
  8
0
 62
     7
 10
76.526811999999993
 20
178.95279099999999
 30
0.0
 40
0.312688
 50
15.929584999999999
 51
30.532810999999999
  0
ARC
  5
66
  8
0
 62
     7
 10
76.405855000000003
 20
178.88465199999999
 30
0.0
 40
0.451498
 50
30.182651
 51
41.41214699999999
  0
ARC
  5
67
  8
0
 62
     7
 10
76.332114000000004
 20
178.82187300000001
 30
0.0
 40
0.5483310000000001
 50
41.235018999999987
 51
51.586852
  0
ARC
  5
68
  8
0
 62
     7
 10
76.260018000000002
 20
178.745328
 30
0.0
 40
0.653165
 50
50.803381000000009
 51
70.970039999999997
  0
ARC
  5
69
  8
0
 62
     7
 10
76.220738999999995
 20
178.669512
 30
0.0
 40
0.737748
 50
70.006062999999997
 51
80.072149999999993
  0
ARC
  5
6A
  8
0
 62
     7
 10
76.211045999999996
 20
178.62543600000001
 30
0.0
 40
0.7828380000000001
 50
79.929478000000003
 51
89.840213000000006
  0
ARC
  5
6B
  8
0
 62
     7
 10
69.464283999999992
 20
178.63783100000001
 30
0.0
 40
0.770441
 50
90.079823999999988
 51
100.150445
  0
ARC
  5
6C
  8
0
 62
     7
 10
69.461791000000005
 20
178.64405199999999
 30
0.0
 40
0.76388
 50
100.048632
 51
109.794584
  0
ARC
  5
6D
  8
0
 62
     7
 10
69.438609999999997
 20
178.70486500000001
 30
0.0
 40
0.6988100000000002
 50
109.694784
 51
128.531756
  0
ARC
  5
6E
  8
0
 62
     7
 10
69.390225999999998
 20
178.77560800000001
 30
0.0
 40
0.613362
 50
129.112751
 51
138.34116
  0
ARC
  5
6F
  8
0
 62
     7
 10
69.257063000000002
 20
178.89440300000001
 30
0.0
 40
0.434911
 50
138.372972
 51
150.03219000000001
  0
ARC
  5
70
  8
0
 62
     7
 10
69.164216999999994
 20
178.946528
 30
0.0
 40
0.328443
 50
149.81918899999999
 51
163.71837600000001
  0
ARC
  5
71
  8
0
 62
     7
 10
69.108560999999995
 20
178.96203600000001
 30
0.0
 40
0.270672
 50
163.56642199999999
 51
179.10526899999999
  0
ARC
  5
72
  8
0
 62
     7
 10
65.853880000000004
 20
210.870204
 30
0.0
 40
26.656559000000001
 50
232.856188
 51
233.799744
  0
ARC
  5
73
  8
0
 62
     7
 10
61.033389999999997
 20
204.28617399999999
 30
0.0
 40
18.496499
 50
233.80389700000001
 51
235.35056499999999
  0
ARC
  5
74
  8
0
 62
     7
 10
60.068992999999999
 20
202.89761799999999
 30
0.0
 40
16.805899
 50
235.363823
 51
237.51622800000001
  0
ARC
  5
75
  8
0
 62
     7
 10
56.997135
 20
198.08701600000001
 30
0.0
 40
11.098174
 50
237.55577099999999
 51
241.32390799999999
  0
ARC
  5
76
  8
0
 62
     7
 10
55.905650000000001
 20
196.14563999999999
 30
0.0
 40
8.8711960000000012
 50
241.49200200000001
 51
244.02984699999999
  0
ARC
  5
77
  8
0
 62
     7
 10
55.042906999999992
 20
194.37330700000001
 30
0.0
 40
6.9000309999999994
 50
244.02582000000001
 51
247.42187200000001
  0
ARC
  5
78
  8
0
 62
     7
 10
54.870265000000003
 20
194.05048099999999
 30
0.0
 40
6.5357599999999989
 50
247.73276899999999
 51
251.439348
  0
ARC
  5
79
  8
0
 62
     7
 10
54.300362999999997
 20
192.45017999999999
 30
0.0
 40
4.8373879999999989
 50
251.80498499999999
 51
256.94211100000001
  0
ARC
  5
7A
  8
0
 62
     7
 10
54.129528999999998
 20
191.726238
 30
0.0
 40
4.0935689999999996
 50
256.98202500000002
 51
263.16770700000001
  0
ARC
  5
7B
  8
0
 62
     7
 10
54.098064000000001
 20
191.50731999999999
 30
0.0
 40
3.872466999999999
 50
263.244621
 51
269.85105099999998
  0
ARC
  5
7C
  8
0
 62
     7
 10
54.089672
 20
191.31834599999999
 30
0.0
 40
3.6834799999999999
 50
269.973949
 51
276.925096
  0
ARC
  5
7D
  8
0
 62
     7
 10
54.056181000000002
 20
191.67267100000001
 30
0.0
 40
4.0392689999999991
 50
276.79069399999997
 51
283.05961400000001
  0
ARC
  5
7E
  8
0
 62
     7
 10
53.981475000000003
 20
192.068849
 30
0.0
 40
4.442111999999999
 50
282.84358900000001
 51
288.43390000000011
  0
ARC
  5
7F
  8
0
 62
     7
 10
53.667319999999989
 20
193.07891499999999
 30
0.0
 40
5.4997309999999988
 50
288.21139499999998
 51
292.61652800000002
  0
ARC
  5
80
  8
0
 62
     7
 10
53.195906000000008
 20
194.23402100000001
 30
0.0
 40
6.7473029999999987
 50
292.53970099999998
 51
296.01264700000002
  0
ARC
  5
81
  8
0
 62
     7
 10
52.719347999999997
 20
195.280687
 30
0.0
 40
7.8970029999999989
 50
295.78951599999999
 51
298.64272099999999
  0
ARC
  5
82
  8
0
 62
     7
 10
51.352899000000001
 20
197.78747799999999
 30
0.0
 40
10.75203
 50
298.62998299999998
 51
302.51789400000001
  0
ARC
  5
83
  8
0
 62
     7
 10
48.381050000000002
 20
202.493673
 30
0.0
 40
16.317978
 50
302.43382700000001
 51
304.65160800000001
  0
ARC
  5
84
  8
0
 62
     7
 10
46.118864000000002
 20
205.71176399999999
 30
0.0
 40
20.251528
 50
304.739801
 51
306.15163200000001
  0
ARC
  5
85
  8
0
 62
     7
 10
42.905883000000003
 20
210.086217
 30
0.0
 40
25.679136
 50
306.18231800000001
 51
307.161789
  0
ARC
  5
86
  8
0
 62
     7
 10
103.353982
 20
210.870204
 30
0.0
 40
26.656559000000001
 50
232.856188
 51
233.799744
  0
ARC
  5
87
  8
0
 62
     7
 10
98.533490999999998
 20
204.28617399999999
 30
0.0
 40
18.496499
 50
233.80389700000001
 51
235.35056499999999
  0
ARC
  5
88
  8
0
 62
     7
 10
98.230958000000001
 20
203.89531299999999
 30
0.0
 40
18.002973000000001
 50
235.43539000000001
 51
237.444661
  0
ARC
  5
89
  8
0
 62
     7
 10
94.677588999999983
 20
198.39246
 30
0.0
 40
11.452704000000001
 50
237.614114
 51
241.26556500000001
  0
ARC
  5
8A
  8
0
 62
     7
 10
93.405752000000007
 20
196.14563999999999
 30
0.0
 40
8.8711960000000012
 50
241.49200200000001
 51
244.02984699999999
  0
ARC
  5
8B
  8
0
 62
     7
 10
92.510196999999977
 20
194.30591799999999
 30
0.0
 40
6.8250789999999988
 50
244.025679
 51
247.46167399999999
  0
ARC
  5
8C
  8
0
 62
     7
 10
92.347031000000001
 20
193.98204999999999
 30
0.0
 40
6.4634599999999987
 50
247.69716399999999
 51
251.44235499999999
  0
ARC
  5
8D
  8
0
 62
     7
 10
91.800464000000005
 20
192.45017999999999
 30
0.0
 40
4.8373879999999989
 50
251.80498499999999
 51
256.94211100000001
  0
ARC
  5
8E
  8
0
 62
     7
 10
91.629631000000003
 20
191.726238
 30
0.0
 40
4.0935689999999996
 50
256.98202500000002
 51
263.16770700000001
  0
ARC
  5
8F
  8
0
 62
     7
 10
91.598166000000006
 20
191.50731999999999
 30
0.0
 40
3.872466999999999
 50
263.244621
 51
269.85105099999998
  0
ARC
  5
90
  8
0
 62
     7
 10
91.589772999999994
 20
191.31834599999999
 30
0.0
 40
3.6834799999999999
 50
269.973949
 51
276.925096
  0
ARC
  5
91
  8
0
 62
     7
 10
91.556282999999993
 20
191.67267100000001
 30
0.0
 40
4.0392689999999991
 50
276.79069399999997
 51
283.05961400000001
  0
ARC
  5
92
  8
0
 62
     7
 10
91.485193000000024
 20
192.06006300000001
 30
0.0
 40
4.4327430000000003
 50
282.8232569999999
 51
288.429687
  0
ARC
  5
93
  8
0
 62
     7
 10
91.156152999999989
 20
193.10515100000001
 30
0.0
 40
5.5282839999999993
 50
288.24074999999999
 51
292.61977100000001
  0
ARC
  5
94
  8
0
 62
     7
 10
90.635056000000006
 20
194.36916500000001
 30
0.0
 40
6.8954889999999986
 50
292.57702999999998
 51
295.97531800000002
  0
ARC
  5
95
  8
0
 62
     7
 10
90.271833999999998
 20
195.18597800000001
 30
0.0
 40
7.7889379999999999
 50
295.74565100000001
 51
298.64070400000003
  0
ARC
  5
96
  8
0
 62
     7
 10
88.742757999999995
 20
197.96919600000001
 30
0.0
 40
10.964522000000001
 50
298.68221599999998
 51
302.493201
  0
ARC
  5
97
  8
0
 62
     7
 10
86.398127000000002
 20
201.71387200000001
 30
0.0
 40
15.382561000000001
 50
302.36638599999998
 51
304.7190490000001
  0
ARC
  5
98
  8
0
 62
     7
 10
84.958251000000004
 20
203.830386
 30
0.0
 40
17.942337999999999
 50
304.64894399999997
 51
306.24248899999998
  0
ARC
  5
99
  8
0
 62
     7
 10
82.554093000000009
 20
207.21893299999999
 30
0.0
 40
22.096717999999999
 50
306.07572099999999
 51
307.21471000000003
  0
LINE
  5
9A
  8
0
 62
     7
 10
76.838200000000001
 20
178.12200000000001
 30
0.0
 11
76.838200000000001
 21
152.059
 31
0.0
  0
LINE
  5
9B
  8
0
 62
     7
 10
68.837900000000005
 20
152.059
 30
0.0
 11
68.837900000000005
 21
178.12200000000001
 31
0.0
  0
LINE
  5
9C
  8
0
 62
     7
 10
119.577
 20
104.676
 30
0.0
 11
118.654
 21
104.715
 31
0.0
  0
ARC
  5
9D
  8
0
 62
     7
 10
119.543904
 20
104.71549899999999
 30
0.0
 40
0.05145
 50
309.42079100000012
 51
315.126597
  0
ARC
  5
9E
  8
0
 62
     7
 10
119.590062
 20
104.669816
 30
0.0
 40
0.013494
 50
108.068297
 51
135.942442
  0
ARC
  5
9F
  8
0
 62
     7
 10
119.624004
 20
104.621287
 30
0.0
 40
0.072239
 50
107.390394
 51
121.856711
  0
ARC
  5
A0
  8
0
 62
     7
 10
119.69041
 20
104.42788299999999
 30
0.0
 40
0.276706
 50
103.347827
 51
108.542942
  0
ARC
  5
A1
  8
0
 62
     7
 10
119.750095
 20
104.214277
 30
0.0
 40
0.4983970000000001
 50
100.702783
 51
104.35481
  0
ARC
  5
A2
  8
0
 62
     7
 10
119.807773
 20
103.979747
 30
0.0
 40
0.739675
 50
98.708859000000004
 51
101.719065
  0
ARC
  5
A3
  8
0
 62
     7
 10
121.877606
 20
88.999347999999998
 30
0.0
 40
15.862316
 50
97.741426000000004
 51
97.905974000000015
  0
ARC
  5
A4
  8
0
 62
     7
 10
120.12482
 20
101.78552999999999
 30
0.0
 40
2.9565969999999999
 50
95.297595999999999
 51
97.460880000000003
  0
ARC
  5
A5
  8
0
 62
     7
 10
120.26010599999999
 20
100.750804
 30
0.0
 40
3.999585999999999
 50
93.882365000000007
 51
95.858775999999992
  0
ARC
  5
A6
  8
0
 62
     7
 10
121.14462
 20
89.808014999999997
 30
0.0
 40
14.977819999999999
 50
93.798944999999975
 51
94.423916999999989
  0
LINE
  5
A7
  8
0
 62
     7
 10
120.152
 20
104.753
 30
0.0
 11
120.339
 21
104.76300000000001
 31
0.0
  0
ARC
  5
A8
  8
0
 62
     7
 10
97.070350000000005
 20
576.11384899999996
 30
0.0
 40
471.92456099999998
 50
272.82612899999998
 51
272.85146600000002
  0
ARC
  5
A9
  8
0
 62
     7
 10
119.183972
 20
142.51040800000001
 30
0.0
 40
37.761423000000001
 50
272.06869399999999
 51
272.41605399999997
  0
ARC
  5
AA
  8
0
 62
     7
 10
122.492344
 20
60.913077999999999
 30
0.0
 40
43.903044000000001
 50
91.918583999999996
 51
92.240713999999969
  0
LINE
  5
AB
  8
0
 62
     7
 10
121.02200000000001
 20
104.792
 30
0.0
 11
121.285
 21
104.79900000000001
 31
0.0
  0
LINE
  5
AC
  8
0
 62
     7
 10
121.285
 20
104.79900000000001
 30
0.0
 11
121.56100000000001
 21
104.80500000000001
 31
0.0
  0
ARC
  5
AD
  8
0
 62
     7
 10
122.370409
 20
56.122894999999993
 30
0.0
 40
48.689129999999999
 50
90.268189000000007
 51
90.952968999999996
  0
ARC
  5
AE
  8
0
 62
     7
 10
122.21144200000001
 20
75.707878000000008
 30
0.0
 40
29.103694999999998
 50
88.948072999999994
 51
90.135716999999985
  0
ARC
  5
AF
  8
0
 62
     7
 10
122.25958799999999
 20
81.032921999999999
 30
0.0
 40
23.778715999999999
 50
87.37496999999999
 51
88.828507999999985
  0
ARC
  5
B0
  8
0
 62
     7
 10
122.341745
 20
84.603746999999998
 30
0.0
 40
20.20804
 50
85.499523999999994
 51
87.143979999999999
  0
ARC
  5
B1
  8
0
 62
     7
 10
121.703406
 20
78.702933000000002
 30
0.0
 40
26.141323
 50
84.517572000000015
 51
85.119577000000007
  0
ARC
  5
B2
  8
0
 62
     7
 10
119.49773500000001
 20
60.269587999999999
 30
0.0
 40
44.703187999999997
 50
83.625828000000013
 51
83.960727000000006
  0
ARC
  5
B3
  8
0
 62
     7
 10
123.21382800000001
 20
94.178809999999984
 30
0.0
 40
10.591267
 50
81.912054999999995
 51
83.238989000000004
  0
ARC
  5
B4
  8
0
 62
     7
 10
121.982241
 20
85.369827999999998
 30
0.0
 40
19.485914999999999
 50
81.302331999999993
 51
81.970929999999996
  0
ARC
  5
B5
  8
0
 62
     7
 10
123.23245
 20
94.138840999999999
 30
0.0
 40
10.629071
 50
79.696715000000012
 51
80.815984999999998
  0
ARC
  5
B6
  8
0
 62
     7
 10
123.71021399999999
 20
96.724547999999999
 30
0.0
 40
7.9996099999999997
 50
78.421655000000001
 51
79.751037999999994
  0
ARC
  5
B7
  8
0
 62
     7
 10
124.371371
 20
99.728292999999994
 30
0.0
 40
4.924493
 50
77.054020999999992
 51
78.94324499999999
  0
ARC
  5
B8
  8
0
 62
     7
 10
124.19765700000001
 20
98.964697000000001
 30
0.0
 40
5.7075969999999989
 50
75.691097999999997
 51
77.071802000000005
  0
ARC
  5
B9
  8
0
 62
     7
 10
125.00376900000001
 20
102.099093
 30
0.0
 40
2.4712169999999989
 50
74.468659999999986
 51
75.840419999999995
  0
ARC
  5
BA
  8
0
 62
     7
 10
125.41132399999999
 20
103.453734
 30
0.0
 40
1.0573369999999991
 50
73.265304
 51
76.091658999999993
  0
LINE
  5
BB
  8
0
 62
     7
 10
125.71599999999999
 20
104.46599999999999
 30
0.0
 11
125.76000000000001
 21
104.453
 31
0.0
  0
ARC
  5
BC
  8
0
 62
     7
 10
127.010221
 20
108.10955800000001
 30
0.0
 40
3.8643489999999989
 50
251.11624
 51
251.692903
  0
ARC
  5
BD
  8
0
 62
     7
 10
125.551806
 20
103.73815399999999
 30
0.0
 40
0.743995
 50
68.37276
 51
70.807458999999994
  0
ARC
  5
BE
  8
0
 62
     7
 10
125.718548
 20
104.14483
 30
0.0
 40
0.304536
 50
64.687154000000007
 51
69.335397
  0
ARC
  5
BF
  8
0
 62
     7
 10
125.762727
 20
104.253336
 30
0.0
 40
0.18767
 50
57.247434000000013
 51
62.715817999999999
  0
ARC
  5
C0
  8
0
 62
     7
 10
125.849693
 20
104.38372200000001
 30
0.0
 40
0.031072
 50
50.574199999999998
 51
62.045652000000011
  0
LINE
  5
C1
  8
0
 62
     7
 10
125.869
 20
104.408
 30
0.0
 11
125.873
 21
104.404
 31
0.0
  0
LINE
  5
C2
  8
0
 62
     7
 10
141.90100000000001
 20
103.715
 30
0.0
 11
125.873
 21
104.404
 31
0.0
  0
LINE
  5
C3
  8
0
 62
     7
 10
119.574
 20
104.672
 30
0.0
 11
119.577
 21
104.676
 31
0.0
  0
LINE
  5
C4
  8
0
 62
     7
 10
143.529
 20
103.645
 30
0.0
 11
143.52799999999999
 21
103.645
 31
0.0
  0
LINE
  5
C5
  8
0
 62
     7
 10
144.87100000000001
 20
103.58799999999999
 30
0.0
 11
143.529
 21
103.645
 31
0.0
  0
LINE
  5
C6
  8
0
 62
     7
 10
146.04300000000001
 20
103.63500000000001
 30
0.0
 11
146.05099999999999
 21
103.613
 31
0.0
  0
ARC
  5
C7
  8
0
 62
     7
 10
147.52004700000001
 20
104.115303
 30
0.0
 40
1.55308
 50
198.88609199999999
 51
199.69403600000001
  0
ARC
  5
C8
  8
0
 62
     7
 10
146.66791799999999
 20
103.825971
 30
0.0
 40
0.653458
 50
200.98804899999999
 51
202.61480499999999
  0
LINE
  5
C9
  8
0
 62
     7
 10
146.065
 20
103.575
 30
0.0
 11
146.072
 21
103.56100000000001
 31
0.0
  0
ARC
  5
CA
  8
0
 62
     7
 10
146.12447
 20
103.587501
 30
0.0
 40
0.058876
 50
206.845249
 51
219.70455899999999
  0
ARC
  5
CB
  8
0
 62
     7
 10
146.14137500000001
 20
103.59701699999999
 30
0.0
 40
0.078039
 50
217.149428
 51
225.222453
  0
ARC
  5
CC
  8
0
 62
     7
 10
146.10584499999999
 20
103.56294
 30
0.0
 40
0.028849
 50
227.64254
 51
244.97735299999999
  0
LINE
  5
CD
  8
0
 62
     7
 10
146.09399999999999
 20
103.53700000000001
 30
0.0
 11
146.101
 21
103.535
 31
0.0
  0
ARC
  5
CE
  8
0
 62
     7
 10
202.81474299999999
 20
5830.6789999999992
 30
0.0
 40
5725.7740000000013
 50
269.15794399999999
 51
269.29032999999998
  0
ARC
  5
CF
  8
0
 62
     7
 10
181.193107
 20
4047.1289999999999
 30
0.0
 40
3942.0940000000001
 50
269.28348399999999
 51
269.37962500000009
  0
ARC
  5
D0
  8
0
 62
     7
 10
205.50566799999999
 20
6408.4199999999992
 30
0.0
 40
6303.509
 50
269.39103999999998
 51
269.451167
  0
LINE
  5
D1
  8
0
 62
     7
 10
125.873
 20
104.404
 30
0.0
 11
125.874
 21
104.402
 31
0.0
  0
LINE
  5
D2
  8
0
 62
     7
 10
118.654
 20
104.712
 30
0.0
 11
118.654
 21
104.715
 31
0.0
  0
LINE
  5
D3
  8
0
 62
     7
 10
141.90100000000001
 20
103.715
 30
0.0
 11
141.904
 21
103.715
 31
0.0
  0
LINE
  5
D4
  8
0
 62
     7
 10
141.904
 20
103.715
 30
0.0
 11
141.90799999999999
 21
103.71599999999999
 31
0.0
  0
LINE
  5
D5
  8
0
 62
     7
 10
141.90799999999999
 20
103.71599999999999
 30
0.0
 11
141.91499999999999
 21
103.71599999999999
 31
0.0
  0
LINE
  5
D6
  8
0
 62
     7
 10
141.91499999999999
 20
103.71599999999999
 30
0.0
 11
141.923
 21
103.717
 31
0.0
  0
LINE
  5
D7
  8
0
 62
     7
 10
141.923
 20
103.717
 30
0.0
 11
141.946
 21
103.71899999999999
 31
0.0
  0
LINE
  5
D8
  8
0
 62
     7
 10
141.946
 20
103.71899999999999
 30
0.0
 11
141.976
 21
103.72
 31
0.0
  0
LINE
  5
D9
  8
0
 62
     7
 10
141.976
 20
103.72
 30
0.0
 11
142.01300000000001
 21
103.72199999999999
 31
0.0
  0
LINE
  5
DA
  8
0
 62
     7
 10
142.01300000000001
 20
103.72199999999999
 30
0.0
 11
142.05600000000001
 21
103.724
 31
0.0
  0
LINE
  5
DB
  8
0
 62
     7
 10
142.05600000000001
 20
103.724
 30
0.0
 11
142.10499999999999
 21
103.726
 31
0.0
  0
LINE
  5
DC
  8
0
 62
     7
 10
142.10499999999999
 20
103.726
 30
0.0
 11
142.16
 21
103.72799999999999
 31
0.0
  0
LINE
  5
DD
  8
0
 62
     7
 10
142.16
 20
103.72799999999999
 30
0.0
 11
142.28299999999999
 21
103.73
 31
0.0
  0
LINE
  5
DE
  8
0
 62
     7
 10
142.28299999999999
 20
103.73
 30
0.0
 11
142.42099999999999
 21
103.73099999999999
 31
0.0
  0
LINE
  5
DF
  8
0
 62
     7
 10
142.42099999999999
 20
103.73099999999999
 30
0.0
 11
142.56899999999999
 21
103.729
 31
0.0
  0
ARC
  5
E0
  8
0
 62
     7
 10
142.465598
 20
98.793531000000016
 30
0.0
 40
4.9365790000000001
 50
87.039851999999996
 51
88.804434000000001
  0
ARC
  5
E1
  8
0
 62
     7
 10
142.250618
 20
92.805667999999997
 30
0.0
 40
10.927963999999999
 50
86.739702000000008
 51
87.535467999999995
  0
ARC
  5
E2
  8
0
 62
     7
 10
142.067868
 20
92.056741000000017
 30
0.0
 40
11.686909
 50
85.334152000000003
 51
86.054008999999994
  0
ARC
  5
E3
  8
0
 62
     7
 10
142.67625000000001
 20
99.183280000000025
 30
0.0
 40
4.5345760000000004
 50
83.940078
 51
85.671044999999992
  0
ARC
  5
E4
  8
0
 62
     7
 10
142.36822599999999
 20
95.812787
 30
0.0
 40
7.9189069999999999
 50
83.413335000000004
 51
84.298333
  0
ARC
  5
E5
  8
0
 62
     7
 10
140.226866
 20
76.840244999999996
 30
0.0
 40
27.011892
 50
83.401864999999987
 51
83.517344999999992
  0
ARC
  5
E6
  8
0
 62
     7
 10
141.10530399999999
 20
86.174239999999983
 30
0.0
 40
17.639917000000001
 50
82.594608999999977
 51
82.752558999999991
  0
ARC
  5
E7
  8
0
 62
     7
 10
141.46665300000001
 20
90.343588999999994
 30
0.0
 40
13.459961
 50
81.648677000000006
 51
81.832429000000005
  0
ARC
  5
E8
  8
0
 62
     7
 10
143.37131400000001
 20
103.151702
 30
0.0
 40
0.511599
 50
80.308346999999983
 51
84.358025999999995
  0
LINE
  5
E9
  8
0
 62
     7
 10
143.45699999999999
 20
103.65600000000001
 30
0.0
 11
143.48699999999999
 21
103.652
 31
0.0
  0
LINE
  5
EA
  8
0
 62
     7
 10
143.48699999999999
 20
103.652
 30
0.0
 11
143.50800000000001
 21
103.648
 31
0.0
  0
LINE
  5
EB
  8
0
 62
     7
 10
143.50800000000001
 20
103.648
 30
0.0
 11
143.51599999999999
 21
103.64700000000001
 31
0.0
  0
LINE
  5
EC
  8
0
 62
     7
 10
143.51599999999999
 20
103.64700000000001
 30
0.0
 11
143.52199999999999
 21
103.646
 31
0.0
  0
LINE
  5
ED
  8
0
 62
     7
 10
143.52199999999999
 20
103.646
 30
0.0
 11
143.52600000000001
 21
103.646
 31
0.0
  0
LINE
  5
EE
  8
0
 62
     7
 10
143.52600000000001
 20
103.646
 30
0.0
 11
143.52799999999999
 21
103.645
 31
0.0
  0
LINE
  5
EF
  8
0
 62
     7
 10
144.86500000000001
 20
103.58799999999999
 30
0.0
 11
143.529
 21
103.645
 31
0.0
  0
LINE
  5
F0
  8
0
 62
     7
 10
145.89599999999999
 20
103.544
 30
0.0
 11
144.86500000000001
 21
103.58799999999999
 31
0.0
  0
LINE
  5
F1
  8
0
 62
     7
 10
141.90000000000001
 20
103.715
 30
0.0
 11
141.90100000000001
 21
103.715
 31
0.0
  0
ARC
  5
F2
  8
0
 62
     7
 10
73.053310999999994
 20
110.652834
 30
0.0
 40
7.1555189999999991
 50
236.66826800000001
 51
242.21569
  0
ARC
  5
F3
  8
0
 62
     7
 10
73.056787999999983
 20
110.660669
 30
0.0
 40
7.1640719999999991
 50
242.22030000000001
 51
247.77684500000009
  0
ARC
  5
F4
  8
0
 62
     7
 10
72.904872999999995
 20
110.289292
 30
0.0
 40
6.7628250000000003
 50
247.77828700000001
 51
253.71085199999999
  0
ARC
  5
F5
  8
0
 62
     7
 10
72.895150000000001
 20
110.25577
 30
0.0
 40
6.7279210000000003
 50
253.71025499999999
 51
259.74489699999998
  0
ARC
  5
F6
  8
0
 62
     7
 10
69.461720999999997
 20
105.199718
 30
0.0
 40
0.6238000000000001
 50
180.0281379999999
 51
194.15811099999999
  0
ARC
  5
F7
  8
0
 62
     7
 10
69.486579000000006
 20
105.206996
 30
0.0
 40
0.649683
 50
194.24427900000001
 51
207.88587899999999
  0
ARC
  5
F8
  8
0
 62
     7
 10
69.453450000000004
 20
105.19019900000001
 30
0.0
 40
0.612545
 50
207.94649200000001
 51
222.414939
  0
ARC
  5
F9
  8
0
 62
     7
 10
69.468994999999993
 20
105.20313299999999
 30
0.0
 40
0.6327470000000001
 50
222.33015099999989
 51
236.68395799999999
  0
ARC
  5
FA
  8
0
 62
     7
 10
73.112285
 20
105.8104
 30
0.0
 40
2.149432
 50
275.38924500000002
 51
277.22795100000002
  0
ARC
  5
FB
  8
0
 62
     7
 10
69.551496999999983
 20
132.00014200000001
 30
0.0
 40
28.580051000000001
 50
277.70383500000003
 51
277.82651600000003
  0
LINE
  5
FC
  8
0
 62
     7
 10
73.443399999999997
 20
103.68600000000001
 30
0.0
 11
73.470600000000005
 21
103.69
 31
0.0
  0
LINE
  5
FD
  8
0
 62
     7
 10
73.470600000000005
 20
103.69
 30
0.0
 11
73.495400000000004
 21
103.69499999999999
 31
0.0
  0
ARC
  5
FE
  8
0
 62
     7
 10
74.149272999999994
 20
100.21535900000001
 30
0.0
 40
3.5401400000000001
 50
100.2756219999999
 51
100.64417400000001
  0
LINE
  5
FF
  8
0
 62
     7
 10
73.517799999999994
 20
103.699
 30
0.0
 11
73.537800000000004
 21
103.702
 31
0.0
  0
LINE
  5
100
  8
0
 62
     7
 10
73.537800000000004
 20
103.702
 30
0.0
 11
73.555300000000003
 21
103.706
 31
0.0
  0
ARC
  5
101
  8
0
 62
     7
 10
73.278173999999993
 20
104.72732499999999
 30
0.0
 40
1.0586379999999991
 50
285.17661499999991
 51
286.00902400000001
  0
LINE
  5
102
  8
0
 62
     7
 10
73.570099999999996
 20
103.70999999999999
 30
0.0
 11
73.582899999999995
 21
103.712
 31
0.0
  0
LINE
  5
103
  8
0
 62
     7
 10
73.582899999999995
 20
103.712
 30
0.0
 11
73.5929
 21
103.71599999999999
 31
0.0
  0
LINE
  5
104
  8
0
 62
     7
 10
73.5929
 20
103.71599999999999
 30
0.0
 11
73.600499999999997
 21
103.71899999999999
 31
0.0
  0
LINE
  5
105
  8
0
 62
     7
 10
73.600499999999997
 20
103.71899999999999
 30
0.0
 11
73.602900000000005
 21
103.72
 31
0.0
  0
LINE
  5
106
  8
0
 62
     7
 10
73.602900000000005
 20
103.72
 30
0.0
 11
73.604900000000001
 21
103.721
 31
0.0
  0
LINE
  5
107
  8
0
 62
     7
 10
73.604900000000001
 20
103.721
 30
0.0
 11
73.606000000000009
 21
103.72199999999999
 31
0.0
  0
LINE
  5
108
  8
0
 62
     7
 10
73.606000000000009
 20
103.72199999999999
 30
0.0
 11
73.607299999999995
 21
103.724
 31
0.0
  0
LINE
  5
10A
  8
0
 62
     7
 10
73.607299999999995
 20
103.724
 30
0.0
 11
73.606700000000004
 21
103.726
 31
0.0
  0
ARC
  5
10B
  8
0
 62
     7
 10
72.839341000000005
 20
107.980829
 30
0.0
 40
4.3358540000000003
 50
269.98746499999999
 51
273.23057200000011
  0
ARC
  5
10C
  8
0
 62
     7
 10
72.814778000000004
 20
108.416066
 30
0.0
 40
4.7717839999999994
 50
273.23053499999997
 51
275.84502900000001
  0
ARC
  5
10D
  8
0
 62
     7
 10
75.965818999999996
 20
103.65610599999999
 30
0.0
 40
1.1553869999999999
 50
90.099983999999978
 51
92.800429000000008
  0
ARC
  5
10E
  8
0
 62
     7
 10
76.053737999999996
 20
99.686014999999998
 30
0.0
 40
5.1261320000000001
 50
91.613844000000014
 51
92.476953000000009
  0
ARC
  5
10F
  8
0
 62
     7
 10
76.119698999999997
 20
97.870114999999998
 30
0.0
 40
6.9431969999999996
 50
92.373141000000004
 51
93.192879999999974
  0
ARC
  5
110
  8
0
 62
     7
 10
75.907223999999999
 20
99.669336999999999
 30
0.0
 40
5.1361540000000003
 50
91.944131999999996
 51
93.290673999999967
  0
ARC
  5
111
  8
0
 62
     7
 10
75.201926999999984
 20
111.746998
 30
0.0
 40
6.9620869999999986
 50
272.21902299999999
 51
273.38003500000002
  0
LINE
  5
112
  8
0
 62
     7
 10
75.471500000000006
 20
104.79000000000001
 30
0.0
 11
75.311300000000003
 21
104.782
 31
0.0
  0
ARC
  5
113
  8
0
 62
     7
 10
79.766132999999996
 20
4.144194999999999
 30
0.0
 40
100.73621900000001
 50
92.53459500000001
 51
92.747229000000019
  0
LINE
  5
114
  8
0
 62
     7
 10
74.937799999999996
 20
104.765
 30
0.0
 11
74.503399999999999
 21
104.745
 31
0.0
  0
ARC
  5
115
  8
0
 62
     7
 10
81.554196000000005
 20
-60.286508999999988
 30
0.0
 40
165.18240399999999
 50
92.446392000000003
 51
92.614213000000021
  0
LINE
  5
116
  8
0
 62
     7
 10
74.020099999999999
 20
104.724
 30
0.0
 11
73.501900000000006
 21
104.70099999999999
 31
0.0
  0
ARC
  5
117
  8
0
 62
     7
 10
78.249731000000011
 20
1.786838999999999
 30
0.0
 40
103.02386799999999
 50
92.641375999999994
 51
92.940431000000004
  0
ARC
  5
118
  8
0
 62
     7
 10
72.289869999999993
 20
120.119461
 30
0.0
 40
15.728768000000001
 50
272.38158199999998
 51
274.78973300000001
  0
ARC
  5
119
  8
0
 62
     7
 10
72.649055000000004
 20
116.706574
 30
0.0
 40
12.298024
 50
274.44982199999998
 51
275.939055
  0
ARC
  5
11A
  8
0
 62
     7
 10
70.289089000000004
 20
139.547168
 30
0.0
 40
35.260213
 50
275.91301399999998
 51
276.41358100000002
  0
ARC
  5
11B
  8
0
 62
     7
 10
67.050719999999998
 20
162.89979500000001
 30
0.0
 40
58.831582999999988
 50
277.00719199999997
 51
277.29292800000002
  0
ARC
  5
11C
  8
0
 62
     7
 10
71.047285000000002
 20
130.01073700000001
 30
0.0
 40
25.702126
 50
277.762788
 51
278.37557199999998
  0
ARC
  5
11D
  8
0
 62
     7
 10
71.704396000000003
 20
125.510418
 30
0.0
 40
21.15409
 50
278.39024799999999
 51
279.0784700000001
  0
ARC
  5
11E
  8
0
 62
     7
 10
72.154367000000008
 20
122.953918
 30
0.0
 40
18.55866
 50
278.95203800000002
 51
279.66230800000011
  0
ARC
  5
11F
  8
0
 62
     7
 10
74.567284000000001
 20
109.015518
 30
0.0
 40
4.4131780000000003
 50
279.15263900000002
 51
280.51450599999998
  0
ARC
  5
120
  8
0
 62
     7
 10
74.484673999999998
 20
109.92765
 30
0.0
 40
5.3257510000000003
 50
279.597577
 51
280.65178400000002
  0
ARC
  5
121
  8
0
 62
     7
 10
74.919741000000002
 20
108.059712
 30
0.0
 40
3.4105750000000001
 50
279.26903299999998
 51
280.79722600000002
  0
ARC
  5
122
  8
0
 62
     7
 10
72.640101999999999
 20
120.657388
 30
0.0
 40
16.212729
 50
280.37071500000002
 51
280.66419400000001
  0
ARC
  5
123
  8
0
 62
     7
 10
79.452565000000007
 20
85.406357000000014
 30
0.0
 40
19.690878999999999
 50
100.943651
 51
101.163251
  0
LINE
  5
124
  8
0
 62
     7
 10
75.714399999999983
 20
104.739
 30
0.0
 11
75.780199999999994
 21
104.752
 31
0.0
  0
ARC
  5
125
  8
0
 62
     7
 10
77.568451999999994
 20
96.115115000000003
 30
0.0
 40
8.8196300000000001
 50
101.31700499999999
 51
101.69843400000001
  0
LINE
  5
126
  8
0
 62
     7
 10
75.837699999999998
 20
104.76300000000001
 30
0.0
 11
75.887299999999996
 21
104.774
 31
0.0
  0
ARC
  5
127
  8
0
 62
     7
 10
75.1721
 20
108.116326
 30
0.0
 40
3.41839
 50
282.077089
 51
282.77481399999999
  0
ARC
  5
128
  8
0
 62
     7
 10
76.095140999999998
 20
104.141265
 30
0.0
 40
0.662718
 50
101.734667
 51
104.610418
  0
ARC
  5
129
  8
0
 62
     7
 10
75.888722999999999
 20
105.076958
 30
0.0
 40
0.295636
 50
284.02260899999999
 51
288.75648799999999
  0
LINE
  5
12A
  8
0
 62
     7
 10
75.983800000000002
 20
104.797
 30
0.0
 11
75.992099999999994
 21
104.8
 31
0.0
  0
LINE
  5
12B
  8
0
 62
     7
 10
75.992099999999994
 20
104.8
 30
0.0
 11
75.9983
 21
104.80200000000001
 31
0.0
  0
LINE
  5
12C
  8
0
 62
     7
 10
75.9983
 20
104.80200000000001
 30
0.0
 11
76.002399999999994
 21
104.804
 31
0.0
  0
LINE
  5
12D
  8
0
 62
     7
 10
76.002399999999994
 20
104.804
 30
0.0
 11
76.003399999999999
 21
104.80500000000001
 31
0.0
  0
LINE
  5
12E
  8
0
 62
     7
 10
76.003399999999999
 20
104.80500000000001
 30
0.0
 11
76.003799999999998
 21
104.806
 31
0.0
  0
LINE
  5
12F
  8
0
 62
     7
 10
76.003799999999998
 20
104.806
 30
0.0
 11
76.004099999999994
 21
104.807
 31
0.0
  0
LINE
  5
130
  8
0
 62
     7
 10
76.004099999999994
 20
104.807
 30
0.0
 11
76.003399999999999
 21
104.807
 31
0.0
  0
LINE
  5
131
  8
0
 62
     7
 10
76.003399999999999
 20
104.807
 30
0.0
 11
76.002399999999994
 21
104.80800000000001
 31
0.0
  0
LINE
  5
132
  8
0
 62
     7
 10
76.002399999999994
 20
104.80800000000001
 30
0.0
 11
76.001000000000005
 21
104.809
 31
0.0
  0
LINE
  5
133
  8
0
 62
     7
 10
76.001000000000005
 20
104.809
 30
0.0
 11
75.998599999999996
 21
104.809
 31
0.0
  0
LINE
  5
134
  8
0
 62
     7
 10
75.998599999999996
 20
104.809
 30
0.0
 11
75.995800000000003
 21
104.81
 31
0.0
  0
ARC
  5
135
  8
0
 62
     7
 10
75.99476700000001
 20
104.837158
 30
0.0
 40
0.027066
 50
256.84415300000001
 51
272.27520399999997
  0
LINE
  5
136
  8
0
 62
     7
 10
75.988600000000005
 20
104.81100000000001
 30
0.0
 11
75.979600000000005
 21
104.81100000000001
 31
0.0
  0
ARC
  5
137
  8
0
 62
     7
 10
75.970151999999999
 20
104.749245
 30
0.0
 40
0.062286
 50
81.228758999999997
 51
92.038300000000007
  0
ARC
  5
138
  8
0
 62
     7
 10
72.836329000000006
 20
97.267052000000007
 30
0.0
 40
4.9771380000000001
 50
89.976240000000004
 51
96.254853000000011
  0
ARC
  5
139
  8
0
 62
     7
 10
72.894805000000005
 20
96.657482000000016
 30
0.0
 40
5.5894570000000003
 50
96.169927999999999
 51
101.540164
  0
ARC
  5
13A
  8
0
 62
     7
 10
73.075277999999983
 20
95.902008999999993
 30
0.0
 40
6.3658149999999996
 50
101.77137
 51
106.14336299999999
  0
ARC
  5
13B
  8
0
 62
     7
 10
73.55646999999999
 20
94.410111999999998
 30
0.0
 40
7.932817
 50
106.485778
 51
109.602999
  0
ARC
  5
13C
  8
0
 62
     7
 10
73.706183999999993
 20
94.100672000000003
 30
0.0
 40
8.2746349999999982
 50
109.860716
 51
114.29205899999999
  0
ARC
  5
13D
  8
0
 62
     7
 10
72.959403000000009
 20
95.632589999999993
 30
0.0
 40
6.5713289999999986
 50
113.852194
 51
115.90851499999999
  0
ARC
  5
13E
  8
0
 62
     7
 10
69.707243999999989
 20
104.73812100000001
 30
0.0
 40
0.073381
 50
89.017199000000005
 51
97.919239000000005
  0
LINE
  5
13F
  8
0
 62
     7
 10
69.697100000000006
 20
104.81100000000001
 30
0.0
 11
69.6875
 21
104.81100000000001
 31
0.0
  0
ARC
  5
140
  8
0
 62
     7
 10
69.681730999999999
 20
104.833569
 30
0.0
 40
0.023483
 50
267.23196999999999
 51
284.189235
  0
LINE
  5
141
  8
0
 62
     7
 10
69.680599999999998
 20
104.81
 30
0.0
 11
69.677800000000005
 21
104.809
 31
0.0
  0
LINE
  5
142
  8
0
 62
     7
 10
69.677800000000005
 20
104.809
 30
0.0
 11
69.675399999999996
 21
104.809
 31
0.0
  0
LINE
  5
143
  8
0
 62
     7
 10
69.675399999999996
 20
104.809
 30
0.0
 11
69.673699999999997
 21
104.80800000000001
 31
0.0
  0
LINE
  5
144
  8
0
 62
     7
 10
69.673699999999997
 20
104.80800000000001
 30
0.0
 11
69.673000000000002
 21
104.807
 31
0.0
  0
LINE
  5
145
  8
0
 62
     7
 10
69.673000000000002
 20
104.807
 30
0.0
 11
69.672300000000007
 21
104.807
 31
0.0
  0
LINE
  5
146
  8
0
 62
     7
 10
69.672300000000007
 20
104.807
 30
0.0
 11
69.672300000000007
 21
104.806
 31
0.0
  0
LINE
  5
147
  8
0
 62
     7
 10
69.672300000000007
 20
104.806
 30
0.0
 11
69.673000000000002
 21
104.80500000000001
 31
0.0
  0
LINE
  5
148
  8
0
 62
     7
 10
69.673000000000002
 20
104.80500000000001
 30
0.0
 11
69.674099999999996
 21
104.804
 31
0.0
  0
LINE
  5
149
  8
0
 62
     7
 10
69.674099999999996
 20
104.804
 30
0.0
 11
69.677800000000005
 21
104.80200000000001
 31
0.0
  0
LINE
  5
14A
  8
0
 62
     7
 10
69.677800000000005
 20
104.80200000000001
 30
0.0
 11
69.683999999999983
 21
104.8
 31
0.0
  0
LINE
  5
14B
  8
0
 62
     7
 10
69.683999999999983
 20
104.8
 30
0.0
 11
69.692700000000002
 21
104.797
 31
0.0
  0
ARC
  5
14C
  8
0
 62
     7
 10
69.789274000000006
 20
105.082256
 30
0.0
 40
0.301154
 50
251.28692000000001
 51
255.934023
  0
ARC
  5
14D
  8
0
 62
     7
 10
69.610936999999993
 20
104.274146
 30
0.0
 40
0.5265900000000001
 50
74.899376000000004
 51
78.48224900000001
  0
LINE
  5
14E
  8
0
 62
     7
 10
69.748099999999994
 20
104.783
 30
0.0
 11
69.789100000000005
 21
104.774
 31
0.0
  0
ARC
  5
14F
  8
0
 62
     7
 10
72.606451000000007
 20
118.080298
 30
0.0
 40
13.60168
 50
258.04572400000001
 51
258.257766
  0
LINE
  5
150
  8
0
 62
     7
 10
69.838399999999993
 20
104.76300000000001
 30
0.0
 11
69.896299999999997
 21
104.752
 31
0.0
  0
ARC
  5
151
  8
0
 62
     7
 10
64.96186999999999
 20
78.391101000000006
 30
0.0
 40
26.818301999999999
 50
79.254481999999996
 51
79.397538999999995
  0
LINE
  5
152
  8
0
 62
     7
 10
69.962100000000007
 20
104.739
 30
0.0
 11
70.036100000000005
 21
104.72499999999999
 31
0.0
  0
LINE
  5
153
  8
0
 62
     7
 10
70.036100000000005
 20
104.72499999999999
 30
0.0
 11
70.117800000000003
 21
104.70999999999999
 31
0.0
  0
ARC
  5
154
  8
0
 62
     7
 10
71.214590000000001
 20
110.62589800000001
 30
0.0
 40
6.0171890000000001
 50
259.49747400000001
 51
260.36041399999999
  0
ARC
  5
155
  8
0
 62
     7
 10
70.999288000000007
 20
108.85171
 30
0.0
 40
4.232848999999999
 50
259.21213399999999
 51
260.538544
  0
ARC
  5
156
  8
0
 62
     7
 10
71.657184999999998
 20
112.20326
 30
0.0
 40
7.6475809999999989
 50
259.80427100000003
 51
260.592693
  0
ARC
  5
157
  8
0
 62
     7
 10
73.519041999999985
 20
122.935429
 30
0.0
 40
18.539925
 50
260.33735300000001
 51
261.04834099999999
  0
ARC
  5
158
  8
0
 62
     7
 10
72.474994999999993
 20
115.752042
 30
0.0
 40
11.281908
 50
260.60948000000002
 51
261.89821699999999
  0
ARC
  5
159
  8
0
 62
     7
 10
72.991856999999996
 20
118.48075300000001
 30
0.0
 40
14.056801999999999
 50
261.37998299999998
 51
262.50183099999998
  0
ARC
  5
15A
  8
0
 62
     7
 10
78.613046999999995
 20
162.79878099999999
 30
0.0
 40
58.729779000000001
 50
262.70684499999999
 51
262.99307499999998
  0
ARC
  5
15B
  8
0
 62
     7
 10
75.191743000000002
 20
137.73577299999999
 30
0.0
 40
33.438304000000002
 50
263.57280200000002
 51
264.10064299999999
  0
ARC
  5
15C
  8
0
 62
     7
 10
75.106988000000001
 20
139.58221700000001
 30
0.0
 40
35.267324000000002
 50
264.54593399999999
 51
265.06522899999999
  0
ARC
  5
15D
  8
0
 62
     7
 10
73.492293000000004
 20
121.80663300000001
 30
0.0
 40
17.418911999999999
 50
265.327133
 51
267.50159300000001
  0
ARC
  5
15E
  8
0
 62
     7
 10
65.145770999999996
 20
-45.094853000000001
 30
0.0
 40
149.96089499999999
 50
87.108070999999995
 51
87.313653999999985
  0
LINE
  5
15F
  8
0
 62
     7
 10
72.174199999999999
 20
104.70099999999999
 30
0.0
 11
71.656400000000005
 21
104.724
 31
0.0
  0
ARC
  5
160
  8
0
 62
     7
 10
63.791709999999988
 20
-67.766159999999999
 30
0.0
 40
172.66934699999999
 50
87.389406000000008
 51
87.549948999999984
  0
ARC
  5
161
  8
0
 62
     7
 10
64.371642000000008
 20
-43.620003999999987
 30
0.0
 40
148.521162
 50
87.375268999999975
 51
87.543159000000017
  0
LINE
  5
162
  8
0
 62
     7
 10
70.738200000000006
 20
104.765
 30
0.0
 11
70.364800000000002
 21
104.782
 31
0.0
  0
LINE
  5
163
  8
0
 62
     7
 10
70.364800000000002
 20
104.782
 30
0.0
 11
70.204899999999995
 21
104.79000000000001
 31
0.0
  0
ARC
  5
164
  8
0
 62
     7
 10
71.205699999999993
 20
126.699782
 30
0.0
 40
21.932493999999998
 50
267.01622200000003
 51
267.38475899999997
  0
ARC
  5
165
  8
0
 62
     7
 10
69.277692999999999
 20
88.917287999999999
 30
0.0
 40
15.899191999999999
 50
87.165084999999991
 51
87.600068999999976
  0
ARC
  5
166
  8
0
 62
     7
 10
69.725131000000005
 20
101.334153
 30
0.0
 40
3.4752459999999989
 50
86.39806999999999
 51
88.035868999999991
  0
ARC
  5
167
  8
0
 62
     7
 10
69.731049999999996
 20
102.71532000000001
 30
0.0
 40
2.0950980000000001
 50
86.903009999999995
 51
89.024318999999991
  0
ARC
  5
168
  8
0
 62
     7
 10
69.690053000000006
 20
102.85728400000001
 30
0.0
 40
1.954334
 50
87.751581000000002
 51
89.347967000000011
  0
ARC
  5
169
  8
0
 62
     7
 10
72.759951000000001
 20
107.197602
 30
0.0
 40
3.5493709999999989
 50
263.78525000000002
 51
267.1719819999999
  0
ARC
  5
16A
  8
0
 62
     7
 10
72.848264
 20
108.18082200000001
 30
0.0
 40
4.5359239999999987
 50
266.67057499999999
 51
269.66642899999999
  0
LINE
  5
16B
  8
0
 62
     7
 10
72.069800000000001
 20
103.726
 30
0.0
 11
72.069100000000006
 21
103.724
 31
0.0
  0
LINE
  5
16C
  8
0
 62
     7
 10
72.069100000000006
 20
103.724
 30
0.0
 11
72.069400000000002
 21
103.724
 31
0.0
  0
LINE
  5
16D
  8
0
 62
     7
 10
72.069400000000002
 20
103.724
 30
0.0
 11
72.070099999999996
 21
103.72199999999999
 31
0.0
  0
LINE
  5
16E
  8
0
 62
     7
 10
72.070099999999996
 20
103.72199999999999
 30
0.0
 11
72.0715
 21
103.721
 31
0.0
  0
LINE
  5
16F
  8
0
 62
     7
 10
72.0715
 20
103.721
 30
0.0
 11
72.073599999999999
 21
103.72
 31
0.0
  0
LINE
  5
170
  8
0
 62
     7
 10
72.073599999999999
 20
103.72
 30
0.0
 11
72.076300000000003
 21
103.71899999999999
 31
0.0
  0
LINE
  5
171
  8
0
 62
     7
 10
72.076300000000003
 20
103.71899999999999
 30
0.0
 11
72.083600000000004
 21
103.71599999999999
 31
0.0
  0
LINE
  5
172
  8
0
 62
     7
 10
72.083600000000004
 20
103.71599999999999
 30
0.0
 11
72.093599999999995
 21
103.712
 31
0.0
  0
LINE
  5
173
  8
0
 62
     7
 10
72.093599999999995
 20
103.712
 30
0.0
 11
72.106000000000009
 21
103.70999999999999
 31
0.0
  0
ARC
  5
174
  8
0
 62
     7
 10
72.421041000000002
 20
104.835183
 30
0.0
 40
1.168714
 50
254.35974899999999
 51
255.13003699999999
  0
LINE
  5
175
  8
0
 62
     7
 10
72.121099999999998
 20
103.706
 30
0.0
 11
72.1387
 21
103.702
 31
0.0
  0
LINE
  5
176
  8
0
 62
     7
 10
72.1387
 20
103.702
 30
0.0
 11
72.158699999999996
 21
103.699
 31
0.0
  0
ARC
  5
177
  8
0
 62
     7
 10
72.812567000000001
 20
107.17794499999999
 30
0.0
 40
3.5401400000000001
 50
259.35582599999998
 51
259.724378
  0
LINE
  5
178
  8
0
 62
     7
 10
72.181100000000001
 20
103.69499999999999
 30
0.0
 11
72.2059
 21
103.69
 31
0.0
  0
LINE
  5
179
  8
0
 62
     7
 10
72.2059
 20
103.69
 30
0.0
 11
72.232699999999994
 21
103.68600000000001
 31
0.0
  0
ARC
  5
17A
  8
0
 62
     7
 10
68.401516999999984
 20
75.364221999999998
 30
0.0
 40
28.580051000000001
 50
82.173484000000002
 51
82.296165000000016
  0
ARC
  5
17B
  8
0
 62
     7
 10
72.610699999999994
 20
106.24584299999999
 30
0.0
 40
2.587327999999999
 50
262.955174
 51
264.49025
  0
ARC
  5
17C
  8
0
 62
     7
 10
72.598174999999998
 20
95.385935000000003
 30
0.0
 40
6.8451289999999991
 50
64.098641999999998
 51
66.070087000000001
  0
ARC
  5
17D
  8
0
 62
     7
 10
71.741341000000006
 20
93.531053999999997
 30
0.0
 40
8.8881700000000006
 50
65.871493000000001
 51
69.998870999999994
  0
ARC
  5
17E
  8
0
 62
     7
 10
72.144160999999997
 20
94.478632999999988
 30
0.0
 40
7.8601509999999992
 50
70.395531999999989
 51
73.543967000000009
  0
ARC
  5
17F
  8
0
 62
     7
 10
72.525705000000002
 20
95.603836999999999
 30
0.0
 40
6.6731220000000002
 50
73.94895600000001
 51
78.116650000000007
  0
ARC
  5
180
  8
0
 62
     7
 10
72.782325999999983
 20
96.659360000000007
 30
0.0
 40
5.5874779999999991
 50
78.462916000000007
 51
83.838549000000015
  0
ARC
  5
181
  8
0
 62
     7
 10
72.827857999999992
 20
97.048511000000005
 30
0.0
 40
5.195689999999999
 50
83.877161000000001
 51
89.883824000000004
  0
ARC
  5
182
  8
0
 62
     7
 10
76.216756000000004
 20
105.19068799999999
 30
0.0
 40
0.6172330000000001
 50
303.22814699999998
 51
317.92019599999998
  0
ARC
  5
183
  8
0
 62
     7
 10
76.243014000000002
 20
105.177263
 30
0.0
 40
0.588796
 50
317.17743899999999
 51
332.25228099999998
  0
ARC
  5
184
  8
0
 62
     7
 10
76.19314
 20
105.205733
 30
0.0
 40
0.6461940000000001
 50
332.07713000000001
 51
345.79275200000001
  0
ARC
  5
185
  8
0
 62
     7
 10
76.212956000000005
 20
105.198522
 30
0.0
 40
0.6252180000000001
 50
345.98764799999998
 51
0.081516
  0
ARC
  5
186
  8
0
 62
     7
 10
72.767309999999995
 20
110.315034
 30
0.0
 40
6.788727999999999
 50
280.282173
 51
286.26271400000002
  0
ARC
  5
187
  8
0
 62
     7
 10
72.743558999999991
 20
110.369469
 30
0.0
 40
6.8476399999999993
 50
286.32594
 51
292.18495999999999
  0
ARC
  5
188
  8
0
 62
     7
 10
72.609106000000011
 20
110.679351
 30
0.0
 40
7.1853550000000004
 50
292.24467499999997
 51
297.78225499999991
  0
ARC
  5
189
  8
0
 62
     7
 10
72.725898999999984
 20
110.48192899999999
 30
0.0
 40
6.9562609999999996
 50
297.68910499999998
 51
303.39800700000001
  0
LINE
  5
18A
  8
0
 62
     7
 10
72.811199999999999
 20
103.715
 30
0.0
 11
72.665400000000005
 21
103.717
 31
0.0
  0
ARC
  5
18B
  8
0
 62
     7
 10
72.799148000000002
 20
111.931363
 30
0.0
 40
8.2158179999999987
 50
268.09661399999999
 51
269.06756100000001
  0
ARC
  5
18C
  8
0
 62
     7
 10
72.162863000000002
 20
92.681402000000006
 30
0.0
 40
11.044657000000001
 50
88.114454000000009
 51
88.772392000000025
  0
ARC
  5
18D
  8
0
 62
     7
 10
73.005336
 20
121.27757699999999
 30
0.0
 40
17.564506000000002
 50
267.83664299999998
 51
268.02331600000002
  0
LINE
  5
18E
  8
0
 62
     7
 10
72.342299999999994
 20
103.726
 30
0.0
 11
72.289599999999993
 21
103.72799999999999
 31
0.0
  0
LINE
  5
18F
  8
0
 62
     7
 10
72.289599999999993
 20
103.72799999999999
 30
0.0
 11
72.241699999999994
 21
103.729
 31
0.0
  0
LINE
  5
190
  8
0
 62
     7
 10
72.241699999999994
 20
103.729
 30
0.0
 11
72.199299999999994
 21
103.73
 31
0.0
  0
LINE
  5
191
  8
0
 62
     7
 10
72.199299999999994
 20
103.73
 30
0.0
 11
72.162499999999994
 21
103.73099999999999
 31
0.0
  0
LINE
  5
192
  8
0
 62
     7
 10
72.162499999999994
 20
103.73099999999999
 30
0.0
 11
72.131500000000003
 21
103.73099999999999
 31
0.0
  0
ARC
  5
193
  8
0
 62
     7
 10
72.129711
 20
103.34702299999999
 30
0.0
 40
0.384084
 50
89.739960999999994
 51
93.442299000000006
  0
ARC
  5
194
  8
0
 62
     7
 10
72.104905999999986
 20
103.525975
 30
0.0
 40
0.204447
 50
89.511581000000007
 51
94.730591999999987
  0
LINE
  5
195
  8
0
 62
     7
 10
72.087999999999994
 20
103.73
 30
0.0
 11
72.081199999999995
 21
103.729
 31
0.0
  0
ARC
  5
196
  8
0
 62
     7
 10
72.167000000000002
 20
103.373942
 30
0.0
 40
0.365323
 50
103.59067
 51
104.48179399999999
  0
LINE
  5
197
  8
0
 62
     7
 10
72.075599999999994
 20
103.72799999999999
 30
0.0
 11
72.071899999999999
 21
103.727
 31
0.0
  0
LINE
  5
198
  8
0
 62
     7
 10
72.071899999999999
 20
103.727
 30
0.0
 11
72.069800000000001
 21
103.726
 31
0.0
  0
LINE
  5
199
  8
0
 62
     7
 10
76.838200000000001
 20
105.199
 30
0.0
 11
76.838200000000001
 21
105.523
 31
0.0
  0
LINE
  5
19A
  8
0
 62
     7
 10
68.837900000000005
 20
105.523
 30
0.0
 11
68.837900000000005
 21
105.199
 31
0.0
  0
ARC
  5
19B
  8
0
 62
     7
 10
96.031450000000007
 20
96.32055600000001
 30
0.0
 40
5.277285
 50
95.629097999999985
 51
98.232953000000009
  0
ARC
  5
19C
  8
0
 62
     7
 10
96.086342000000002
 20
95.923376999999988
 30
0.0
 40
5.6779539999999988
 50
89.982150000000004
 51
95.787209999999988
  0
ARC
  5
19D
  8
0
 62
     7
 10
96.090298000000004
 20
95.924897999999999
 30
0.0
 40
5.6764330000000003
 50
84.211980000000025
 51
90.022074000000003
  0
ARC
  5
19E
  8
0
 62
     7
 10
96.158152000000001
 20
96.427804000000009
 30
0.0
 40
5.1692759999999991
 50
81.739818999999983
 51
84.398089999999996
  0
LINE
  5
19F
  8
0
 62
     7
 10
73.606700000000004
 20
103.726
 30
0.0
 11
73.604600000000005
 21
103.727
 31
0.0
  0
LINE
  5
1A0
  8
0
 62
     7
 10
73.604600000000005
 20
103.727
 30
0.0
 11
73.600499999999997
 21
103.72799999999999
 31
0.0
  0
LINE
  5
1A1
  8
0
 62
     7
 10
73.600499999999997
 20
103.72799999999999
 30
0.0
 11
73.595299999999995
 21
103.729
 31
0.0
  0
LINE
  5
1A2
  8
0
 62
     7
 10
73.595299999999995
 20
103.729
 30
0.0
 11
73.588000000000008
 21
103.73
 31
0.0
  0
ARC
  5
1A3
  8
0
 62
     7
 10
73.573695999999998
 20
103.593672
 30
0.0
 40
0.136808
 50
83.977564999999984
 51
91.780223000000007
  0
ARC
  5
1A4
  8
0
 62
     7
 10
73.550180000000012
 20
103.483679
 30
0.0
 40
0.247486
 50
85.535239000000004
 51
91.282460999999998
  0
LINE
  5
1A5
  8
0
 62
     7
 10
73.544600000000003
 20
103.73099999999999
 30
0.0
 11
73.513599999999997
 21
103.73099999999999
 31
0.0
  0
LINE
  5
1A6
  8
0
 62
     7
 10
73.513599999999997
 20
103.73099999999999
 30
0.0
 11
73.477099999999993
 21
103.73
 31
0.0
  0
LINE
  5
1A7
  8
0
 62
     7
 10
73.477099999999993
 20
103.73
 30
0.0
 11
73.434399999999997
 21
103.729
 31
0.0
  0
LINE
  5
1A8
  8
0
 62
     7
 10
73.434399999999997
 20
103.729
 30
0.0
 11
73.386899999999983
 21
103.72799999999999
 31
0.0
  0
ARC
  5
1A9
  8
0
 62
     7
 10
69.545404000000005
 20
201.64297199999999
 30
0.0
 40
97.990640000000013
 50
272.21566200000001
 51
272.2467069999999
  0
ARC
  5
1AA
  8
0
 62
     7
 10
73.939651999999995
 20
86.171537000000015
 30
0.0
 40
17.564506000000002
 50
91.976683999999992
 51
92.163357000000005
  0
ARC
  5
1AB
  8
0
 62
     7
 10
72.913209999999992
 20
114.76220000000001
 30
0.0
 40
11.044657000000001
 50
271.22760799999998
 51
271.88554599999998
  0
ARC
  5
1AC
  8
0
 62
     7
 10
72.746156999999997
 20
117.18878599999999
 30
0.0
 40
13.474755999999999
 50
271.12618199999997
 51
271.71671800000013
  0
LINE
  5
1AD
  8
0
 62
     7
 10
73.01100000000001
 20
103.717
 30
0.0
 11
72.865300000000005
 21
103.715
 31
0.0
  0
ARC
  5
1AE
  8
0
 62
     7
 10
76.525700999999998
 20
152.058863
 30
0.0
 40
0.312472
 50
270.00002000000001
 51
359.99999000000003
  0
ARC
  5
1AF
  8
0
 62
     7
 10
69.162479000000005
 20
152.07096100000001
 30
0.0
 40
0.324782
 50
182.13477
 51
267.92839500000002
  0
ARC
  5
1B0
  8
0
 62
     7
 10
95.826592000000005
 20
191.54695899999999
 30
0.0
 40
0.074793
 50
0.14026
 51
42.093544000000001
  0
ARC
  5
1B1
  8
0
 62
     7
 10
87.353769
 20
191.54548299999999
 30
0.0
 40
0.078631
 50
138.97481999999999
 51
178.791336
  0
ARC
  5
1B2
  8
0
 62
     7
 10
105.116392
 20
189.543812
 30
0.0
 40
0.077915
 50
92.285916999999998
 51
177.97748200000001
  0
ARC
  5
1B3
  8
0
 62
     7
 10
105.116455
 20
178.19943599999999
 30
0.0
 40
0.077981
 50
182.06724500000001
 51
267.66935599999999
  0
ARC
  5
1B4
  8
0
 62
     7
 10
104.960618
 20
189.124583
 30
0.0
 40
0.077958
 50
272.06104299999998
 51
357.93896699999999
  0
ARC
  5
1B5
  8
0
 62
     7
 10
104.960936
 20
178.618909
 30
0.0
 40
0.077641
 50
2.0980039999999991
 51
88.165414999999996
  0
ARC
  5
1B6
  8
0
 62
     7
 10
104.708448
 20
189.49175099999999
 30
0.0
 40
0.130006
 50
2.1412419999999992
 51
87.858748000000006
  0
ARC
  5
1B7
  8
0
 62
     7
 10
104.708601
 20
178.251283
 30
0.0
 40
0.129848
 50
272.076528
 51
357.92348199999998
  0
ARC
  5
1B8
  8
0
 62
     7
 10
109.03830600000001
 20
190.21732700000001
 30
0.0
 40
0.250116
 50
0.00001
 51
89.999980000000008
  0
ARC
  5
1B9
  8
0
 62
     7
 10
108.0481879999999
 20
184.86188300000001
 30
0.0
 40
0.25995
 50
92.128518000000014
 51
177.87145200000001
  0
ARC
  5
1BA
  8
0
 62
     7
 10
108.048198
 20
182.88131300000001
 30
0.0
 40
0.25996
 50
182.13073
 51
267.86930000000001
  0
ARC
  5
1BB
  8
0
 62
     7
 10
109.5285379999999
 20
184.861897
 30
0.0
 40
0.259949
 50
2.125440999999999
 51
87.795575000000014
  0
ARC
  5
1BC
  8
0
 62
     7
 10
109.528863
 20
182.88096400000001
 30
0.0
 40
0.259612
 50
272.13555200000002
 51
357.94343199999997
  0
ARC
  5
1BD
  8
0
 62
     7
 10
109.528863
 20
178.38095200000001
 30
0.0
 40
0.259612
 50
272.13555200000002
 51
357.94343199999997
  0
ARC
  5
1BE
  8
0
 62
     7
 10
109.5285379999999
 20
189.361909
 30
0.0
 40
0.259949
 50
2.125440999999999
 51
87.795575000000014
  0
ARC
  5
1BF
  8
0
 62
     7
 10
106.797974
 20
190.20801
 30
0.0
 40
0.259612
 50
92.135515000000012
 51
177.94342900000001
  0
ARC
  5
1C0
  8
0
 62
     7
 10
99.090326000000005
 20
199.01571200000001
 30
0.0
 40
0.5194200000000001
 50
272.075042
 51
356.96939700000001
  0
ARC
  5
1C1
  8
0
 62
     7
 10
84.085878000000008
 20
199.01537099999999
 30
0.0
 40
0.5190670000000001
 50
182.994945
 51
267.96065599999997
  0
ARC
  5
1C2
  8
0
 62
     7
 10
49.853322999999989
 20
191.54548299999999
 30
0.0
 40
0.078631
 50
138.97481999999999
 51
178.791336
  0
ARC
  5
1C3
  8
0
 62
     7
 10
58.326178000000013
 20
191.54683800000001
 30
0.0
 40
0.075106
 50
0.231729
 51
42.002074999999998
  0
ARC
  5
1C4
  8
0
 62
     7
 10
40.560248000000001
 20
178.199174
 30
0.0
 40
0.077708
 50
272.14409799999999
 51
358.11934100000002
  0
ARC
  5
1C5
  8
0
 62
     7
 10
40.559994000000003
 20
189.54375899999999
 30
0.0
 40
0.077971
 50
2.0601240000000001
 51
87.676438000000005
  0
ARC
  5
1C6
  8
0
 62
     7
 10
40.715810999999988
 20
178.61859999999999
 30
0.0
 40
0.07796
 50
92.053021000000001
 51
177.6835209999999
  0
ARC
  5
1C7
  8
0
 62
     7
 10
40.715845000000002
 20
189.124607
 30
0.0
 40
0.077982
 50
182.077707
 51
267.92232300000001
  0
ARC
  5
1C8
  8
0
 62
     7
 10
40.967970000000001
 20
178.25139999999999
 30
0.0
 40
0.129984
 50
182.12633799999989
 51
267.71563400000002
  0
ARC
  5
1C9
  8
0
 62
     7
 10
40.967663000000002
 20
189.49209099999999
 30
0.0
 40
0.129666
 50
92.154399000000012
 51
178.00362799999999
  0
ARC
  5
1CA
  8
0
 62
     7
 10
36.147900999999997
 20
182.88128800000001
 30
0.0
 40
0.259949
 50
182.125461
 51
267.79559499999999
  0
ARC
  5
1CB
  8
0
 62
     7
 10
36.147576000000001
 20
184.862222
 30
0.0
 40
0.259612
 50
92.135515000000012
 51
177.94342900000001
  0
ARC
  5
1CC
  8
0
 62
     7
 10
37.628236999999999
 20
182.88095899999999
 30
0.0
 40
0.259607
 50
272.13445999999999
 51
357.944524
  0
ARC
  5
1CD
  8
0
 62
     7
 10
37.627907
 20
184.861897
 30
0.0
 40
0.259949
 50
2.125440999999999
 51
87.795575000000014
  0
ARC
  5
1CE
  8
0
 62
     7
 10
36.147576000000001
 20
189.362234
 30
0.0
 40
0.259612
 50
92.135515000000012
 51
177.94342900000001
  0
ARC
  5
1CF
  8
0
 62
     7
 10
36.147900999999997
 20
178.38127600000001
 30
0.0
 40
0.259949
 50
182.125461
 51
267.79559499999999
  0
ARC
  5
1D0
  8
0
 62
     7
 10
61.589888999999999
 20
199.01606699999999
 30
0.0
 40
0.519775
 50
272.07268099999999
 51
356.93228999999991
  0
ARC
  5
1D1
  8
0
 62
     7
 10
46.585839999999997
 20
199.01579799999999
 30
0.0
 40
0.519496
 50
183.039681
 51
267.95538699999997
  0
ARC
  5
1D2
  8
0
 62
     7
 10
118.679085
 20
110.594516
 30
0.0
 40
0.324702
 50
92.121599000000003
 51
177.941507
  0
ARC
  5
1D3
  8
0
 62
     7
 10
119.55600800000001
 20
104.83127500000001
 30
0.0
 40
0.165081
 50
303.53230200000002
 51
306.451751
  0
ARC
  5
1D4
  8
0
 62
     7
 10
125.846779
 20
104.491675
 30
0.0
 40
0.076594
 50
230.552154
 51
235.708079
  0
ARC
  5
1D5
  8
0
 62
     7
 10
119.583557
 20
104.79640000000001
 30
0.0
 40
0.120848
 50
266.68804999999998
 51
301.77868899999999
  0
ARC
  5
1D6
  8
0
 62
     7
 10
125.87629800000001
 20
104.525542
 30
0.0
 40
0.121322
 50
233.20093900000001
 51
268.21899300000001
  0
ARC
  5
1D7
  8
0
 62
     7
 10
125.880583
 20
104.52743700000001
 30
0.0
 40
0.126074
 50
227.89110199999999
 51
267.12033300000002
  0
ARC
  5
1D8
  8
0
 62
     7
 10
119.579262
 20
104.797262
 30
0.0
 40
0.125057
 50
267.66358700000001
 51
308.34475200000003
  0
ARC
  5
1D9
  8
0
 62
     7
 10
118.679569
 20
105.039192
 30
0.0
 40
0.3252
 50
182.12110100000001
 51
265.42469399999999
  0
ARC
  5
1DA
  8
0
 62
     7
 10
118.67782800000001
 20
105.034768
 30
0.0
 40
0.323402
 50
181.83718999999991
 51
265.70860499999998
  0
ARC
  5
1DB
  8
0
 62
     7
 10
158.151836
 20
111.52392999999999
 30
0.0
 40
0.083474
 50
50.174175999999989
 51
87.592000000000013
  0
ARC
  5
1DC
  8
0
 62
     7
 10
149.48950300000001
 20
116.28442699999999
 30
0.0
 40
0.259949
 50
92.204404999999994
 51
177.874539
  0
ARC
  5
1DD
  8
0
 62
     7
 10
151.47007400000001
 20
116.284402
 30
0.0
 40
0.25996
 50
2.1307099999999992
 51
87.869280000000003
  0
ARC
  5
1DE
  8
0
 62
     7
 10
165.624268
 20
114.795935
 30
0.0
 40
0.519775
 50
93.067699999999974
 51
177.92730900000001
  0
ARC
  5
1DF
  8
0
 62
     7
 10
152.49998400000001
 20
113.493128
 30
0.0
 40
0.7702640000000001
 50
181.07197300000001
 51
250.98609400000001
  0
ARC
  5
1E0
  8
0
 62
     7
 10
148.458078
 20
113.494237
 30
0.0
 40
0.771811
 50
289.09413799999999
 51
358.84783399999998
  0
ARC
  5
1E1
  8
0
 62
     7
 10
146.108227
 20
103.798498
 30
0.0
 40
0.263827
 50
268.777805
 51
274.31853000000001
  0
ARC
  5
1E2
  8
0
 62
     7
 10
150.47991300000001
 20
107.293932
 30
0.0
 40
5.7498839999999989
 50
342.07867700000003
 51
72.080559999999991
  0
ARC
  5
1E3
  8
0
 62
     7
 10
150.47962100000001
 20
107.2937
 30
0.0
 40
5.7500900000000001
 50
252.08180400000001
 51
342.08177499999999
  0
ARC
  5
1E4
  8
0
 62
     7
 10
150.48083299999999
 20
107.29448600000001
 30
0.0
 40
5.7512119999999998
 50
162.08641499999999
 51
252.07272499999999
  0
ARC
  5
1E5
  8
0
 62
     7
 10
150.55739800000001
 20
107.21557799999999
 30
0.0
 40
5.8485629999999986
 50
108.407743
 51
161.58156199999999
  0
ARC
  5
1E6
  8
0
 62
     7
 10
147.96857
 20
100.242127
 30
0.0
 40
0.051459
 50
91.639545999999996
 51
177.96391600000001
  0
ARC
  5
1E7
  8
0
 62
     7
 10
152.99039500000001
 20
100.24184700000001
 30
0.0
 40
0.051747
 50
2.3346399999999998
 51
88.061858999999998
  0
ARC
  5
1E8
  8
0
 62
     7
 10
158.154787
 20
103.05651400000001
 30
0.0
 40
0.07576
 50
270.42024199999997
 51
311.81358299999999
  0
ARC
  5
1E9
  8
0
 62
     7
 10
165.62402299999999
 20
99.791910000000001
 30
0.0
 40
0.5195210000000001
 50
182.047155
 51
266.95783599999999
  0
ARC
  5
1EA
  8
0
 62
     7
 10
96.645599000000004
 20
561.28941399999985
 30
0.0
 40
457.20141899999999
 50
266.58683100000002
 51
266.99892199999999
  0
ARC
  5
1EB
  8
0
 62
     7
 10
105.11612599999999
 20
112.96635499999999
 30
0.0
 40
0.077641
 50
92.097975999999989
 51
178.16542200000001
  0
ARC
  5
1EC
  8
0
 62
     7
 10
104.960503
 20
112.546631
 30
0.0
 40
0.078076
 50
272.14203500000008
 51
357.85797500000001
  0
ARC
  5
1ED
  8
0
 62
     7
 10
104.708117
 20
112.913712
 30
0.0
 40
0.130336
 50
2.1237650000000001
 51
87.718603000000002
  0
ARC
  5
1EE
  8
0
 62
     7
 10
108.048198
 20
116.284402
 30
0.0
 40
0.25996
 50
92.130700000000004
 51
177.86927
  0
ARC
  5
1EF
  8
0
 62
     7
 10
109.5285379999999
 20
116.28442699999999
 30
0.0
 40
0.259949
 50
2.125440999999999
 51
87.795575000000014
  0
ARC
  5
1F0
  8
0
 62
     7
 10
107.00946
 20
113.82291499999999
 30
0.0
 40
0.779509
 50
272.12881399999998
 51
357.84487100000001
  0
ARC
  5
1F1
  8
0
 62
     7
 10
91.588269999999994
 20
107.294501
 30
0.0
 40
8.1257029999999997
 50
225.05296999999999
 51
314.94704999999999
  0
ARC
  5
1F2
  8
0
 62
     7
 10
91.588269999999994
 20
107.29414800000001
 30
0.0
 40
8.1248170000000002
 50
45.046715999999989
 51
134.95326399999999
  0
ARC
  5
1F3
  8
0
 62
     7
 10
95.414725000000004
 20
101.621185
 30
0.0
 40
0.077746
 50
236.24531200000001
 51
268.88496199999997
  0
ARC
  5
1F4
  8
0
 62
     7
 10
96.762640000000005
 20
101.618639
 30
0.0
 40
0.075189
 50
270.54369300000002
 51
304.32607200000001
  0
ARC
  5
1F5
  8
0
 62
     7
 10
105.116455
 20
101.62137
 30
0.0
 40
0.077981
 50
182.06724500000001
 51
267.66935599999999
  0
ARC
  5
1F6
  8
0
 62
     7
 10
104.960584
 20
102.040847
 30
0.0
 40
0.077992
 50
2.0848169999999988
 51
87.915172999999996
  0
ARC
  5
1F7
  8
0
 62
     7
 10
104.708429
 20
101.67337499999999
 30
0.0
 40
0.130013
 50
272.14962000000003
 51
358.00801300000001
  0
ARC
  5
1F8
  8
0
 62
     7
 10
109.528863
 20
101.802885
 30
0.0
 40
0.259612
 50
272.13555200000002
 51
357.94343199999997
  0
ARC
  5
1F9
  8
0
 62
     7
 10
102.83847299999999
 20
95.912428000000006
 30
0.0
 40
5.6365769999999991
 50
87.456731999999974
 51
92.543247999999991
  0
ARC
  5
1FA
  8
0
 62
     7
 10
76.213228999999998
 20
110.294051
 30
0.0
 40
0.6249440000000001
 50
0.00001
 51
89.999980000000008
  0
LINE
  5
1FB
  8
0
 62
     7
 10
72.733000000000004
 20
104.404
 30
0.0
 11
72.838399999999993
 21
104.402
 31
0.0
  0
ARC
  5
1FC
  8
0
 62
     7
 10
72.838219999999993
 20
107.38957000000001
 30
0.0
 40
2.677668999999999
 50
267.23084499999999
 51
272.76917500000002
  0
LINE
  5
1FD
  8
0
 62
     7
 10
72.711600000000004
 20
104.675
 30
0.0
 11
72.838399999999993
 21
104.672
 31
0.0
  0
LINE
  5
1FE
  8
0
 62
     7
 10
72.811199999999999
 20
103.715
 30
0.0
 11
72.838399999999993
 21
103.715
 31
0.0
  0
ARC
  5
1FF
  8
0
 62
     7
 10
72.735874999999993
 20
110.86695899999999
 30
0.0
 40
7.3377119999999989
 50
278.92564500000009
 51
279.75442500000003
  0
ARC
  5
200
  8
0
 62
     7
 10
72.858694
 20
110.269108
 30
0.0
 40
6.7344080000000002
 50
260.97330599999998
 51
269.82434799999999
  0
ARC
  5
201
  8
0
 62
     7
 10
72.423117000000005
 20
107.73539599999999
 30
0.0
 40
4.1638640000000002
 50
259.95746500000001
 51
261.42267700000002
  0
ARC
  5
202
  8
0
 62
     7
 10
75.349349000000004
 20
100.24202200000001
 30
0.0
 40
0.051557
 50
2.1485820000000002
 51
88.641681999999989
  0
ARC
  5
203
  8
0
 62
     7
 10
76.190151
 20
105.544552
 30
0.0
 40
0.6483950000000001
 50
275.36542100000003
 51
358.056647
  0
LINE
  5
204
  8
0
 62
     7
 10
75.9679
 20
104.81100000000001
 30
0.0
 11
75.963800000000006
 21
104.81100000000001
 31
0.0
  0
ARC
  5
205
  8
0
 62
     7
 10
48.951349
 20
562.70804499999997
 30
0.0
 40
458.62226600000002
 50
273.00173599999999
 51
273.41255100000001
  0
ARC
  5
206
  8
0
 62
     7
 10
69.487343999999993
 20
110.26956
 30
0.0
 40
0.6498840000000001
 50
92.128155000000007
 51
177.840239
  0
ARC
  5
207
  8
0
 62
     7
 10
72.439323999999999
 20
107.819418
 30
0.0
 40
4.2493650000000001
 50
259.944412
 51
261.3755569999999
  0
ARC
  5
208
  8
0
 62
     7
 10
72.824577000000005
 20
110.18421499999999
 30
0.0
 40
6.6494989999999996
 50
270.11904600000003
 51
279.08334000000002
  0
ARC
  5
209
  8
0
 62
     7
 10
72.823999000000001
 20
110.35426699999999
 30
0.0
 40
6.8175600000000003
 50
278.86251299999998
 51
279.757385
  0
ARC
  5
20A
  8
0
 62
     7
 10
70.327331000000001
 20
100.241789
 30
0.0
 40
0.051807
 50
91.999636999999993
 51
177.603825
  0
ARC
  5
20B
  8
0
 62
     7
 10
69.485431999999989
 20
105.54410300000001
 30
0.0
 40
0.647869
 50
181.905248
 51
264.70625899999999
  0
LINE
  5
20C
  8
0
 62
     7
 10
69.712299999999999
 20
104.81100000000001
 30
0.0
 11
69.708500000000001
 21
104.81100000000001
 31
0.0
  0
LINE
  5
20D
  8
0
 62
     7
 10
72.821899999999985
 20
103.645
 30
0.0
 11
72.838399999999993
 21
103.645
 31
0.0
  0
LINE
  5
20E
  8
0
 62
     7
 10
72.838399999999993
 20
104.402
 30
0.0
 11
72.9435
 21
104.404
 31
0.0
  0
LINE
  5
20F
  8
0
 62
     7
 10
72.838399999999993
 20
104.672
 30
0.0
 11
72.964799999999997
 21
104.675
 31
0.0
  0
LINE
  5
210
  8
0
 62
     7
 10
72.838399999999993
 20
103.715
 30
0.0
 11
72.865300000000005
 21
103.715
 31
0.0
  0
ARC
  5
211
  8
0
 62
     7
 10
40.559984
 20
112.966027
 30
0.0
 40
0.077981
 50
2.0672429999999991
 51
87.669318999999987
  0
ARC
  5
212
  8
0
 62
     7
 10
40.715854999999998
 20
112.54655
 30
0.0
 40
0.077992
 50
182.08482000000001
 51
267.91521
  0
ARC
  5
213
  8
0
 62
     7
 10
40.967688000000003
 20
112.914357
 30
0.0
 40
0.12968
 50
92.164973000000003
 51
178.150676
  0
ARC
  5
214
  8
0
 62
     7
 10
36.147576000000001
 20
116.284751
 30
0.0
 40
0.259612
 50
92.135515000000012
 51
177.94342900000001
  0
ARC
  5
215
  8
0
 62
     7
 10
37.628241000000003
 20
116.284402
 30
0.0
 40
0.25996
 50
2.1307099999999992
 51
87.869280000000003
  0
ARC
  5
216
  8
0
 62
     7
 10
38.666654999999999
 20
113.82259000000001
 30
0.0
 40
0.7791730000000001
 50
182.13219100000001
 51
267.89416299999999
  0
ARC
  5
217
  8
0
 62
     7
 10
40.715834999999998
 20
102.04086700000001
 30
0.0
 40
0.077972
 50
92.070589999999996
 51
177.92938000000001
  0
ARC
  5
218
  8
0
 62
     7
 10
40.560248000000001
 20
101.62110699999999
 30
0.0
 40
0.077708
 50
272.14409799999999
 51
358.11934100000002
  0
ARC
  5
219
  8
0
 62
     7
 10
40.968342999999997
 20
101.673692
 30
0.0
 40
0.130358
 50
182.12645900000001
 51
267.55789299999998
  0
ARC
  5
21A
  8
0
 62
     7
 10
36.147900999999997
 20
101.80321000000001
 30
0.0
 40
0.259949
 50
182.125461
 51
267.79559499999999
  0
ARC
  5
21B
  8
0
 62
     7
 10
54.087996999999987
 20
107.294016
 30
0.0
 40
8.1252380000000013
 50
225.05141399999999
 51
314.94860599999998
  0
ARC
  5
21C
  8
0
 62
     7
 10
54.087996999999987
 20
107.29463199999999
 30
0.0
 40
8.124352
 50
45.045159999999989
 51
134.95482000000001
  0
LINE
  5
21D
  8
0
 62
     7
 10
109.788
 20
189.37200000000001
 30
0.0
 11
109.788
 21
178.37200000000001
 31
0.0
  0
LINE
  5
21E
  8
0
 62
     7
 10
109.288
 20
190.21700000000001
 30
0.0
 11
109.288
 21
189.62200000000001
 31
0.0
  0
LINE
  5
21F
  8
0
 62
     7
 10
107.788
 20
184.87200000000001
 30
0.0
 11
107.788
 21
182.87200000000001
 31
0.0
  0
LINE
  5
220
  8
0
 62
     7
 10
106.539
 20
190.21700000000001
 30
0.0
 11
106.539
 21
189.62200000000001
 31
0.0
  0
LINE
  5
221
  8
0
 62
     7
 10
105.039
 20
178.197
 30
0.0
 11
105.039
 21
189.547
 31
0.0
  0
LINE
  5
222
  8
0
 62
     7
 10
104.83799999999999
 20
178.24700000000001
 30
0.0
 11
104.83799999999999
 21
189.49700000000001
 31
0.0
  0
LINE
  5
223
  8
0
 62
     7
 10
99.608999999999995
 20
198.988
 30
0.0
 11
99.713099999999997
 21
205.24700000000001
 31
0.0
  0
LINE
  5
224
  8
0
 62
     7
 10
69.150700000000001
 20
151.74600000000001
 30
0.0
 11
76.525700000000001
 21
151.74600000000001
 31
0.0
  0
LINE
  5
225
  8
0
 62
     7
 10
95.882099999999994
 20
198.49700000000001
 30
0.0
 11
95.882099999999994
 21
191.59700000000001
 31
0.0
  0
LINE
  5
226
  8
0
 62
     7
 10
95.901399999999995
 20
191.547
 30
0.0
 11
95.918299999999988
 21
189.62200000000001
 31
0.0
  0
LINE
  5
227
  8
0
 62
     7
 10
87.275199999999998
 20
191.547
 30
0.0
 11
87.258300000000006
 21
189.62200000000001
 31
0.0
  0
LINE
  5
228
  8
0
 62
     7
 10
87.294399999999996
 20
191.59700000000001
 30
0.0
 11
87.294399999999996
 21
198.49700000000001
 31
0.0
  0
LINE
  5
229
  8
0
 62
     7
 10
83.463099999999997
 20
205.24700000000001
 30
0.0
 11
83.567499999999995
 21
198.988
 31
0.0
  0
LINE
  5
22A
  8
0
 62
     7
 10
76.838200000000001
 20
178.96600000000001
 30
0.0
 11
76.838200000000001
 21
152.059
 31
0.0
  0
LINE
  5
22B
  8
0
 62
     7
 10
105.113
 20
178.12200000000001
 30
0.0
 11
109.539
 21
178.12200000000001
 31
0.0
  0
LINE
  5
22C
  8
0
 62
     7
 10
76.838200000000001
 20
178.12200000000001
 30
0.0
 11
104.71299999999999
 21
178.12200000000001
 31
0.0
  0
LINE
  5
22D
  8
0
 62
     7
 10
40.962800000000001
 20
178.12200000000001
 30
0.0
 11
68.837900000000005
 21
178.12200000000001
 31
0.0
  0
LINE
  5
22E
  8
0
 62
     7
 10
40.563200000000002
 20
178.12200000000001
 30
0.0
 11
36.137900000000002
 21
178.12200000000001
 31
0.0
  0
LINE
  5
22F
  8
0
 62
     7
 10
104.83799999999999
 20
178.697
 30
0.0
 11
104.96299999999999
 21
178.697
 31
0.0
  0
LINE
  5
230
  8
0
 62
     7
 10
40.83809999999999
 20
178.697
 30
0.0
 11
40.712999999999987
 21
178.697
 31
0.0
  0
LINE
  5
231
  8
0
 62
     7
 10
69.463200000000001
 20
179.40799999999999
 30
0.0
 11
76.213200000000001
 21
179.40799999999999
 31
0.0
  0
LINE
  5
232
  8
0
 62
     7
 10
68.837900000000005
 20
152.059
 30
0.0
 11
68.837900000000005
 21
178.96600000000001
 31
0.0
  0
LINE
  5
233
  8
0
 62
     7
 10
108.039
 20
182.62200000000001
 30
0.0
 11
109.539
 21
182.62200000000001
 31
0.0
  0
LINE
  5
234
  8
0
 62
     7
 10
37.637900000000002
 20
182.62200000000001
 30
0.0
 11
36.137900000000002
 21
182.62200000000001
 31
0.0
  0
LINE
  5
235
  8
0
 62
     7
 10
36.137900000000002
 20
185.12200000000001
 30
0.0
 11
37.637900000000002
 21
185.12200000000001
 31
0.0
  0
LINE
  5
236
  8
0
 62
     7
 10
109.539
 20
185.12200000000001
 30
0.0
 11
108.039
 21
185.12200000000001
 31
0.0
  0
LINE
  5
237
  8
0
 62
     7
 10
62.108899999999998
 20
198.988
 30
0.0
 11
62.213000000000001
 21
205.24700000000001
 31
0.0
  0
LINE
  5
238
  8
0
 62
     7
 10
104.83799999999999
 20
189.047
 30
0.0
 11
104.96299999999999
 21
189.047
 31
0.0
  0
LINE
  5
239
  8
0
 62
     7
 10
40.83809999999999
 20
189.047
 30
0.0
 11
40.712999999999987
 21
189.047
 31
0.0
  0
LINE
  5
23A
  8
0
 62
     7
 10
105.113
 20
189.62200000000001
 30
0.0
 11
109.539
 21
189.62200000000001
 31
0.0
  0
LINE
  5
23B
  8
0
 62
     7
 10
95.918299999999988
 20
189.62200000000001
 30
0.0
 11
104.71299999999999
 21
189.62200000000001
 31
0.0
  0
LINE
  5
23C
  8
0
 62
     7
 10
58.417799999999993
 20
189.62200000000001
 30
0.0
 11
87.258300000000006
 21
189.62200000000001
 31
0.0
  0
LINE
  5
23D
  8
0
 62
     7
 10
40.962800000000001
 20
189.62200000000001
 30
0.0
 11
49.758200000000002
 21
189.62200000000001
 31
0.0
  0
LINE
  5
23E
  8
0
 62
     7
 10
40.563200000000002
 20
189.62200000000001
 30
0.0
 11
36.137900000000002
 21
189.62200000000001
 31
0.0
  0
LINE
  5
23F
  8
0
 62
     7
 10
58.381999999999998
 20
198.49700000000001
 30
0.0
 11
58.381999999999998
 21
191.59700000000001
 31
0.0
  0
LINE
  5
240
  8
0
 62
     7
 10
58.401299999999999
 20
191.547
 30
0.0
 11
58.417799999999993
 21
189.62200000000001
 31
0.0
  0
LINE
  5
241
  8
0
 62
     7
 10
106.788
 20
190.46700000000001
 30
0.0
 11
109.038
 21
190.46700000000001
 31
0.0
  0
LINE
  5
242
  8
0
 62
     7
 10
87.294399999999996
 20
191.59700000000001
 30
0.0
 11
95.882099999999994
 21
191.59700000000001
 31
0.0
  0
LINE
  5
243
  8
0
 62
     7
 10
49.793999999999997
 20
191.59700000000001
 30
0.0
 11
58.381999999999998
 21
191.59700000000001
 31
0.0
  0
LINE
  5
244
  8
0
 62
     7
 10
84.067400000000006
 20
198.49700000000001
 30
0.0
 11
99.109100000000012
 21
198.49700000000001
 31
0.0
  0
LINE
  5
245
  8
0
 62
     7
 10
46.567300000000003
 20
198.49700000000001
 30
0.0
 11
61.608699999999999
 21
198.49700000000001
 31
0.0
  0
LINE
  5
246
  8
0
 62
     7
 10
49.774700000000003
 20
191.547
 30
0.0
 11
49.758200000000002
 21
189.62200000000001
 31
0.0
  0
LINE
  5
247
  8
0
 62
     7
 10
49.793999999999997
 20
191.59700000000001
 30
0.0
 11
49.793999999999997
 21
198.49700000000001
 31
0.0
  0
LINE
  5
248
  8
0
 62
     7
 10
45.963000000000001
 20
205.24700000000001
 30
0.0
 11
46.067100000000003
 21
198.988
 31
0.0
  0
LINE
  5
249
  8
0
 62
     7
 10
83.463099999999997
 20
205.24700000000001
 30
0.0
 11
99.713099999999997
 21
205.24700000000001
 31
0.0
  0
LINE
  5
24A
  8
0
 62
     7
 10
45.963000000000001
 20
205.24700000000001
 30
0.0
 11
62.213000000000001
 21
205.24700000000001
 31
0.0
  0
LINE
  5
24B
  8
0
 62
     7
 10
40.83809999999999
 20
178.24700000000001
 30
0.0
 11
40.83809999999999
 21
189.49700000000001
 31
0.0
  0
LINE
  5
24C
  8
0
 62
     7
 10
40.637900000000002
 20
189.547
 30
0.0
 11
40.637900000000002
 21
178.197
 31
0.0
  0
LINE
  5
24D
  8
0
 62
     7
 10
37.887700000000002
 20
184.87200000000001
 30
0.0
 11
37.887700000000002
 21
182.87200000000001
 31
0.0
  0
LINE
  5
24E
  8
0
 62
     7
 10
35.888100000000001
 20
189.37200000000001
 30
0.0
 11
35.888100000000001
 21
178.37200000000001
 31
0.0
  0
LINE
  5
24F
  8
0
 62
     7
 10
118.355
 20
105.024
 30
0.0
 11
118.355
 21
110.60599999999999
 31
0.0
  0
LINE
  5
250
  8
0
 62
     7
 10
125.797
 20
104.43300000000001
 30
0.0
 11
125.79600000000001
 21
104.434
 31
0.0
  0
LINE
  5
251
  8
0
 62
     7
 10
125.79600000000001
 20
104.434
 30
0.0
 11
125.794
 21
104.435
 31
0.0
  0
LINE
  5
252
  8
0
 62
     7
 10
125.794
 20
104.435
 30
0.0
 11
125.79300000000001
 21
104.435
 31
0.0
  0
LINE
  5
253
  8
0
 62
     7
 10
125.79300000000001
 20
104.435
 30
0.0
 11
125.791
 21
104.43600000000001
 31
0.0
  0
LINE
  5
254
  8
0
 62
     7
 10
125.791
 20
104.43600000000001
 30
0.0
 11
125.788
 21
104.437
 31
0.0
  0
LINE
  5
255
  8
0
 62
     7
 10
125.788
 20
104.437
 30
0.0
 11
125.786
 21
104.438
 31
0.0
  0
LINE
  5
256
  8
0
 62
     7
 10
125.786
 20
104.438
 30
0.0
 11
125.78400000000001
 21
104.43899999999999
 31
0.0
  0
LINE
  5
257
  8
0
 62
     7
 10
125.78400000000001
 20
104.43899999999999
 30
0.0
 11
125.78100000000001
 21
104.44
 31
0.0
  0
LINE
  5
258
  8
0
 62
     7
 10
125.78100000000001
 20
104.44
 30
0.0
 11
125.77800000000001
 21
104.441
 31
0.0
  0
LINE
  5
259
  8
0
 62
     7
 10
125.77800000000001
 20
104.441
 30
0.0
 11
125.77500000000001
 21
104.44199999999999
 31
0.0
  0
LINE
  5
25A
  8
0
 62
     7
 10
125.77500000000001
 20
104.44199999999999
 30
0.0
 11
125.77200000000001
 21
104.443
 31
0.0
  0
LINE
  5
25B
  8
0
 62
     7
 10
125.77200000000001
 20
104.443
 30
0.0
 11
125.76900000000001
 21
104.444
 31
0.0
  0
LINE
  5
25C
  8
0
 62
     7
 10
125.76900000000001
 20
104.444
 30
0.0
 11
125.765
 21
104.446
 31
0.0
  0
LINE
  5
25D
  8
0
 62
     7
 10
125.765
 20
104.446
 30
0.0
 11
125.762
 21
104.447
 31
0.0
  0
LINE
  5
25E
  8
0
 62
     7
 10
125.762
 20
104.447
 30
0.0
 11
125.758
 21
104.44799999999999
 31
0.0
  0
LINE
  5
25F
  8
0
 62
     7
 10
125.758
 20
104.44799999999999
 30
0.0
 11
125.754
 21
104.45
 31
0.0
  0
LINE
  5
260
  8
0
 62
     7
 10
125.803
 20
104.43000000000001
 30
0.0
 11
125.80200000000001
 21
104.431
 31
0.0
  0
LINE
  5
261
  8
0
 62
     7
 10
125.80200000000001
 20
104.431
 30
0.0
 11
125.801
 21
104.431
 31
0.0
  0
LINE
  5
262
  8
0
 62
     7
 10
125.801
 20
104.431
 30
0.0
 11
125.801
 21
104.432
 31
0.0
  0
LINE
  5
263
  8
0
 62
     7
 10
125.801
 20
104.432
 30
0.0
 11
125.8
 21
104.432
 31
0.0
  0
LINE
  5
264
  8
0
 62
     7
 10
125.8
 20
104.432
 30
0.0
 11
125.798
 21
104.43300000000001
 31
0.0
  0
LINE
  5
265
  8
0
 62
     7
 10
125.798
 20
104.43300000000001
 30
0.0
 11
125.797
 21
104.43300000000001
 31
0.0
  0
LINE
  5
266
  8
0
 62
     7
 10
165.596
 20
115.315
 30
0.0
 11
171.85499999999999
 21
115.419
 31
0.0
  0
LINE
  5
267
  8
0
 62
     7
 10
151.47999999999999
 20
116.544
 30
0.0
 11
149.47999999999999
 21
116.544
 31
0.0
  0
LINE
  5
268
  8
0
 62
     7
 10
125.712
 20
104.46299999999999
 30
0.0
 11
125.699
 21
104.467
 31
0.0
  0
LINE
  5
269
  8
0
 62
     7
 10
125.724
 20
104.459
 30
0.0
 11
125.712
 21
104.46299999999999
 31
0.0
  0
LINE
  5
26A
  8
0
 62
     7
 10
125.73399999999999
 20
104.456
 30
0.0
 11
125.724
 21
104.459
 31
0.0
  0
LINE
  5
26B
  8
0
 62
     7
 10
125.745
 20
104.453
 30
0.0
 11
125.73399999999999
 21
104.456
 31
0.0
  0
LINE
  5
26C
  8
0
 62
     7
 10
125.754
 20
104.45
 30
0.0
 11
125.745
 21
104.453
 31
0.0
  0
LINE
  5
26D
  8
0
 62
     7
 10
125.699
 20
104.467
 30
0.0
 11
125.684
 21
104.471
 31
0.0
  0
LINE
  5
26E
  8
0
 62
     7
 10
125.684
 20
104.471
 30
0.0
 11
125.67700000000001
 21
104.473
 31
0.0
  0
LINE
  5
26F
  8
0
 62
     7
 10
158.20500000000001
 20
111.58799999999999
 30
0.0
 11
165.10499999999999
 21
111.58799999999999
 31
0.0
  0
LINE
  5
270
  8
0
 62
     7
 10
158.155
 20
111.607
 30
0.0
 11
154.24299999999999
 21
111.64100000000001
 31
0.0
  0
LINE
  5
271
  8
0
 62
     7
 10
142.107
 20
103.726
 30
0.0
 11
142.20599999999999
 21
103.669
 31
0.0
  0
LINE
  5
272
  8
0
 62
     7
 10
147.917
 20
97.543700000000015
 30
0.0
 11
148.167
 21
97.293599999999984
 31
0.0
  0
LINE
  5
273
  8
0
 62
     7
 10
118.667
 20
110.919
 30
0.0
 11
146.01599999999999
 21
110.919
 31
0.0
  0
LINE
  5
274
  8
0
 62
     7
 10
147.83000000000001
 20
100.294
 30
0.0
 11
147.72999999999999
 21
100.39400000000001
 31
0.0
  0
LINE
  5
275
  8
0
 62
     7
 10
119.744
 20
104.715
 30
0.0
 11
119.73099999999999
 21
104.714
 31
0.0
  0
LINE
  5
276
  8
0
 62
     7
 10
119.73099999999999
 20
104.714
 30
0.0
 11
119.724
 21
104.712
 31
0.0
  0
LINE
  5
277
  8
0
 62
     7
 10
119.724
 20
104.712
 30
0.0
 11
119.71899999999999
 21
104.712
 31
0.0
  0
LINE
  5
278
  8
0
 62
     7
 10
119.71899999999999
 20
104.712
 30
0.0
 11
119.71299999999999
 21
104.711
 31
0.0
  0
LINE
  5
279
  8
0
 62
     7
 10
119.71299999999999
 20
104.711
 30
0.0
 11
119.708
 21
104.70999999999999
 31
0.0
  0
LINE
  5
27A
  8
0
 62
     7
 10
119.708
 20
104.70999999999999
 30
0.0
 11
119.703
 21
104.709
 31
0.0
  0
LINE
  5
27B
  8
0
 62
     7
 10
119.703
 20
104.709
 30
0.0
 11
119.69799999999999
 21
104.708
 31
0.0
  0
LINE
  5
27C
  8
0
 62
     7
 10
119.69799999999999
 20
104.708
 30
0.0
 11
119.693
 21
104.70699999999999
 31
0.0
  0
LINE
  5
27D
  8
0
 62
     7
 10
119.693
 20
104.70699999999999
 30
0.0
 11
119.68899999999999
 21
104.70699999999999
 31
0.0
  0
LINE
  5
27E
  8
0
 62
     7
 10
119.68899999999999
 20
104.70699999999999
 30
0.0
 11
119.685
 21
104.705
 31
0.0
  0
LINE
  5
27F
  8
0
 62
     7
 10
119.685
 20
104.705
 30
0.0
 11
119.681
 21
104.705
 31
0.0
  0
LINE
  5
280
  8
0
 62
     7
 10
119.681
 20
104.705
 30
0.0
 11
119.67700000000001
 21
104.70399999999999
 31
0.0
  0
LINE
  5
281
  8
0
 62
     7
 10
119.67700000000001
 20
104.70399999999999
 30
0.0
 11
119.67400000000001
 21
104.703
 31
0.0
  0
LINE
  5
282
  8
0
 62
     7
 10
119.67400000000001
 20
104.703
 30
0.0
 11
119.67100000000001
 21
104.703
 31
0.0
  0
LINE
  5
283
  8
0
 62
     7
 10
119.67100000000001
 20
104.703
 30
0.0
 11
119.66800000000001
 21
104.702
 31
0.0
  0
LINE
  5
284
  8
0
 62
     7
 10
119.66800000000001
 20
104.702
 30
0.0
 11
119.66500000000001
 21
104.70099999999999
 31
0.0
  0
LINE
  5
285
  8
0
 62
     7
 10
119.66500000000001
 20
104.70099999999999
 30
0.0
 11
119.66200000000001
 21
104.70099999999999
 31
0.0
  0
LINE
  5
286
  8
0
 62
     7
 10
119.66200000000001
 20
104.70099999999999
 30
0.0
 11
119.66
 21
104.7
 31
0.0
  0
LINE
  5
287
  8
0
 62
     7
 10
119.66
 20
104.7
 30
0.0
 11
119.658
 21
104.699
 31
0.0
  0
LINE
  5
288
  8
0
 62
     7
 10
119.658
 20
104.699
 30
0.0
 11
119.655
 21
104.699
 31
0.0
  0
LINE
  5
289
  8
0
 62
     7
 10
119.655
 20
104.699
 30
0.0
 11
119.654
 21
104.69799999999999
 31
0.0
  0
LINE
  5
28A
  8
0
 62
     7
 10
119.654
 20
104.69799999999999
 30
0.0
 11
119.652
 21
104.69799999999999
 31
0.0
  0
LINE
  5
28B
  8
0
 62
     7
 10
119.652
 20
104.69799999999999
 30
0.0
 11
119.651
 21
104.69799999999999
 31
0.0
  0
LINE
  5
28C
  8
0
 62
     7
 10
119.651
 20
104.69799999999999
 30
0.0
 11
119.65000000000001
 21
104.697
 31
0.0
  0
LINE
  5
28D
  8
0
 62
     7
 10
119.65000000000001
 20
104.697
 30
0.0
 11
119.649
 21
104.697
 31
0.0
  0
LINE
  5
28E
  8
0
 62
     7
 10
119.649
 20
104.697
 30
0.0
 11
119.649
 21
104.696
 31
0.0
  0
LINE
  5
28F
  8
0
 62
     7
 10
119.758
 20
104.717
 30
0.0
 11
119.744
 21
104.715
 31
0.0
  0
LINE
  5
290
  8
0
 62
     7
 10
119.773
 20
104.71899999999999
 30
0.0
 11
119.758
 21
104.717
 31
0.0
  0
LINE
  5
291
  8
0
 62
     7
 10
119.79000000000001
 20
104.721
 30
0.0
 11
119.773
 21
104.71899999999999
 31
0.0
  0
LINE
  5
292
  8
0
 62
     7
 10
119.809
 20
104.723
 30
0.0
 11
119.79000000000001
 21
104.721
 31
0.0
  0
LINE
  5
293
  8
0
 62
     7
 10
119.82899999999999
 20
104.726
 30
0.0
 11
119.809
 21
104.723
 31
0.0
  0
LINE
  5
294
  8
0
 62
     7
 10
119.84999999999999
 20
104.72799999999999
 30
0.0
 11
119.82899999999999
 21
104.726
 31
0.0
  0
LINE
  5
295
  8
0
 62
     7
 10
119.874
 20
104.73
 30
0.0
 11
119.84999999999999
 21
104.72799999999999
 31
0.0
  0
LINE
  5
296
  8
0
 62
     7
 10
119.913
 20
104.73399999999999
 30
0.0
 11
119.887
 21
104.732
 31
0.0
  0
LINE
  5
297
  8
0
 62
     7
 10
119.887
 20
104.732
 30
0.0
 11
119.874
 21
104.73
 31
0.0
  0
LINE
  5
298
  8
0
 62
     7
 10
119.941
 20
104.736
 30
0.0
 11
119.913
 21
104.73399999999999
 31
0.0
  0
LINE
  5
299
  8
0
 62
     7
 10
119.97199999999999
 20
104.739
 30
0.0
 11
119.941
 21
104.736
 31
0.0
  0
LINE
  5
29A
  8
0
 62
     7
 10
120.004
 20
104.741
 30
0.0
 11
119.97199999999999
 21
104.739
 31
0.0
  0
LINE
  5
29B
  8
0
 62
     7
 10
120.039
 20
104.744
 30
0.0
 11
120.004
 21
104.741
 31
0.0
  0
LINE
  5
29C
  8
0
 62
     7
 10
120.075
 20
104.747
 30
0.0
 11
120.039
 21
104.744
 31
0.0
  0
LINE
  5
29D
  8
0
 62
     7
 10
120.114
 20
104.749
 30
0.0
 11
120.075
 21
104.747
 31
0.0
  0
LINE
  5
29E
  8
0
 62
     7
 10
120.155
 20
104.752
 30
0.0
 11
120.114
 21
104.749
 31
0.0
  0
LINE
  5
29F
  8
0
 62
     7
 10
120.199
 20
104.754
 30
0.0
 11
120.155
 21
104.752
 31
0.0
  0
LINE
  5
2A0
  8
0
 62
     7
 10
120.245
 20
104.75700000000001
 30
0.0
 11
120.199
 21
104.754
 31
0.0
  0
LINE
  5
2A1
  8
0
 62
     7
 10
120.295
 20
104.76000000000001
 30
0.0
 11
120.245
 21
104.75700000000001
 31
0.0
  0
LINE
  5
2A2
  8
0
 62
     7
 10
120.34699999999999
 20
104.76300000000001
 30
0.0
 11
120.295
 21
104.76000000000001
 31
0.0
  0
LINE
  5
2A3
  8
0
 62
     7
 10
120.402
 20
104.76600000000001
 30
0.0
 11
120.34699999999999
 21
104.76300000000001
 31
0.0
  0
LINE
  5
2A4
  8
0
 62
     7
 10
120.461
 20
104.76900000000001
 30
0.0
 11
120.402
 21
104.76600000000001
 31
0.0
  0
LINE
  5
2A5
  8
0
 62
     7
 10
120.524
 20
104.77200000000001
 30
0.0
 11
120.461
 21
104.76900000000001
 31
0.0
  0
LINE
  5
2A6
  8
0
 62
     7
 10
120.592
 20
104.774
 30
0.0
 11
120.524
 21
104.77200000000001
 31
0.0
  0
LINE
  5
2A7
  8
0
 62
     7
 10
120.664
 20
104.77800000000001
 30
0.0
 11
120.592
 21
104.774
 31
0.0
  0
LINE
  5
2A8
  8
0
 62
     7
 10
120.74299999999999
 20
104.78
 30
0.0
 11
120.664
 21
104.77800000000001
 31
0.0
  0
LINE
  5
2A9
  8
0
 62
     7
 10
120.83
 20
104.78400000000001
 30
0.0
 11
120.74299999999999
 21
104.78
 31
0.0
  0
LINE
  5
2AA
  8
0
 62
     7
 10
120.92400000000001
 20
104.78700000000001
 30
0.0
 11
120.83
 21
104.78400000000001
 31
0.0
  0
LINE
  5
2AB
  8
0
 62
     7
 10
121.024
 20
104.791
 30
0.0
 11
120.92400000000001
 21
104.78700000000001
 31
0.0
  0
LINE
  5
2AC
  8
0
 62
     7
 10
121.127
 20
104.794
 30
0.0
 11
121.024
 21
104.791
 31
0.0
  0
LINE
  5
2AD
  8
0
 62
     7
 10
121.23399999999999
 20
104.797
 30
0.0
 11
121.127
 21
104.794
 31
0.0
  0
LINE
  5
2AE
  8
0
 62
     7
 10
121.34399999999999
 20
104.8
 30
0.0
 11
121.23399999999999
 21
104.797
 31
0.0
  0
LINE
  5
2AF
  8
0
 62
     7
 10
121.455
 20
104.80200000000001
 30
0.0
 11
121.34399999999999
 21
104.8
 31
0.0
  0
LINE
  5
2B0
  8
0
 62
     7
 10
118.667
 20
105.523
 30
0.0
 11
118.355
 21
105.523
 31
0.0
  0
LINE
  5
2B1
  8
0
 62
     7
 10
143.18799999999999
 20
103.68899999999999
 30
0.0
 11
143.15299999999999
 21
103.669
 31
0.0
  0
LINE
  5
2B2
  8
0
 62
     7
 10
142.20599999999999
 20
103.669
 30
0.0
 11
143.15299999999999
 21
103.669
 31
0.0
  0
LINE
  5
2B3
  8
0
 62
     7
 10
146.10300000000001
 20
103.535
 30
0.0
 11
145.89599999999999
 21
103.544
 31
0.0
  0
LINE
  5
2B4
  8
0
 62
     7
 10
141.90000000000001
 20
103.715
 30
0.0
 11
139.55099999999999
 21
103.815
 31
0.0
  0
LINE
  5
2B5
  8
0
 62
     7
 10
139.55099999999999
 20
103.815
 30
0.0
 11
134.48599999999999
 21
104.032
 31
0.0
  0
LINE
  5
2B6
  8
0
 62
     7
 10
134.48599999999999
 20
104.032
 30
0.0
 11
131.762
 21
104.149
 31
0.0
  0
LINE
  5
2B7
  8
0
 62
     7
 10
131.762
 20
104.149
 30
0.0
 11
125.874
 21
104.402
 31
0.0
  0
LINE
  5
2B8
  8
0
 62
     7
 10
119.574
 20
104.672
 30
0.0
 11
118.654
 21
104.712
 31
0.0
  0
LINE
  5
2B9
  8
0
 62
     7
 10
147.72999999999999
 20
102.244
 30
0.0
 11
147.72999999999999
 21
100.39400000000001
 31
0.0
  0
LINE
  5
2BA
  8
0
 62
     7
 10
147.917
 20
100.244
 30
0.0
 11
147.917
 21
97.543700000000015
 31
0.0
  0
LINE
  5
2BB
  8
0
 62
     7
 10
158.155
 20
102.98099999999999
 30
0.0
 11
156.209
 21
102.964
 31
0.0
  0
LINE
  5
2BC
  8
0
 62
     7
 10
158.20500000000001
 20
103.0
 30
0.0
 11
165.10499999999999
 21
103.0
 31
0.0
  0
LINE
  5
2BD
  8
0
 62
     7
 10
149.22999999999999
 20
116.294
 30
0.0
 11
149.22999999999999
 21
113.479
 31
0.0
  0
LINE
  5
2BE
  8
0
 62
     7
 10
147.72999999999999
 20
100.39400000000001
 30
0.0
 11
153.22999999999999
 21
100.39400000000001
 31
0.0
  0
LINE
  5
2BF
  8
0
 62
     7
 10
153.13
 20
100.294
 30
0.0
 11
147.83000000000001
 21
100.294
 31
0.0
  0
LINE
  5
2C0
  8
0
 62
     7
 10
165.596
 20
99.273099999999999
 30
0.0
 11
171.85499999999999
 21
99.169100000000014
 31
0.0
  0
LINE
  5
2C1
  8
0
 62
     7
 10
125.015
 20
104.61499999999999
 30
0.0
 11
124.961
 21
104.624
 31
0.0
  0
LINE
  5
2C2
  8
0
 62
     7
 10
124.961
 20
104.624
 30
0.0
 11
124.93300000000001
 21
104.629
 31
0.0
  0
LINE
  5
2C3
  8
0
 62
     7
 10
124.93300000000001
 20
104.629
 30
0.0
 11
124.90300000000001
 21
104.634
 31
0.0
  0
LINE
  5
2C4
  8
0
 62
     7
 10
124.90300000000001
 20
104.634
 30
0.0
 11
124.873
 21
104.63800000000001
 31
0.0
  0
LINE
  5
2C5
  8
0
 62
     7
 10
124.873
 20
104.63800000000001
 30
0.0
 11
124.842
 21
104.643
 31
0.0
  0
LINE
  5
2C6
  8
0
 62
     7
 10
124.842
 20
104.643
 30
0.0
 11
124.81
 21
104.648
 31
0.0
  0
LINE
  5
2C7
  8
0
 62
     7
 10
124.81
 20
104.648
 30
0.0
 11
124.776
 21
104.65300000000001
 31
0.0
  0
LINE
  5
2C8
  8
0
 62
     7
 10
124.776
 20
104.65300000000001
 30
0.0
 11
124.741
 21
104.658
 31
0.0
  0
LINE
  5
2C9
  8
0
 62
     7
 10
124.741
 20
104.658
 30
0.0
 11
124.705
 21
104.663
 31
0.0
  0
LINE
  5
2CA
  8
0
 62
     7
 10
124.705
 20
104.663
 30
0.0
 11
124.667
 21
104.66800000000001
 31
0.0
  0
LINE
  5
2CB
  8
0
 62
     7
 10
124.667
 20
104.66800000000001
 30
0.0
 11
124.627
 21
104.67400000000001
 31
0.0
  0
LINE
  5
2CC
  8
0
 62
     7
 10
124.627
 20
104.67400000000001
 30
0.0
 11
124.586
 21
104.679
 31
0.0
  0
LINE
  5
2CD
  8
0
 62
     7
 10
124.586
 20
104.679
 30
0.0
 11
124.54300000000001
 21
104.685
 31
0.0
  0
LINE
  5
2CE
  8
0
 62
     7
 10
124.54300000000001
 20
104.685
 30
0.0
 11
124.498
 21
104.69
 31
0.0
  0
LINE
  5
2CF
  8
0
 62
     7
 10
124.498
 20
104.69
 30
0.0
 11
124.452
 21
104.696
 31
0.0
  0
LINE
  5
2D0
  8
0
 62
     7
 10
124.452
 20
104.696
 30
0.0
 11
124.404
 21
104.70099999999999
 31
0.0
  0
LINE
  5
2D1
  8
0
 62
     7
 10
124.404
 20
104.70099999999999
 30
0.0
 11
124.355
 21
104.70699999999999
 31
0.0
  0
LINE
  5
2D2
  8
0
 62
     7
 10
124.355
 20
104.70699999999999
 30
0.0
 11
124.304
 21
104.712
 31
0.0
  0
LINE
  5
2D3
  8
0
 62
     7
 10
124.304
 20
104.712
 30
0.0
 11
124.252
 21
104.718
 31
0.0
  0
LINE
  5
2D4
  8
0
 62
     7
 10
124.252
 20
104.718
 30
0.0
 11
124.2
 21
104.723
 31
0.0
  0
LINE
  5
2D5
  8
0
 62
     7
 10
124.2
 20
104.723
 30
0.0
 11
124.14700000000001
 21
104.729
 31
0.0
  0
LINE
  5
2D6
  8
0
 62
     7
 10
124.14700000000001
 20
104.729
 30
0.0
 11
124.092
 21
104.73399999999999
 31
0.0
  0
LINE
  5
2D7
  8
0
 62
     7
 10
124.092
 20
104.73399999999999
 30
0.0
 11
124.038
 21
104.738
 31
0.0
  0
LINE
  5
2D8
  8
0
 62
     7
 10
124.038
 20
104.738
 30
0.0
 11
123.983
 21
104.74299999999999
 31
0.0
  0
LINE
  5
2D9
  8
0
 62
     7
 10
123.983
 20
104.74299999999999
 30
0.0
 11
123.92700000000001
 21
104.748
 31
0.0
  0
LINE
  5
2DA
  8
0
 62
     7
 10
123.92700000000001
 20
104.748
 30
0.0
 11
123.872
 21
104.752
 31
0.0
  0
LINE
  5
2DB
  8
0
 62
     7
 10
123.872
 20
104.752
 30
0.0
 11
123.815
 21
104.75700000000001
 31
0.0
  0
LINE
  5
2DC
  8
0
 62
     7
 10
123.815
 20
104.75700000000001
 30
0.0
 11
123.759
 21
104.761
 31
0.0
  0
LINE
  5
2DD
  8
0
 62
     7
 10
123.759
 20
104.761
 30
0.0
 11
123.702
 21
104.765
 31
0.0
  0
LINE
  5
2DE
  8
0
 62
     7
 10
123.702
 20
104.765
 30
0.0
 11
123.64400000000001
 21
104.76900000000001
 31
0.0
  0
LINE
  5
2DF
  8
0
 62
     7
 10
123.64400000000001
 20
104.76900000000001
 30
0.0
 11
123.587
 21
104.77200000000001
 31
0.0
  0
LINE
  5
2E0
  8
0
 62
     7
 10
123.587
 20
104.77200000000001
 30
0.0
 11
123.52800000000001
 21
104.776
 31
0.0
  0
LINE
  5
2E1
  8
0
 62
     7
 10
123.52800000000001
 20
104.776
 30
0.0
 11
123.47
 21
104.779
 31
0.0
  0
LINE
  5
2E2
  8
0
 62
     7
 10
123.47
 20
104.779
 30
0.0
 11
123.41200000000001
 21
104.782
 31
0.0
  0
LINE
  5
2E3
  8
0
 62
     7
 10
123.41200000000001
 20
104.782
 30
0.0
 11
123.35299999999999
 21
104.785
 31
0.0
  0
LINE
  5
2E4
  8
0
 62
     7
 10
123.35299999999999
 20
104.785
 30
0.0
 11
123.294
 21
104.788
 31
0.0
  0
LINE
  5
2E5
  8
0
 62
     7
 10
123.294
 20
104.788
 30
0.0
 11
123.235
 21
104.79000000000001
 31
0.0
  0
LINE
  5
2E6
  8
0
 62
     7
 10
123.235
 20
104.79000000000001
 30
0.0
 11
123.175
 21
104.79300000000001
 31
0.0
  0
LINE
  5
2E7
  8
0
 62
     7
 10
123.175
 20
104.79300000000001
 30
0.0
 11
123.11499999999999
 21
104.795
 31
0.0
  0
LINE
  5
2E8
  8
0
 62
     7
 10
123.11499999999999
 20
104.795
 30
0.0
 11
123.05500000000001
 21
104.797
 31
0.0
  0
LINE
  5
2E9
  8
0
 62
     7
 10
123.05500000000001
 20
104.797
 30
0.0
 11
122.995
 21
104.79900000000001
 31
0.0
  0
LINE
  5
2EA
  8
0
 62
     7
 10
122.995
 20
104.79900000000001
 30
0.0
 11
122.935
 21
104.801
 31
0.0
  0
LINE
  5
2EB
  8
0
 62
     7
 10
122.935
 20
104.801
 30
0.0
 11
122.875
 21
104.803
 31
0.0
  0
LINE
  5
2EC
  8
0
 62
     7
 10
122.875
 20
104.803
 30
0.0
 11
122.81399999999999
 21
104.804
 31
0.0
  0
LINE
  5
2ED
  8
0
 62
     7
 10
122.81399999999999
 20
104.804
 30
0.0
 11
122.754
 21
104.80500000000001
 31
0.0
  0
LINE
  5
2EE
  8
0
 62
     7
 10
122.754
 20
104.80500000000001
 30
0.0
 11
122.693
 21
104.807
 31
0.0
  0
LINE
  5
2EF
  8
0
 62
     7
 10
122.693
 20
104.807
 30
0.0
 11
122.633
 21
104.807
 31
0.0
  0
LINE
  5
2F0
  8
0
 62
     7
 10
122.633
 20
104.807
 30
0.0
 11
122.57299999999999
 21
104.80800000000001
 31
0.0
  0
LINE
  5
2F1
  8
0
 62
     7
 10
122.57299999999999
 20
104.80800000000001
 30
0.0
 11
122.512
 21
104.809
 31
0.0
  0
LINE
  5
2F2
  8
0
 62
     7
 10
122.512
 20
104.809
 30
0.0
 11
122.452
 21
104.809
 31
0.0
  0
LINE
  5
2F3
  8
0
 62
     7
 10
122.452
 20
104.809
 30
0.0
 11
122.392
 21
104.81
 31
0.0
  0
LINE
  5
2F4
  8
0
 62
     7
 10
122.392
 20
104.81
 30
0.0
 11
122.331
 21
104.81
 31
0.0
  0
LINE
  5
2F5
  8
0
 62
     7
 10
122.331
 20
104.81
 30
0.0
 11
122.271
 21
104.81100000000001
 31
0.0
  0
LINE
  5
2F6
  8
0
 62
     7
 10
122.271
 20
104.81100000000001
 30
0.0
 11
122.211
 21
104.81100000000001
 31
0.0
  0
LINE
  5
2F7
  8
0
 62
     7
 10
122.211
 20
104.81100000000001
 30
0.0
 11
122.151
 21
104.81100000000001
 31
0.0
  0
LINE
  5
2F8
  8
0
 62
     7
 10
122.151
 20
104.81100000000001
 30
0.0
 11
122.092
 21
104.81
 31
0.0
  0
LINE
  5
2F9
  8
0
 62
     7
 10
122.092
 20
104.81
 30
0.0
 11
122.032
 21
104.81
 31
0.0
  0
LINE
  5
2FA
  8
0
 62
     7
 10
122.032
 20
104.81
 30
0.0
 11
121.973
 21
104.809
 31
0.0
  0
LINE
  5
2FB
  8
0
 62
     7
 10
121.973
 20
104.809
 30
0.0
 11
121.914
 21
104.809
 31
0.0
  0
LINE
  5
2FC
  8
0
 62
     7
 10
121.914
 20
104.809
 30
0.0
 11
121.855
 21
104.809
 31
0.0
  0
LINE
  5
2FD
  8
0
 62
     7
 10
121.855
 20
104.809
 30
0.0
 11
121.797
 21
104.80800000000001
 31
0.0
  0
LINE
  5
2FE
  8
0
 62
     7
 10
121.797
 20
104.80800000000001
 30
0.0
 11
121.739
 21
104.807
 31
0.0
  0
LINE
  5
2FF
  8
0
 62
     7
 10
121.739
 20
104.807
 30
0.0
 11
121.682
 21
104.807
 31
0.0
  0
LINE
  5
300
  8
0
 62
     7
 10
121.682
 20
104.807
 30
0.0
 11
121.624
 21
104.80500000000001
 31
0.0
  0
LINE
  5
301
  8
0
 62
     7
 10
121.624
 20
104.80500000000001
 30
0.0
 11
121.568
 21
104.80500000000001
 31
0.0
  0
LINE
  5
302
  8
0
 62
     7
 10
121.568
 20
104.80500000000001
 30
0.0
 11
121.511
 21
104.803
 31
0.0
  0
LINE
  5
303
  8
0
 62
     7
 10
121.511
 20
104.803
 30
0.0
 11
121.455
 21
104.80200000000001
 31
0.0
  0
LINE
  5
304
  8
0
 62
     7
 10
125.066
 20
104.60599999999999
 30
0.0
 11
125.015
 21
104.61499999999999
 31
0.0
  0
LINE
  5
305
  8
0
 62
     7
 10
125.114
 20
104.598
 30
0.0
 11
125.066
 21
104.60599999999999
 31
0.0
  0
LINE
  5
306
  8
0
 62
     7
 10
125.15900000000001
 20
104.59
 30
0.0
 11
125.114
 21
104.598
 31
0.0
  0
LINE
  5
307
  8
0
 62
     7
 10
125.202
 20
104.581
 30
0.0
 11
125.15900000000001
 21
104.59
 31
0.0
  0
LINE
  5
308
  8
0
 62
     7
 10
125.24299999999999
 20
104.574
 30
0.0
 11
125.202
 21
104.581
 31
0.0
  0
LINE
  5
309
  8
0
 62
     7
 10
125.282
 20
104.566
 30
0.0
 11
125.24299999999999
 21
104.574
 31
0.0
  0
LINE
  5
30A
  8
0
 62
     7
 10
125.319
 20
104.559
 30
0.0
 11
125.282
 21
104.566
 31
0.0
  0
LINE
  5
30B
  8
0
 62
     7
 10
125.354
 20
104.551
 30
0.0
 11
125.319
 21
104.559
 31
0.0
  0
LINE
  5
30C
  8
0
 62
     7
 10
125.387
 20
104.544
 30
0.0
 11
125.354
 21
104.551
 31
0.0
  0
LINE
  5
30D
  8
0
 62
     7
 10
125.41800000000001
 20
104.53700000000001
 30
0.0
 11
125.387
 21
104.544
 31
0.0
  0
LINE
  5
30E
  8
0
 62
     7
 10
125.44799999999999
 20
104.53
 30
0.0
 11
125.41800000000001
 21
104.53700000000001
 31
0.0
  0
LINE
  5
30F
  8
0
 62
     7
 10
125.477
 20
104.524
 30
0.0
 11
125.44799999999999
 21
104.53
 31
0.0
  0
LINE
  5
310
  8
0
 62
     7
 10
125.503
 20
104.5179999999999
 30
0.0
 11
125.477
 21
104.524
 31
0.0
  0
LINE
  5
311
  8
0
 62
     7
 10
125.529
 20
104.512
 30
0.0
 11
125.503
 21
104.5179999999999
 31
0.0
  0
LINE
  5
312
  8
0
 62
     7
 10
125.55200000000001
 20
104.506
 30
0.0
 11
125.529
 21
104.512
 31
0.0
  0
LINE
  5
313
  8
0
 62
     7
 10
125.575
 20
104.501
 30
0.0
 11
125.55200000000001
 21
104.506
 31
0.0
  0
LINE
  5
314
  8
0
 62
     7
 10
125.596
 20
104.495
 30
0.0
 11
125.575
 21
104.501
 31
0.0
  0
LINE
  5
315
  8
0
 62
     7
 10
125.617
 20
104.48999999999999
 30
0.0
 11
125.596
 21
104.495
 31
0.0
  0
LINE
  5
316
  8
0
  6
AIGENLINE001
 62
     7
 10
150.47999999999999
 20
95.466300000000004
 30
0.0
 11
150.47999999999999
 21
118.13200000000001
 31
0.0
  0
LINE
  5
317
  8
0
 62
     7
 10
151.72999999999999
 20
113.479
 30
0.0
 11
151.72999999999999
 21
116.294
 31
0.0
  0
LINE
  5
318
  8
0
 62
     7
 10
125.64400000000001
 20
104.482
 30
0.0
 11
125.626
 21
104.488
 31
0.0
  0
LINE
  5
319
  8
0
 62
     7
 10
125.626
 20
104.488
 30
0.0
 11
125.617
 21
104.48999999999999
 31
0.0
  0
LINE
  5
31A
  8
0
 62
     7
 10
125.661
 20
104.47799999999999
 30
0.0
 11
125.64400000000001
 21
104.482
 31
0.0
  0
LINE
  5
31B
  8
0
 62
     7
 10
125.67700000000001
 20
104.473
 30
0.0
 11
125.661
 21
104.47799999999999
 31
0.0
  0
LINE
  5
31C
  8
0
 62
     7
 10
152.24700000000001
 20
112.76600000000001
 30
0.0
 11
152.24799999999999
 21
112.76600000000001
 31
0.0
  0
LINE
  5
31D
  8
0
 62
     7
 10
153.042
 20
100.244
 30
0.0
 11
153.042
 21
97.543700000000015
 31
0.0
  0
LINE
  5
31E
  8
0
 62
     7
 10
153.22999999999999
 20
102.244
 30
0.0
 11
153.22999999999999
 21
100.39400000000001
 31
0.0
  0
LINE
  5
31F
  8
0
 62
     7
 10
153.13
 20
100.294
 30
0.0
 11
153.22999999999999
 21
100.39400000000001
 31
0.0
  0
LINE
  5
320
  8
0
 62
     7
 10
153.042
 20
97.543700000000015
 30
0.0
 11
147.917
 21
97.543700000000015
 31
0.0
  0
LINE
  5
321
  8
0
 62
     7
 10
152.792
 20
97.293599999999984
 30
0.0
 11
148.167
 21
97.293599999999984
 31
0.0
  0
LINE
  5
322
  8
0
 62
     7
 10
153.042
 20
97.543700000000015
 30
0.0
 11
152.792
 21
97.293599999999984
 31
0.0
  0
LINE
  5
323
  8
0
 62
     7
 10
158.20500000000001
 20
103.0
 30
0.0
 11
158.20500000000001
 21
111.58799999999999
 31
0.0
  0
LINE
  5
324
  8
0
 62
     7
 10
165.10499999999999
 20
99.773399999999995
 30
0.0
 11
165.10499999999999
 21
114.815
 31
0.0
  0
LINE
  5
325
  8
0
  6
AIGENLINE001
 62
     7
 10
123.855
 20
101.905
 30
0.0
 11
123.855
 21
108.02
 31
0.0
  0
LINE
  5
326
  8
0
 62
     7
 10
171.85499999999999
 20
99.169100000000014
 30
0.0
 11
171.85499999999999
 21
115.419
 31
0.0
  0
LINE
  5
327
  8
0
 62
     7
 10
109.788
 20
116.294
 30
0.0
 11
109.788
 21
101.794
 31
0.0
  0
LINE
  5
328
  8
0
 62
     7
 10
107.788
 20
113.71599999999999
 30
0.0
 11
107.788
 21
116.294
 31
0.0
  0
LINE
  5
329
  8
0
 62
     7
 10
105.039
 20
112.96899999999999
 30
0.0
 11
105.039
 21
101.619
 31
0.0
  0
LINE
  5
32A
  8
0
 62
     7
 10
104.83799999999999
 20
112.919
 30
0.0
 11
104.83799999999999
 21
101.669
 31
0.0
  0
LINE
  5
32B
  8
0
 62
     7
 10
108.039
 20
116.544
 30
0.0
 11
109.539
 21
116.544
 31
0.0
  0
LINE
  5
32C
  8
0
 62
     7
 10
37.637900000000002
 20
116.544
 30
0.0
 11
36.137900000000002
 21
116.544
 31
0.0
  0
LINE
  5
32D
  8
0
 62
     7
 10
75.400899999999993
 20
97.543700000000015
 30
0.0
 11
75.150800000000004
 21
97.293599999999984
 31
0.0
  0
LINE
  5
32E
  8
0
 62
     7
 10
40.563200000000002
 20
113.044
 30
0.0
 11
38.638000000000012
 21
113.044
 31
0.0
  0
LINE
  5
32F
  8
0
  6
AIGENLINE001
 62
     7
 10
32.910499999999999
 20
107.29300000000001
 30
0.0
 11
112.286
 21
107.29300000000001
 31
0.0
  0
LINE
  5
330
  8
0
 62
     7
 10
104.71299999999999
 20
113.044
 30
0.0
 11
40.962800000000001
 21
113.044
 31
0.0
  0
LINE
  5
331
  8
0
 62
     7
 10
107.038
 20
113.044
 30
0.0
 11
105.113
 21
113.044
 31
0.0
  0
LINE
  5
332
  8
0
 62
     7
 10
40.83809999999999
 20
112.46899999999999
 30
0.0
 11
40.712999999999987
 21
112.46899999999999
 31
0.0
  0
LINE
  5
333
  8
0
 62
     7
 10
104.96299999999999
 20
112.46899999999999
 30
0.0
 11
104.83799999999999
 21
112.46899999999999
 31
0.0
  0
LINE
  5
334
  8
0
 62
     7
 10
75.488399999999999
 20
100.294
 30
0.0
 11
75.588300000000004
 21
100.393
 31
0.0
  0
LINE
  5
335
  8
0
 62
     7
 10
69.463200000000001
 20
110.919
 30
0.0
 11
76.213200000000001
 21
110.919
 31
0.0
  0
LINE
  5
336
  8
0
 62
     7
 10
76.838200000000001
 20
105.199
 30
0.0
 11
76.838200000000001
 21
110.294
 31
0.0
  0
LINE
  5
337
  8
0
 62
     7
 10
75.588300000000004
 20
101.54300000000001
 30
0.0
 11
75.588300000000004
 21
100.393
 31
0.0
  0
LINE
  5
338
  8
0
 62
     7
 10
75.400899999999993
 20
100.244
 30
0.0
 11
75.400899999999993
 21
97.543700000000015
 31
0.0
  0
LINE
  5
339
  8
0
 62
     7
 10
75.959000000000003
 20
104.81
 30
0.0
 11
75.960400000000007
 21
104.81
 31
0.0
  0
LINE
  5
33A
  8
0
 62
     7
 10
75.960400000000007
 20
104.81
 30
0.0
 11
75.960999999999984
 21
104.81
 31
0.0
  0
LINE
  5
33B
  8
0
 62
     7
 10
75.960999999999984
 20
104.81
 30
0.0
 11
75.961699999999993
 21
104.81
 31
0.0
  0
LINE
  5
33C
  8
0
 62
     7
 10
75.961699999999993
 20
104.81
 30
0.0
 11
75.962400000000002
 21
104.81
 31
0.0
  0
LINE
  5
33D
  8
0
 62
     7
 10
75.962400000000002
 20
104.81
 30
0.0
 11
75.963099999999983
 21
104.81
 31
0.0
  0
LINE
  5
33E
  8
0
 62
     7
 10
75.963099999999983
 20
104.81
 30
0.0
 11
75.963800000000006
 21
104.81
 31
0.0
  0
LINE
  5
33F
  8
0
 62
     7
 10
75.956900000000005
 20
104.81
 30
0.0
 11
75.959000000000003
 21
104.81
 31
0.0
  0
LINE
  5
340
  8
0
 62
     7
 10
69.770200000000003
 20
104.81
 30
0.0
 11
69.782600000000002
 21
104.809
 31
0.0
  0
LINE
  5
341
  8
0
 62
     7
 10
69.758799999999994
 20
104.81
 30
0.0
 11
69.770200000000003
 21
104.81
 31
0.0
  0
LINE
  5
342
  8
0
 62
     7
 10
75.9542
 20
104.81
 30
0.0
 11
75.956900000000005
 21
104.81
 31
0.0
  0
LINE
  5
343
  8
0
 62
     7
 10
69.749200000000002
 20
104.81
 30
0.0
 11
69.758799999999994
 21
104.81
 31
0.0
  0
LINE
  5
344
  8
0
 62
     7
 10
75.951400000000007
 20
104.81
 30
0.0
 11
75.9542
 21
104.81
 31
0.0
  0
LINE
  5
345
  8
0
 62
     7
 10
69.742599999999996
 20
104.81
 30
0.0
 11
69.749200000000002
 21
104.81
 31
0.0
  0
LINE
  5
346
  8
0
 62
     7
 10
75.948300000000003
 20
104.81
 30
0.0
 11
75.951400000000007
 21
104.81
 31
0.0
  0
LINE
  5
347
  8
0
 62
     7
 10
69.736800000000002
 20
104.81
 30
0.0
 11
69.742599999999996
 21
104.81
 31
0.0
  0
LINE
  5
348
  8
0
 62
     7
 10
75.944500000000005
 20
104.81100000000001
 30
0.0
 11
75.948300000000003
 21
104.81
 31
0.0
  0
LINE
  5
349
  8
0
 62
     7
 10
69.7316
 20
104.81100000000001
 30
0.0
 11
69.736800000000002
 21
104.81
 31
0.0
  0
LINE
  5
34A
  8
0
 62
     7
 10
75.940399999999997
 20
104.81100000000001
 30
0.0
 11
75.944500000000005
 21
104.81100000000001
 31
0.0
  0
LINE
  5
34B
  8
0
 62
     7
 10
69.728099999999984
 20
104.81
 30
0.0
 11
69.7316
 21
104.81100000000001
 31
0.0
  0
LINE
  5
34C
  8
0
 62
     7
 10
75.936199999999999
 20
104.81
 30
0.0
 11
75.940399999999997
 21
104.81100000000001
 31
0.0
  0
LINE
  5
34D
  8
0
 62
     7
 10
69.725399999999993
 20
104.81
 30
0.0
 11
69.728099999999984
 21
104.81
 31
0.0
  0
LINE
  5
34E
  8
0
 62
     7
 10
75.928700000000006
 20
104.81
 30
0.0
 11
75.936199999999999
 21
104.81
 31
0.0
  0
LINE
  5
34F
  8
0
 62
     7
 10
69.722999999999999
 20
104.81
 30
0.0
 11
69.725399999999993
 21
104.81
 31
0.0
  0
LINE
  5
350
  8
0
 62
     7
 10
75.920000000000002
 20
104.81
 30
0.0
 11
75.928700000000006
 21
104.81
 31
0.0
  0
LINE
  5
351
  8
0
 62
     7
 10
69.720600000000005
 20
104.81
 30
0.0
 11
69.722999999999999
 21
104.81
 31
0.0
  0
LINE
  5
352
  8
0
 62
     7
 10
75.910399999999996
 20
104.81
 30
0.0
 11
75.920000000000002
 21
104.81
 31
0.0
  0
LINE
  5
353
  8
0
 62
     7
 10
69.718500000000006
 20
104.81
 30
0.0
 11
69.720600000000005
 21
104.81
 31
0.0
  0
LINE
  5
354
  8
0
 62
     7
 10
75.895600000000002
 20
104.809
 30
0.0
 11
75.910399999999996
 21
104.81
 31
0.0
  0
LINE
  5
355
  8
0
 62
     7
 10
69.716800000000006
 20
104.81
 30
0.0
 11
69.718500000000006
 21
104.81
 31
0.0
  0
LINE
  5
356
  8
0
 62
     7
 10
69.715400000000002
 20
104.81
 30
0.0
 11
69.716800000000006
 21
104.81
 31
0.0
  0
LINE
  5
357
  8
0
 62
     7
 10
69.712299999999999
 20
104.81
 30
0.0
 11
69.713000000000008
 21
104.81
 31
0.0
  0
LINE
  5
358
  8
0
 62
     7
 10
69.713000000000008
 20
104.81
 30
0.0
 11
69.713700000000003
 21
104.81
 31
0.0
  0
LINE
  5
359
  8
0
 62
     7
 10
69.713700000000003
 20
104.81
 30
0.0
 11
69.713999999999999
 21
104.81
 31
0.0
  0
LINE
  5
35A
  8
0
 62
     7
 10
69.713999999999999
 20
104.81
 30
0.0
 11
69.714699999999993
 21
104.81
 31
0.0
  0
LINE
  5
35B
  8
0
 62
     7
 10
69.714699999999993
 20
104.81
 30
0.0
 11
69.715400000000002
 21
104.81
 31
0.0
  0
LINE
  5
35C
  8
0
 62
     7
 10
71.802099999999996
 20
103.61799999999999
 30
0.0
 11
71.884100000000004
 21
103.605
 31
0.0
  0
LINE
  5
35D
  8
0
 62
     7
 10
71.884100000000004
 20
103.605
 30
0.0
 11
71.979900000000001
 21
103.592
 31
0.0
  0
LINE
  5
35E
  8
0
 62
     7
 10
71.979900000000001
 20
103.592
 30
0.0
 11
72.075599999999994
 21
103.58
 31
0.0
  0
LINE
  5
35F
  8
0
 62
     7
 10
72.075599999999994
 20
103.58
 30
0.0
 11
72.171800000000005
 21
103.569
 31
0.0
  0
LINE
  5
360
  8
0
 62
     7
 10
72.171800000000005
 20
103.569
 30
0.0
 11
72.267899999999997
 21
103.56
 31
0.0
  0
LINE
  5
361
  8
0
 62
     7
 10
72.267899999999997
 20
103.56
 30
0.0
 11
72.363699999999994
 21
103.553
 31
0.0
  0
LINE
  5
362
  8
0
 62
     7
 10
72.363699999999994
 20
103.553
 30
0.0
 11
72.459400000000002
 21
103.54600000000001
 31
0.0
  0
LINE
  5
363
  8
0
 62
     7
 10
72.459400000000002
 20
103.54600000000001
 30
0.0
 11
72.555199999999999
 21
103.541
 31
0.0
  0
LINE
  5
364
  8
0
 62
     7
 10
72.555199999999999
 20
103.541
 30
0.0
 11
72.65100000000001
 21
103.53700000000001
 31
0.0
  0
LINE
  5
365
  8
0
 62
     7
 10
72.65100000000001
 20
103.53700000000001
 30
0.0
 11
72.746799999999993
 21
103.535
 31
0.0
  0
LINE
  5
366
  8
0
 62
     7
 10
72.746799999999993
 20
103.535
 30
0.0
 11
72.838000000000008
 21
103.535
 31
0.0
  0
LINE
  5
367
  8
0
 62
     7
 10
70.028599999999997
 20
104.798
 30
0.0
 11
70.512600000000006
 21
104.77500000000001
 31
0.0
  0
LINE
  5
368
  8
0
 62
     7
 10
69.930000000000007
 20
104.803
 30
0.0
 11
70.028599999999997
 21
104.798
 31
0.0
  0
LINE
  5
369
  8
0
 62
     7
 10
69.869399999999999
 20
104.806
 30
0.0
 11
69.930000000000007
 21
104.803
 31
0.0
  0
LINE
  5
36A
  8
0
 62
     7
 10
72.186199999999999
 20
104.70099999999999
 30
0.0
 11
72.353700000000003
 21
104.69199999999999
 31
0.0
  0
LINE
  5
36B
  8
0
 62
     7
 10
70.512600000000006
 20
104.77500000000001
 30
0.0
 11
71.582599999999999
 21
104.727
 31
0.0
  0
LINE
  5
36C
  8
0
 62
     7
 10
72.031499999999994
 20
104.70699999999999
 30
0.0
 11
72.186199999999999
 21
104.70099999999999
 31
0.0
  0
LINE
  5
36D
  8
0
 62
     7
 10
71.842100000000002
 20
104.71599999999999
 30
0.0
 11
72.031499999999994
 21
104.70699999999999
 31
0.0
  0
LINE
  5
36E
  8
0
 62
     7
 10
71.582599999999999
 20
104.727
 30
0.0
 11
71.842100000000002
 21
104.71599999999999
 31
0.0
  0
LINE
  5
36F
  8
0
 62
     7
 10
69.829400000000007
 20
104.80800000000001
 30
0.0
 11
69.869399999999999
 21
104.806
 31
0.0
  0
LINE
  5
370
  8
0
 62
     7
 10
69.8005
 20
104.809
 30
0.0
 11
69.829400000000007
 21
104.80800000000001
 31
0.0
  0
LINE
  5
371
  8
0
 62
     7
 10
69.782600000000002
 20
104.809
 30
0.0
 11
69.8005
 21
104.809
 31
0.0
  0
LINE
  5
372
  8
0
 62
     7
 10
72.838000000000008
 20
103.535
 30
0.0
 11
72.929299999999998
 21
103.535
 31
0.0
  0
LINE
  5
373
  8
0
 62
     7
 10
72.929299999999998
 20
103.535
 30
0.0
 11
73.024799999999999
 21
103.53700000000001
 31
0.0
  0
LINE
  5
374
  8
0
 62
     7
 10
73.024799999999999
 20
103.53700000000001
 30
0.0
 11
73.120900000000006
 21
103.541
 31
0.0
  0
LINE
  5
375
  8
0
 62
     7
 10
73.120900000000006
 20
103.541
 30
0.0
 11
73.216700000000003
 21
103.54600000000001
 31
0.0
  0
LINE
  5
376
  8
0
 62
     7
 10
73.216700000000003
 20
103.54600000000001
 30
0.0
 11
73.312399999999997
 21
103.553
 31
0.0
  0
LINE
  5
377
  8
0
 62
     7
 10
73.312399999999997
 20
103.553
 30
0.0
 11
73.408199999999994
 21
103.56
 31
0.0
  0
LINE
  5
378
  8
0
 62
     7
 10
73.408199999999994
 20
103.56
 30
0.0
 11
73.504300000000001
 21
103.569
 31
0.0
  0
LINE
  5
379
  8
0
 62
     7
 10
73.504300000000001
 20
103.569
 30
0.0
 11
73.600099999999983
 21
103.58
 31
0.0
  0
LINE
  5
37A
  8
0
 62
     7
 10
73.600099999999983
 20
103.58
 30
0.0
 11
73.696200000000005
 21
103.592
 31
0.0
  0
LINE
  5
37B
  8
0
 62
     7
 10
73.696200000000005
 20
103.592
 30
0.0
 11
73.792000000000002
 21
103.605
 31
0.0
  0
LINE
  5
37C
  8
0
 62
     7
 10
73.792000000000002
 20
103.605
 30
0.0
 11
73.874300000000005
 21
103.61799999999999
 31
0.0
  0
LINE
  5
37D
  8
0
 62
     7
 10
75.878399999999985
 20
104.809
 30
0.0
 11
75.895600000000002
 21
104.809
 31
0.0
  0
LINE
  5
37E
  8
0
 62
     7
 10
75.852500000000006
 20
104.80800000000001
 30
0.0
 11
75.878399999999985
 21
104.809
 31
0.0
  0
LINE
  5
37F
  8
0
 62
     7
 10
75.815700000000007
 20
104.807
 30
0.0
 11
75.852500000000006
 21
104.80800000000001
 31
0.0
  0
LINE
  5
380
  8
0
 62
     7
 10
74.078599999999994
 20
104.727
 30
0.0
 11
74.412800000000004
 21
104.741
 31
0.0
  0
LINE
  5
381
  8
0
 62
     7
 10
74.412800000000004
 20
104.741
 30
0.0
 11
74.973699999999994
 21
104.76600000000001
 31
0.0
  0
LINE
  5
382
  8
0
 62
     7
 10
73.860200000000006
 20
104.717
 30
0.0
 11
74.078599999999994
 21
104.727
 31
0.0
  0
LINE
  5
383
  8
0
 62
     7
 10
75.763300000000001
 20
104.804
 30
0.0
 11
75.815700000000007
 21
104.807
 31
0.0
  0
LINE
  5
384
  8
0
 62
     7
 10
73.685900000000004
 20
104.70999999999999
 30
0.0
 11
73.860200000000006
 21
104.717
 31
0.0
  0
LINE
  5
385
  8
0
 62
     7
 10
73.506399999999999
 20
104.70099999999999
 30
0.0
 11
73.685900000000004
 21
104.70999999999999
 31
0.0
  0
LINE
  5
386
  8
0
 62
     7
 10
74.973699999999994
 20
104.76600000000001
 30
0.0
 11
75.356399999999994
 21
104.78400000000001
 31
0.0
  0
LINE
  5
387
  8
0
 62
     7
 10
73.325500000000005
 20
104.693
 30
0.0
 11
73.506399999999999
 21
104.70099999999999
 31
0.0
  0
LINE
  5
388
  8
0
 62
     7
 10
75.681299999999993
 20
104.8
 30
0.0
 11
75.763300000000001
 21
104.804
 31
0.0
  0
LINE
  5
389
  8
0
 62
     7
 10
75.356399999999994
 20
104.78400000000001
 30
0.0
 11
75.423299999999983
 21
104.78700000000001
 31
0.0
  0
LINE
  5
38A
  8
0
 62
     7
 10
75.423299999999983
 20
104.78700000000001
 30
0.0
 11
75.454599999999999
 21
104.789
 31
0.0
  0
LINE
  5
38B
  8
0
 62
     7
 10
75.454599999999999
 20
104.789
 30
0.0
 11
75.681299999999993
 21
104.8
 31
0.0
  0
LINE
  5
38C
  8
0
 62
     7
 10
70.275599999999997
 20
100.244
 30
0.0
 11
70.275599999999997
 21
97.543700000000015
 31
0.0
  0
LINE
  5
38D
  8
0
 62
     7
 10
70.088200000000001
 20
101.54300000000001
 30
0.0
 11
70.088200000000001
 21
100.393
 31
0.0
  0
LINE
  5
38E
  8
0
 62
     7
 10
68.837900000000005
 20
110.294
 30
0.0
 11
68.837900000000005
 21
105.199
 31
0.0
  0
LINE
  5
38F
  8
0
 62
     7
 10
70.188100000000006
 20
100.294
 30
0.0
 11
70.088200000000001
 21
100.393
 31
0.0
  0
LINE
  5
390
  8
0
 62
     7
 10
104.83799999999999
 20
102.119
 30
0.0
 11
104.96299999999999
 21
102.119
 31
0.0
  0
LINE
  5
391
  8
0
 62
     7
 10
40.83809999999999
 20
102.119
 30
0.0
 11
40.712999999999987
 21
102.119
 31
0.0
  0
LINE
  5
392
  8
0
 62
     7
 10
105.113
 20
101.54300000000001
 30
0.0
 11
109.539
 21
101.54300000000001
 31
0.0
  0
LINE
  5
393
  8
0
 62
     7
 10
103.089
 20
101.54300000000001
 30
0.0
 11
104.71299999999999
 21
101.54300000000001
 31
0.0
  0
LINE
  5
394
  8
0
 62
     7
 10
96.900800000000004
 20
101.54300000000001
 30
0.0
 11
102.58799999999999
 21
101.54300000000001
 31
0.0
  0
LINE
  5
395
  8
0
 62
     7
 10
95.413200000000003
 20
101.54300000000001
 30
0.0
 11
96.763400000000004
 21
101.54300000000001
 31
0.0
  0
LINE
  5
396
  8
0
 62
     7
 10
40.962800000000001
 20
101.54300000000001
 30
0.0
 11
70.088200000000001
 21
101.54300000000001
 31
0.0
  0
LINE
  5
397
  8
0
 62
     7
 10
40.563200000000002
 20
101.54300000000001
 30
0.0
 11
36.137900000000002
 21
101.54300000000001
 31
0.0
  0
LINE
  5
398
  8
0
 62
     7
 10
95.275800000000004
 20
101.54300000000001
 30
0.0
 11
75.588300000000004
 21
101.54300000000001
 31
0.0
  0
LINE
  5
399
  8
0
 62
     7
 10
75.588300000000004
 20
100.393
 30
0.0
 11
70.088200000000001
 21
100.393
 31
0.0
  0
LINE
  5
39A
  8
0
 62
     7
 10
70.188100000000006
 20
100.294
 30
0.0
 11
75.488399999999999
 21
100.294
 31
0.0
  0
LINE
  5
39B
  8
0
 62
     7
 10
70.275599999999997
 20
97.543700000000015
 30
0.0
 11
70.525700000000001
 21
97.293599999999984
 31
0.0
  0
LINE
  5
39C
  8
0
 62
     7
 10
75.400899999999993
 20
97.543700000000015
 30
0.0
 11
70.275599999999997
 21
97.543700000000015
 31
0.0
  0
LINE
  5
39D
  8
0
 62
     7
 10
75.150800000000004
 20
97.293599999999984
 30
0.0
 11
70.525700000000001
 21
97.293599999999984
 31
0.0
  0
LINE
  5
39E
  8
0
 62
     7
 10
40.83809999999999
 20
112.919
 30
0.0
 11
40.83809999999999
 21
101.669
 31
0.0
  0
LINE
  5
39F
  8
0
 62
     7
 10
40.637900000000002
 20
112.96899999999999
 30
0.0
 11
40.637900000000002
 21
101.619
 31
0.0
  0
LINE
  5
3A0
  8
0
 62
     7
 10
37.888000000000012
 20
113.71599999999999
 30
0.0
 11
37.888000000000012
 21
116.294
 31
0.0
  0
LINE
  5
3A1
  8
0
 62
     7
 10
35.888100000000001
 20
101.794
 30
0.0
 11
35.888100000000001
 21
116.294
 31
0.0
  0
LINE
  5
3A2
  8
0
 62
     7
 10
26.282499999999999
 20
109.505
 30
0.0
 11
26.875
 21
107.29300000000001
 31
0.0
  0
LINE
  5
3A3
  8
0
 62
     7
 10
26.875
 20
107.29300000000001
 30
0.0
 11
27.467600000000001
 21
109.505
 31
0.0
  0
LINE
  5
3A4
  8
0
 62
     7
 10
27.467600000000001
 20
109.505
 30
0.0
 11
26.282499999999999
 21
109.505
 31
0.0
  0
LINE
  5
3A5
  8
0
 62
     7
 10
26.2897
 20
99.503900000000002
 30
0.0
 11
26.882300000000001
 21
97.292199999999994
 31
0.0
  0
LINE
  5
3A6
  8
0
 62
     7
 10
26.882300000000001
 20
97.292199999999994
 30
0.0
 11
27.474799999999998
 21
99.503900000000002
 31
0.0
  0
LINE
  5
3A7
  8
0
 62
     7
 10
27.474799999999998
 20
99.503900000000002
 30
0.0
 11
26.2897
 21
99.503900000000002
 31
0.0
  0
LINE
  5
3A8
  8
0
 62
     7
 10
27.467600000000001
 20
105.08199999999999
 30
0.0
 11
26.875
 21
107.29300000000001
 31
0.0
  0
LINE
  5
3A9
  8
0
 62
     7
 10
26.875
 20
107.29300000000001
 30
0.0
 11
26.282499999999999
 21
105.08199999999999
 31
0.0
  0
LINE
  5
3AA
  8
0
 62
     7
 10
26.282499999999999
 20
105.08199999999999
 30
0.0
 11
27.467600000000001
 21
105.08199999999999
 31
0.0
  0
LINE
  5
3AB
  8
0
 62
     7
 10
27.467600000000001
 20
114.33199999999999
 30
0.0
 11
26.875
 21
116.544
 31
0.0
  0
LINE
  5
3AC
  8
0
 62
     7
 10
26.875
 20
116.544
 30
0.0
 11
26.282499999999999
 21
114.33199999999999
 31
0.0
  0
LINE
  5
3AD
  8
0
 62
     7
 10
26.282499999999999
 20
114.33199999999999
 30
0.0
 11
27.467600000000001
 21
114.33199999999999
 31
0.0
  0
LINE
  5
3AE
  8
0
 62
     7
 10
26.875
 20
97.293599999999984
 30
0.0
 11
26.875
 21
116.544
 31
0.0
  0
LINE
  5
3AF
  8
0
 62
     7
 10
35.065399999999997
 20
116.544
 30
0.0
 11
26.175000000000001
 21
116.544
 31
0.0
  0
LINE
  5
3B0
  8
0
 62
     7
 10
32.210500000000003
 20
107.29300000000001
 30
0.0
 11
26.175000000000001
 21
107.29300000000001
 31
0.0
  0
LINE
  5
3B1
  8
0
 62
     7
 10
69.575500000000005
 20
97.293599999999984
 30
0.0
 11
26.175000000000001
 21
97.293599999999984
 31
0.0
  0
LINE
  5
3B2
  8
0
 62
     7
 10
37.399500000000003
 20
175.84999999999999
 30
0.0
 11
37.68460000000001
 21
178.12200000000001
 31
0.0
  0
LINE
  5
3B3
  8
0
 62
     7
 10
37.68460000000001
 20
178.12200000000001
 30
0.0
 11
36.30190000000001
 21
176.29599999999999
 31
0.0
  0
LINE
  5
3B4
  8
0
 62
     7
 10
36.30190000000001
 20
176.29599999999999
 30
0.0
 11
37.399500000000003
 21
175.84999999999999
 31
0.0
  0
LINE
  5
3B5
  8
0
 62
     7
 10
37.68460000000001
 20
178.12200000000001
 30
0.0
 11
33.0321
 21
166.6929999999999
 31
0.0
  0
LINE
  5
3B6
  8
0
 62
     7
 10
56.298699999999997
 20
125.157
 30
0.0
 11
54.086999999999989
 21
124.56399999999999
 31
0.0
  0
LINE
  5
3B7
  8
0
 62
     7
 10
54.086999999999989
 20
124.56399999999999
 30
0.0
 11
56.298699999999997
 21
123.97199999999999
 31
0.0
  0
LINE
  5
3B8
  8
0
 62
     7
 10
56.298699999999997
 20
123.97199999999999
 30
0.0
 11
56.298699999999997
 21
125.157
 31
0.0
  0
LINE
  5
3B9
  8
0
 62
     7
 10
89.378100000000003
 20
123.986
 30
0.0
 11
91.589799999999997
 21
124.57899999999999
 31
0.0
  0
LINE
  5
3BA
  8
0
 62
     7
 10
91.589799999999997
 20
124.57899999999999
 30
0.0
 11
89.378100000000003
 21
125.172
 31
0.0
  0
LINE
  5
3BB
  8
0
 62
     7
 10
89.378100000000003
 20
125.172
 30
0.0
 11
89.378100000000003
 21
123.986
 31
0.0
  0
LINE
  5
3BC
  8
0
 62
     7
 10
54.088299999999997
 20
124.572
 30
0.0
 11
91.588399999999993
 21
124.572
 31
0.0
  0
LINE
  5
3BD
  8
0
 62
     7
 10
91.588399999999993
 20
125.27200000000001
 30
0.0
 11
91.588399999999993
 21
117.68899999999999
 31
0.0
  0
LINE
  5
3BE
  8
0
 62
     7
 10
54.088299999999997
 20
125.264
 30
0.0
 11
54.088299999999997
 21
117.68899999999999
 31
0.0
  0
LINE
  5
3BF
  8
0
 62
     7
 10
77.668099999999995
 20
86.677400000000006
 30
0.0
 11
75.456299999999999
 21
86.084900000000005
 31
0.0
  0
LINE
  5
3C0
  8
0
 62
     7
 10
75.456299999999999
 20
86.084900000000005
 30
0.0
 11
77.668099999999995
 21
85.492299999999986
 31
0.0
  0
LINE
  5
3C1
  8
0
 62
     7
 10
77.668099999999995
 20
85.492299999999986
 30
0.0
 11
77.668099999999995
 21
86.677400000000006
 31
0.0
  0
LINE
  5
3C2
  8
0
 62
     7
 10
68.007999999999996
 20
85.492299999999986
 30
0.0
 11
70.219800000000006
 21
86.084900000000005
 31
0.0
  0
LINE
  5
3C3
  8
0
 62
     7
 10
70.219800000000006
 20
86.084900000000005
 30
0.0
 11
68.007999999999996
 21
86.677400000000006
 31
0.0
  0
LINE
  5
3C4
  8
0
 62
     7
 10
68.007999999999996
 20
86.677400000000006
 30
0.0
 11
68.007999999999996
 21
85.492299999999986
 31
0.0
  0
LINE
  5
3C5
  8
0
 62
     7
 10
66.605500000000006
 20
86.084900000000005
 30
0.0
 11
85.274900000000002
 21
86.084900000000005
 31
0.0
  0
LINE
  5
3C6
  8
0
 62
     7
 10
75.456299999999999
 20
96.468100000000021
 30
0.0
 11
75.456299999999999
 21
85.384799999999984
 31
0.0
  0
LINE
  5
3C7
  8
0
 62
     7
 10
70.219800000000006
 20
96.468100000000021
 30
0.0
 11
70.219800000000006
 21
85.384799999999984
 31
0.0
  0
LINE
  5
3C8
  8
0
 62
     7
 10
126.065
 20
78.054599999999994
 30
0.0
 11
123.855
 21
77.462400000000002
 31
0.0
  0
LINE
  5
3C9
  8
0
 62
     7
 10
123.855
 20
77.462400000000002
 30
0.0
 11
126.065
 21
76.870199999999997
 31
0.0
  0
LINE
  5
3CA
  8
0
 62
     7
 10
126.065
 20
76.870199999999997
 30
0.0
 11
126.065
 21
78.054599999999994
 31
0.0
  0
LINE
  5
3CB
  8
0
 62
     7
 10
169.64400000000001
 20
76.884699999999995
 30
0.0
 11
171.85499999999999
 21
77.476900000000001
 31
0.0
  0
LINE
  5
3CC
  8
0
 62
     7
 10
171.85499999999999
 20
77.476900000000001
 30
0.0
 11
169.64400000000001
 21
78.069100000000006
 31
0.0
  0
LINE
  5
3CD
  8
0
 62
     7
 10
169.64400000000001
 20
78.069100000000006
 30
0.0
 11
169.64400000000001
 21
76.884699999999995
 31
0.0
  0
LINE
  5
3CE
  8
0
 62
     7
 10
123.855
 20
77.469700000000003
 30
0.0
 11
171.85499999999999
 21
77.469700000000003
 31
0.0
  0
LINE
  5
3CF
  8
0
 62
     7
 10
123.855
 20
76.769599999999997
 30
0.0
 11
123.855
 21
101.20399999999999
 31
0.0
  0
LINE
  5
3D0
  8
0
 62
     7
 10
171.85499999999999
 20
76.769599999999997
 30
0.0
 11
171.85499999999999
 21
98.468999999999994
 31
0.0
  0
LINE
  5
3D1
  8
0
 62
     7
 10
38.098500000000001
 20
78.054599999999994
 30
0.0
 11
35.888100000000001
 21
77.462400000000002
 31
0.0
  0
LINE
  5
3D2
  8
0
 62
     7
 10
35.888100000000001
 20
77.462400000000002
 30
0.0
 11
38.098500000000001
 21
76.870199999999997
 31
0.0
  0
LINE
  5
3D3
  8
0
 62
     7
 10
38.098500000000001
 20
76.870199999999997
 30
0.0
 11
38.098500000000001
 21
78.054599999999994
 31
0.0
  0
LINE
  5
3D4
  8
0
 62
     7
 10
107.578
 20
76.884699999999995
 30
0.0
 11
109.788
 21
77.476900000000001
 31
0.0
  0
LINE
  5
3D5
  8
0
 62
     7
 10
109.788
 20
77.476900000000001
 30
0.0
 11
107.578
 21
78.069100000000006
 31
0.0
  0
LINE
  5
3D6
  8
0
 62
     7
 10
107.578
 20
78.069100000000006
 30
0.0
 11
107.578
 21
76.884699999999995
 31
0.0
  0
LINE
  5
3D7
  8
0
 62
     7
 10
35.888100000000001
 20
77.469700000000003
 30
0.0
 11
109.788
 21
77.469700000000003
 31
0.0
  0
LINE
  5
3D8
  8
0
 62
     7
 10
35.888100000000001
 20
76.769599999999997
 30
0.0
 11
35.888100000000001
 21
100.803
 31
0.0
  0
LINE
  5
3D9
  8
0
 62
     7
 10
109.788
 20
76.769599999999997
 30
0.0
 11
109.788
 21
100.74299999999999
 31
0.0
  0
LINE
  5
3DA
  8
0
 62
     7
 10
152.69
 20
86.669799999999995
 30
0.0
 11
150.47999999999999
 21
86.077600000000004
 31
0.0
  0
LINE
  5
3DB
  8
0
 62
     7
 10
150.47999999999999
 20
86.077600000000004
 30
0.0
 11
152.69
 21
85.485399999999998
 31
0.0
  0
LINE
  5
3DC
  8
0
 62
     7
 10
152.69
 20
85.485399999999998
 30
0.0
 11
152.69
 21
86.669799999999995
 31
0.0
  0
LINE
  5
3DD
  8
0
 62
     7
 10
169.64400000000001
 20
85.499899999999997
 30
0.0
 11
171.85499999999999
 21
86.092100000000002
 31
0.0
  0
LINE
  5
3DE
  8
0
 62
     7
 10
171.85499999999999
 20
86.092100000000002
 30
0.0
 11
169.64400000000001
 21
86.684299999999979
 31
0.0
  0
LINE
  5
3DF
  8
0
 62
     7
 10
169.64400000000001
 20
86.684299999999979
 30
0.0
 11
169.64400000000001
 21
85.499899999999997
 31
0.0
  0
LINE
  5
3E0
  8
0
 62
     7
 10
150.47999999999999
 20
86.084900000000005
 30
0.0
 11
171.85499999999999
 21
86.084900000000005
 31
0.0
  0
LINE
  5
3E1
  8
0
 62
     7
 10
150.47999999999999
 20
85.384799999999984
 30
0.0
 11
150.47999999999999
 21
94.766199999999998
 31
0.0
  0
LINE
  5
3E2
  8
0
  6
AIGENLINE001
 62
     7
 10
142.76599999999999
 20
107.29300000000001
 30
0.0
 11
176.69200000000001
 21
107.29300000000001
 31
0.0
  0
LINE
  5
3E3
  8
0
 62
     7
 10
175.11000000000001
 20
109.919
 30
0.0
 11
175.36000000000001
 21
109.66800000000001
 31
0.0
  0
LINE
  5
3E4
  8
0
 62
     7
 10
171.85499999999999
 20
109.919
 30
0.0
 11
175.11000000000001
 21
109.919
 31
0.0
  0
LINE
  5
3E5
  8
0
 62
     7
 10
175.11000000000001
 20
104.66800000000001
 30
0.0
 11
175.11000000000001
 21
109.919
 31
0.0
  0
LINE
  5
3E6
  8
0
 62
     7
 10
175.36000000000001
 20
104.91800000000001
 30
0.0
 11
175.36000000000001
 21
109.66800000000001
 31
0.0
  0
LINE
  5
3E7
  8
0
 62
     7
 10
171.85499999999999
 20
109.66800000000001
 30
0.0
 11
175.36000000000001
 21
109.66800000000001
 31
0.0
  0
LINE
  5
3E8
  8
0
 62
     7
 10
171.85499999999999
 20
104.91800000000001
 30
0.0
 11
175.36000000000001
 21
104.91800000000001
 31
0.0
  0
LINE
  5
3E9
  8
0
 62
     7
 10
171.85499999999999
 20
104.66800000000001
 30
0.0
 11
175.11000000000001
 21
104.66800000000001
 31
0.0
  0
LINE
  5
3EA
  8
0
 62
     7
 10
175.11000000000001
 20
104.66800000000001
 30
0.0
 11
175.36000000000001
 21
104.91800000000001
 31
0.0
  0
LINE
  5
3EB
  8
_________2
 62
     7
 10
205.30099999999999
 20
127.411
 30
0.0
 11
183.55000000000001
 21
127.411
 31
0.0
  0
LINE
  5
3EC
  8
_________2
 62
     7
 10
100.3
 20
-4.0910799999999998
 30
0.0
 11
100.3
 21
-21.071400000000001
 31
0.0
  0
LINE
  5
3ED
  8
_________2
 62
     7
 10
100.3
 20
275.93099999999998
 30
0.0
 11
100.3
 21
258.911
 31
0.0
  0
LINE
  5
3EE
  8
_________2
 62
     7
 10
17.049499999999998
 20
127.411
 30
0.0
 11
-4.70052
 21
127.411
 31
0.0
  0
LINE
  5
3EF
  8
_________2
 62
     7
 10
76.741
 20
29.8047
 30
0.0
 11
74.554699999999997
 21
29.8047
 31
0.0
  0
LINE
  5
3F0
  8
_________2
 62
     7
 10
77.233699999999999
 20
29.8047
 30
0.0
 11
76.981499999999997
 21
29.8047
 31
0.0
  0
LINE
  5
3F1
  8
_________2
 62
     7
 10
77.726299999999995
 20
29.8047
 30
0.0
 11
80.651200000000003
 21
29.8047
 31
0.0
  0
LINE
  5
3F2
  8
_________2
 62
     7
 10
77.233699999999999
 20
29.8047
 30
0.0
 11
77.485500000000002
 21
29.8047
 31
0.0
  0
LINE
  5
3F3
  8
_________2
 62
     7
 10
70.837100000000007
 20
29.8047
 30
0.0
 11
68.650499999999994
 21
29.8047
 31
0.0
  0
LINE
  5
3F4
  8
_________2
 62
     7
 10
71.329400000000007
 20
29.8047
 30
0.0
 11
71.077600000000004
 21
29.8047
 31
0.0
  0
LINE
  5
3F5
  8
_________2
 62
     7
 10
71.329400000000007
 20
30.2974
 30
0.0
 11
71.329400000000007
 21
32.484400000000001
 31
0.0
  0
LINE
  5
3F6
  8
_________2
 62
     7
 10
71.329400000000007
 20
29.8047
 30
0.0
 11
71.329400000000007
 21
30.056899999999999
 31
0.0
  0
LINE
  5
3F7
  8
_________2
 62
     7
 10
71.822100000000006
 20
29.8047
 30
0.0
 11
74.009
 21
29.8047
 31
0.0
  0
LINE
  5
3F8
  8
_________2
 62
     7
 10
71.329400000000007
 20
29.8047
 30
0.0
 11
71.581599999999995
 21
29.8047
 31
0.0
  0
LINE
  5
3F9
  8
_________2
 62
     7
 10
71.329400000000007
 20
29.312799999999999
 30
0.0
 11
71.329400000000007
 21
27.125800000000002
 31
0.0
  0
LINE
  5
3FA
  8
_________2
 62
     7
 10
71.329400000000007
 20
29.8047
 30
0.0
 11
71.329400000000007
 21
29.5532
 31
0.0
  0
LINE
  5
3FB
  8
_________2
 62
     7
 10
75.040499999999994
 20
28.5852
 30
0.0
 11
80.218500000000006
 21
27.720400000000001
 31
0.0
  0
LINE
  5
3FC
  8
_________2
 62
     7
 10
75.040499999999994
 20
31.0243
 30
0.0
 11
80.218500000000006
 21
31.889700000000001
 31
0.0
  0
LINE
  5
3FD
  8
_________2
 62
     7
 10
80.218500000000006
 20
27.720400000000001
 30
0.0
 11
80.218500000000006
 21
31.889700000000001
 31
0.0
  0
LINE
  5
3FE
  8
_________2
 62
     7
 10
75.040499999999994
 20
28.5852
 30
0.0
 11
75.040499999999994
 21
31.0243
 31
0.0
  0
ARC
  5
3FF
  8
_________2
 62
     7
 10
71.28285600000001
 20
29.757811
 30
0.0
 40
1.2673589999999999
 50
2.122214
 51
87.893958999999995
  0
ARC
  5
400
  8
_________2
 62
     7
 10
71.375959999999992
 20
29.758213000000001
 30
0.0
 40
1.2669559999999991
 50
92.104701000000006
 51
177.89526900000001
  0
ARC
  5
401
  8
_________2
 62
     7
 10
71.376357999999996
 20
29.851671
 30
0.0
 40
1.2673680000000001
 50
182.12203600000001
 51
267.877993
  0
ARC
  5
402
  8
_________2
 62
     7
 10
71.282531999999989
 20
29.851998999999999
 30
0.0
 40
1.267695999999999
 50
272.12015300000002
 51
357.863674
  0
ARC
  5
403
  8
_________2
 62
     7
 10
71.329430000000002
 20
29.804742999999998
 30
0.0
 40
2.0849849999999992
 50
0.00001
 51
89.999980000000008
  0
ARC
  5
404
  8
_________2
 62
     7
 10
71.329603000000006
 20
29.804915000000001
 30
0.0
 40
2.084813
 50
90.004733999999999
 51
180.00474399999999
  0
ARC
  5
405
  8
_________2
 62
     7
 10
71.409106000000008
 20
29.884775999999999
 30
0.0
 40
2.1657950000000001
 50
182.11776599999999
 51
267.89173399999999
  0
ARC
  5
406
  8
_________2
 62
     7
 10
71.249459000000002
 20
29.885429999999999
 30
0.0
 40
2.1664590000000001
 50
272.11546800000002
 51
357.86560400000002
  0
TEXT
  5
407
  8
_________2
 62
     7
 10
104.605
 20
1.6794899999999999
 30
0.0
 40
3.0923400000000001
  1
図番
 41
0.5
  0
LINE
  5
408
  8
_________2
 62
     7
 10
103.55
 20
5.9087199999999989
 30
0.0
 11
183.55099999999999
 21
5.9087199999999989
 31
0.0
  0
TEXT
  5
409
  8
_________2
 62
     7
 10
104.605
 20
11.6793
 30
0.0
 40
3.0923400000000001
  1
品番
 41
0.5
  0
TEXT
  5
40A
  8
_________2
 62
     7
 10
104.605
 20
31.818100000000001
 30
0.0
 40
3.0923400000000001
  1
名称
 41
0.5
  0
TEXT
  5
40B
  8
_________2
 62
     7
 10
91.845058333333341
 20
26.821999999999999
 30
0.0
 40
3.6545800000000002
  1
mm
 41
0.5
 72
     1
 11
93.367800000000003
 21
26.821999999999999
 31
0.0
  0
TEXT
  5
40C
  8
_________2
 62
     7
 10
85.643199999999993
 20
31.818100000000001
 30
0.0
 40
3.0923400000000001
  1
単位
 41
0.5
  0
TEXT
  5
40D
  8
_________2
 62
     7
 10
85.643199999999993
 20
19.410799999999998
 30
0.0
 40
3.0923400000000001
  1
尺度
 41
0.5
  0
TEXT
  5
40E
  8
_________2
 62
     7
 10
90.548758666666686
 20
13.2179
 30
0.0
 40
3.6545800000000002
  1
1 ： 4
 41
0.5
 72
     1
 11
93.959699999999998
 21
13.2179
 31
0.0
  0
TEXT
  5
40F
  8
_________2
 62
     7
 10
135.35062500000001
 20
9.1078600000000005
 30
0.0
 40
3.9357000000000002
  1
KW0192503
 41
0.5
 72
     1
 11
143.55000000000001
 21
9.1078600000000005
 31
0.0
  0
TEXT
  5
410
  8
_________2
 62
     7
 10
135.35062500000001
 20
-0.8926299999999999
 30
0.0
 40
3.9357000000000002
  1
KW0192503
 41
0.5
 72
     1
 11
143.55000000000001
 21
-0.8926299999999999
 31
0.0
  0
TEXT
  5
411
  8
_________2
 62
     7
 10
24.587599999999998
 20
0.709005
 30
0.0
 40
3.9357000000000002
  1
（社）日本水道協会認証品、逆止弁付
 41
0.5
  0
TEXT
  5
412
  8
_________2
 62
     7
 10
109.179
 20
24.2257
 30
0.0
 40
3.9357000000000002
  1
アヴァ　サーモスタット式シャワバス用湯水混合栓（JW）
 41
0.5
  0
TEXT
  5
413
  8
_________2
 62
     7
 10
39.364390666666672
 20
13.603
 30
0.0
 40
3.6545800000000002
  1
篠崎
 41
0.5
 72
     1
 11
41.313499999999998
 21
13.603
 31
0.0
  0
TEXT
  5
414
  8
_________2
 62
     7
 10
20.790090666666661
 20
13.603
 30
0.0
 40
3.6545800000000002
  1
近藤
 41
0.5
 72
     1
 11
22.7392
 21
13.603
 31
0.0
  0
TEXT
  5
415
  8
_________2
 62
     7
 10
67.785399999999996
 20
13.2179
 30
0.0
 40
3.6545800000000002
  1
16.08.08
 41
0.5
  0
TEXT
  5
416
  8
_________2
 62
     7
 10
66.593100000000007
 20
19.410799999999998
 30
0.0
 40
3.0923400000000001
  1
日付
 41
0.5
  0
TEXT
  5
417
  8
_________2
 62
     7
 10
29.639399999999998
 20
19.410799999999998
 30
0.0
 40
3.0923400000000001
  1
検図
 41
0.5
  0
TEXT
  5
418
  8
_________2
 62
     7
 10
18.021100000000001
 20
5.21143
 30
0.0
 40
3.0923400000000001
  1
備考
 41
0.5
  0
TEXT
  5
419
  8
_________2
 62
     7
 10
18.021100000000001
 20
19.410799999999998
 30
0.0
 40
3.0923400000000001
  1
製図
 41
0.5
  0
TEXT
  5
41A
  8
_________2
 62
     7
 10
23.788465333333338
 20
27.936800000000002
 30
0.0
 40
4.4979399999999989
  1
セラトレーディング株式会社
 41
0.5
 72
     1
 11
41.180500000000002
 21
27.936800000000002
 31
0.0
  0
LINE
  5
41B
  8
_________2
 62
     7
 10
183.55099999999999
 20
-4.0910799999999998
 30
0.0
 11
17.049499999999998
 21
-4.0910799999999998
 31
0.0
  0
LINE
  5
41C
  8
_________2
 62
     7
 10
17.049499999999998
 20
-4.0910799999999998
 30
0.0
 11
17.049499999999998
 21
258.911
 31
0.0
  0
LINE
  5
41D
  8
_________2
 62
     7
 10
17.049499999999998
 20
258.911
 30
0.0
 11
183.55099999999999
 21
258.911
 31
0.0
  0
LINE
  5
41E
  8
_________2
 62
     7
 10
183.55099999999999
 20
258.911
 30
0.0
 11
183.55099999999999
 21
-4.0910799999999998
 31
0.0
  0
LINE
  5
41F
  8
_________2
 62
     7
 10
65.549599999999998
 20
9.4089600000000004
 30
0.0
 11
65.549599999999998
 21
35.908799999999999
 31
0.0
  0
LINE
  5
420
  8
_________2
 62
     7
 10
84.549700000000016
 20
9.4089600000000004
 30
0.0
 11
84.549700000000016
 21
35.908799999999999
 31
0.0
  0
LINE
  5
421
  8
_________2
 62
     7
 10
103.55
 20
-4.0910799999999998
 30
0.0
 11
103.55
 21
35.908799999999999
 31
0.0
  0
LINE
  5
422
  8
_________2
 62
     7
 10
28.549299999999999
 20
9.4089600000000004
 30
0.0
 11
28.549299999999999
 21
23.409199999999998
 31
0.0
  0
LINE
  5
423
  8
_________2
 62
     7
 10
17.049499999999998
 20
9.4089600000000004
 30
0.0
 11
103.55
 21
9.4089600000000004
 31
0.0
  0
LINE
  5
424
  8
_________2
 62
     7
 10
17.049499999999998
 20
23.409199999999998
 30
0.0
 11
103.55
 21
23.409199999999998
 31
0.0
  0
LINE
  5
425
  8
_________2
 62
     7
 10
103.55
 20
15.9085
 30
0.0
 11
183.55099999999999
 21
15.9085
 31
0.0
  0
LINE
  5
426
  8
_________2
 62
     7
 10
17.049499999999998
 20
35.908799999999999
 30
0.0
 11
183.55099999999999
 21
35.908799999999999
 31
0.0
  0
ENDSEC
  0
EOF
