  0
SECTION
  2
HEADER
  9
$ACADVER
  1
AC1009
  9
$INSBASE
 10
0.0
 20
0.0
 30
0.0
  9
$EXTMIN
 10
-104.794
 20
0.176045
 30
0.0
  9
$EXTMAX
 10
315.209
 20
297.178
 30
0.0
  9
$LIMMIN
 10
0.0
 20
0.0
  9
$LIMMAX
 10
12.0
 20
9.0
  9
$ORTHOMODE
 70
     0
  9
$REGENMODE
 70
     1
  9
$FILLMODE
 70
     1
  9
$QTEXTMODE
 70
     0
  9
$MIRRTEXT
 70
     1
  9
$DRAGMODE
 70
     2
  9
$LTSCALE
 40
1.0
  9
$OSMODE
 70
    37
  9
$ATTMODE
 70
     1
  9
$TEXTSIZE
 40
0.0
  9
$TRACEWID
 40
0.05
  9
$TEXTSTYLE
  7
STANDARD
  9
$CLAYER
  8
0
  9
$CELTYPE
  6
CONTINUOUS
  9
$CECOLOR
 62
   256
  9
$DIMSCALE
 40
1.0
  9
$DIMASZ
 40
0.18
  9
$DIMEXO
 40
0.0625
  9
$DIMDLI
 40
0.38
  9
$DIMRND
 40
0.0
  9
$DIMDLE
 40
0.0
  9
$DIMEXE
 40
0.18
  9
$DIMTP
 40
0.0
  9
$DIMTM
 40
0.0
  9
$DIMTXT
 40
0.18
  9
$DIMCEN
 40
0.09
  9
$DIMTSZ
 40
0.0
  9
$DIMTOL
 70
     0
  9
$DIMLIM
 70
     0
  9
$DIMTIH
 70
     1
  9
$DIMTOH
 70
     1
  9
$DIMSE1
 70
     0
  9
$DIMSE2
 70
     0
  9
$DIMTAD
 70
     0
  9
$DIMZIN
 70
     0
  9
$DIMBLK
  1

  9
$DIMASO
 70
     1
  9
$DIMSHO
 70
     1
  9
$DIMPOST
  1

  9
$DIMAPOST
  1

  9
$DIMALT
 70
     0
  9
$DIMALTD
 70
     2
  9
$DIMALTF
 40
25.399999999999999
  9
$DIMLFAC
 40
1.0
  9
$DIMTOFL
 70
     0
  9
$DIMTVP
 40
0.0
  9
$DIMTIX
 70
     0
  9
$DIMSOXD
 70
     0
  9
$DIMSAH
 70
     0
  9
$DIMBLK1
  1

  9
$DIMBLK2
  1

  9
$DIMSTYLE
  2
STANDARD
  9
$DIMCLRD
 70
     0
  9
$DIMCLRE
 70
     0
  9
$DIMCLRT
 70
     0
  9
$DIMTFAC
 40
1.0
  9
$DIMGAP
 40
0.09
  9
$LUNITS
 70
     2
  9
$LUPREC
 70
     4
  9
$SKETCHINC
 40
0.1
  9
$FILLETRAD
 40
0.0
  9
$AUNITS
 70
     0
  9
$AUPREC
 70
     0
  9
$MENU
  1
.
  9
$ELEVATION
 40
0.0
  9
$PELEVATION
 40
0.0
  9
$THICKNESS
 40
0.0
  9
$LIMCHECK
 70
     0
  9
$BLIPMODE
 70
     0
  9
$CHAMFERA
 40
0.0
  9
$CHAMFERB
 40
0.0
  9
$SKPOLY
 70
     0
  9
$TDCREATE
 40
2444972.375
  9
$TDUPDATE
 40
2458503.253895903
  9
$TDINDWG
 40
0.0000354977
  9
$TDUSRTIMER
 40
0.0000354977
  9
$USRTIMER
 70
     1
  9
$ANGBASE
 50
0.0
  9
$ANGDIR
 70
     0
  9
$PDMODE
 70
     0
  9
$PDSIZE
 40
0.0
  9
$PLINEWID
 40
0.0
  9
$COORDS
 70
     1
  9
$SPLFRAME
 70
     0
  9
$SPLINETYPE
 70
     6
  9
$SPLINESEGS
 70
     8
  9
$ATTDIA
 70
     1
  9
$ATTREQ
 70
     1
  9
$HANDLING
 70
     1
  9
$HANDSEED
  5
592
  9
$SURFTAB1
 70
     6
  9
$SURFTAB2
 70
     6
  9
$SURFTYPE
 70
     6
  9
$SURFU
 70
     6
  9
$SURFV
 70
     6
  9
$UCSNAME
  2

  9
$UCSORG
 10
0.0
 20
0.0
 30
0.0
  9
$UCSXDIR
 10
1.0
 20
0.0
 30
0.0
  9
$UCSYDIR
 10
0.0
 20
1.0
 30
0.0
  9
$PUCSNAME
  2

  9
$PUCSORG
 10
0.0
 20
0.0
 30
0.0
  9
$PUCSXDIR
 10
1.0
 20
0.0
 30
0.0
  9
$PUCSYDIR
 10
0.0
 20
1.0
 30
0.0
  9
$USERI1
 70
     0
  9
$USERI2
 70
     0
  9
$USERI3
 70
     0
  9
$USERI4
 70
     0
  9
$USERI5
 70
     0
  9
$USERR1
 40
0.0
  9
$USERR2
 40
0.0
  9
$USERR3
 40
0.0
  9
$USERR4
 40
0.0
  9
$USERR5
 40
0.0
  9
$WORLDVIEW
 70
     1
  9
$SHADEDGE
 70
     3
  9
$SHADEDIF
 70
    70
  9
$TILEMODE
 70
     1
  9
$MAXACTVP
 70
    48
  9
$PLIMCHECK
 70
     0
  9
$PEXTMIN
 10
1.0000000000000000E+020
 20
1.0000000000000000E+020
 30
1.0000000000000000E+020
  9
$PEXTMAX
 10
-1.0000000000000000E+020
 20
-1.0000000000000000E+020
 30
-1.0000000000000000E+020
  9
$PLIMMIN
 10
0.0
 20
0.0
  9
$PLIMMAX
 10
12.0
 20
9.0
  9
$UNITMODE
 70
     0
  9
$VISRETAIN
 70
     1
  9
$PLINEGEN
 70
     0
  9
$PSLTSCALE
 70
     1
  0
ENDSEC
  0
SECTION
  2
TABLES
  0
TABLE
  2
VPORT
 70
     1
  0
VPORT
  2
*ACTIVE
 70
     0
 10
0.0
 20
0.0
 11
1.0
 21
1.0
 12
195.84271114783351
 22
148.589
 13
0.0
 23
0.0
 14
1.0
 24
1.0
 15
0.0
 25
0.0
 16
0.0
 26
0.0
 36
1.0
 17
0.0
 27
0.0
 37
0.0
 40
281.11539623648741
 41
2.298642533936651
 42
50.0
 43
0.0
 44
0.0
 50
0.0
 51
0.0
 71
     0
 72
   100
 73
     1
 74
     1
 75
     0
 76
     0
 77
     0
 78
     0
  0
ENDTAB
  0
TABLE
  2
LTYPE
 70
     3
  0
LTYPE
  2
CONTINUOUS
 70
     0
  3
Solid line
 72
    65
 73
     0
 40
0.0
  0
LTYPE
  2
AIGENLINE001
 70
     0
  3
generate AI->DXF Converter
 72
    65
 73
     4
 40
5.8561449999999988
 49
3.5278
 49
-0.776115
 49
0.776115
 49
-0.776115
  0
LTYPE
  2
AIGENLINE002
 70
     0
  3
generate AI->DXF Converter
 72
    65
 73
     2
 40
1.5522299999999991
 49
0.776115
 49
-0.776115
  0
ENDTAB
  0
TABLE
  2
LAYER
 70
     2
  0
LAYER
  2
0
 70
     0
 62
     7
  6
CONTINUOUS
  0
LAYER
  2
_________2
 70
     0
 62
     7
  6
CONTINUOUS
  0
ENDTAB
  0
TABLE
  2
STYLE
 70
     1
  0
STYLE
  2
STANDARD
 70
     0
 40
0.0
 41
0.0
 50
0.0
 71
     0
 42
0.0
  3
TXT
  4
EXTFONT.SHX
  0
ENDTAB
  0
TABLE
  2
VIEW
 70
     0
  0
ENDTAB
  0
TABLE
  2
UCS
 70
     0
  0
ENDTAB
  0
TABLE
  2
APPID
 70
     3
  0
APPID
  2
ACAD
 70
     0
  0
APPID
  2
ACAD_NAV_VCDISPLAY
 70
     0
  0
APPID
  2
ACAD_MLEADERVER
 70
     0
  0
ENDTAB
  0
TABLE
  2
DIMSTYLE
 70
     1
  0
DIMSTYLE
  2
STANDARD
 70
     0
  3

  4

  5

  6

  7

 40
1.0
 41
0.18
 42
0.0625
 43
0.38
 44
0.18
 45
0.0
 46
0.0
 47
0.0
 48
0.0
140
0.18
141
0.09
142
0.0
143
25.399999999999999
144
1.0
145
0.0
146
1.0
147
0.09
 71
     0
 72
     0
 73
     1
 74
     1
 75
     0
 76
     0
 77
     0
 78
     0
170
     0
171
     2
172
     0
173
     0
174
     0
175
     0
176
     0
177
     0
178
     0
  0
ENDTAB
  0
ENDSEC
  0
SECTION
  2
BLOCKS
  0
BLOCK
  8
0
  2
$MODEL_SPACE
 70
     0
 10
0.0
 20
0.0
 30
0.0
  3
$MODEL_SPACE
  1

  0
ENDBLK
  5
1A
  8
0
  0
BLOCK
 67
     1
  8
0
  2
$PAPER_SPACE
 70
     0
 10
0.0
 20
0.0
 30
0.0
  3
$PAPER_SPACE
  1

  0
ENDBLK
  5
17
 67
     1
  8
0
  0
ENDSEC
  0
SECTION
  2
ENTITIES
  0
TEXT
  5
23
  8
0
 62
     7
 10
95.551900000000003
 20
205.70026999999999
 30
0.0
 40
3.0923400000000001
  1
W.L
 50
90.0
 41
0.5
 72
     2
 11
95.551900000000003
 21
209.30799999999999
 31
0.0
  0
TEXT
  5
24
  8
0
 62
     7
 10
113.2057825714286
 20
192.68000000000001
 30
0.0
 40
3.0923400000000001
  1
90mm以上スペースを設けてください。
 41
0.5
 72
     2
 11
145.58699999999999
 21
192.68000000000001
 31
0.0
  0
TEXT
  5
25
  8
0
 62
     7
 10
84.082920000000016
 20
133.08799999999999
 30
0.0
 40
3.0923400000000001
  1
61
 41
0.5
 72
     1
 11
85.113699999999994
 21
133.08799999999999
 31
0.0
  0
TEXT
  5
26
  8
0
 62
     7
 10
67.990424999999973
 20
133.08799999999999
 30
0.0
 40
3.0923400000000001
  1
84
 41
0.5
 72
     1
 11
69.278899999999993
 21
133.08799999999999
 31
0.0
  0
TEXT
  5
27
  8
0
 62
     7
 10
-7.3529099999999996
 20
150.816
 30
0.0
 40
3.0923400000000001
  1
開
 41
0.5
  0
TEXT
  5
28
  8
0
 62
     7
 10
-17.172713999999999
 20
156.68100000000001
 30
0.0
 40
3.0923400000000001
  1
閉
 41
0.5
 72
     2
 11
-15.832700000000001
 21
156.68100000000001
 31
0.0
  0
TEXT
  5
29
  8
0
 62
     7
 10
91.125399999999999
 20
152.661
 30
0.0
 40
3.0923400000000001
  1
湯
 41
0.5
  0
TEXT
  5
2A
  8
0
 62
     7
 10
84.180035000000004
 20
162.749
 30
0.0
 40
3.0923400000000001
  1
57%%d
 41
0.5
 72
     1
 11
85.983900000000006
 21
162.749
 31
0.0
  0
TEXT
  5
2B
  8
0
 62
     7
 10
61.631435000000003
 20
157.952
 30
0.0
 40
3.0923400000000001
  1
57%%d
 41
0.5
 72
     1
 11
63.435299999999998
 21
157.952
 31
0.0
  0
TEXT
  5
2C
  8
0
 62
     7
 10
59.002507999999999
 20
144.274
 30
0.0
 40
3.0923400000000001
  1
水
 41
0.5
 72
     2
 11
60.445599999999999
 21
144.274
 31
0.0
  0
TEXT
  5
2D
  8
0
 62
     7
 10
85.094080000000005
 20
118.03400000000001
 30
0.0
 40
3.0923400000000001
  1
%%c33
 41
0.5
 72
     2
 11
89.217200000000005
 21
118.03400000000001
 31
0.0
  0
TEXT
  5
2E
  8
0
 62
     7
 10
-24.4503925
 20
236.91499999999999
 30
0.0
 40
3.0923400000000001
  1
スパウト回転360%%d
 41
0.5
 72
     1
 11
-16.332999999999998
 21
236.91499999999999
 31
0.0
  0
TEXT
  5
2F
  8
0
 62
     7
 10
36.869655000000002
 20
165.88200000000001
 30
0.0
 40
3.0923400000000001
  1
10%%d
 41
0.5
 72
     2
 11
39.704300000000003
 21
165.88200000000001
 31
0.0
  0
TEXT
  5
30
  8
0
 62
     7
 10
-41.909499999999987
 20
129.85499999999999
 30
0.0
 40
3.0923400000000001
  1
28
 41
0.5
  0
TEXT
  5
31
  8
0
 62
     7
 10
-23.653475
 20
129.85499999999999
 30
0.0
 40
3.0923400000000001
  1
95
 41
0.5
 72
     1
 11
-22.364999999999998
 21
129.85499999999999
 31
0.0
  0
TEXT
  5
32
  8
0
 62
     7
 10
-20.729265000000002
 20
169.9429999999999
 30
0.0
 40
3.0923400000000001
  1
127
 41
0.5
 72
     1
 11
-18.9254
 21
169.9429999999999
 31
0.0
  0
TEXT
  5
33
  8
0
 62
     7
 10
54.18824
 20
195.62700000000001
 30
0.0
 40
3.0923400000000001
  1
225
 41
0.5
 72
     1
 11
56.2498
 21
195.62700000000001
 31
0.0
  0
TEXT
  5
34
  8
0
 62
     7
 10
76.088139999999996
 20
127.56999999999999
 30
0.0
 40
3.0923400000000001
  1
%%c44
 41
0.5
 72
     1
 11
78.149699999999996
 21
127.56999999999999
 31
0.0
  0
TEXT
  5
35
  8
0
 62
     7
 10
84.554580000000001
 20
169.696
 30
0.0
 40
3.0923400000000001
  1
%%c24
 41
0.5
 72
     2
 11
88.677700000000002
 21
169.696
 31
0.0
  0
TEXT
  5
36
  8
0
 62
     7
 10
58.677100000000003
 20
104.27200000000001
 30
0.0
 40
3.0923400000000001
  1
（t＝25）
 41
0.5
  0
TEXT
  5
37
  8
0
 62
     7
 10
58.677100000000003
 20
108.666
 30
0.0
 40
3.0923400000000001
  1
スペーサー
 41
0.5
  0
TEXT
  5
38
  8
0
 62
     7
 10
-44.643199999999993
 20
37.276899999999998
 30
0.0
 40
3.0923400000000001
  1
PF 3/8
 41
0.5
  0
TEXT
  5
39
  8
0
 62
     7
 10
-4.4913999999999987
 20
131.49383
 30
0.0
 40
3.0923400000000001
  1
100
 50
90.0
 41
0.5
 72
     1
 11
-4.4913999999999987
 21
133.03999999999999
 31
0.0
  0
TEXT
  5
3A
  8
0
 62
     7
 10
-44.3583
 20
140.75644
 30
0.0
 40
3.0923400000000001
  1
%%c47
 50
90.0
 41
0.5
 72
     1
 11
-44.3583
 21
142.81800000000001
 31
0.0
  0
TEXT
  5
3B
  8
0
 62
     7
 10
2.6892599999999991
 20
138.955355
 30
0.0
 40
3.0923400000000001
  1
187.5
 50
90.0
 41
0.5
 72
     1
 11
2.6892599999999991
 21
141.78999999999999
 31
0.0
  0
TEXT
  5
3C
  8
0
 62
     7
 10
18.4803
 20
153.41143999999991
 30
0.0
 40
3.0923400000000001
  1
324
 50
90.0
 41
0.5
 72
     1
 11
18.4803
 21
155.47300000000001
 31
0.0
  0
TEXT
  5
3D
  8
0
 62
     7
 10
26.136700000000001
 20
145.90943999999999
 30
0.0
 40
3.0923400000000001
  1
246
 50
90.0
 41
0.5
 72
     1
 11
26.136700000000001
 21
147.971
 31
0.0
  0
TEXT
  5
3E
  8
0
 62
     7
 10
53.4968
 20
81.502187500000005
 30
0.0
 40
3.0923400000000001
  1
450
 50
90.0
 41
0.5
 72
     1
 11
53.4968
 21
83.434899999999999
 31
0.0
  0
TEXT
  5
3F
  8
0
 62
     7
 10
64.294499999999999
 20
114.48115
 30
0.0
 40
3.0923400000000001
  1
max.45
 50
90.0
 41
0.5
 72
     2
 11
64.294499999999999
 21
122.212
 31
0.0
  0
TEXT
  5
40
  8
0
 62
     7
 10
65.233999999999995
 20
254.709
 30
0.0
 40
3.0923400000000001
  1
%%c35
 41
0.5
  0
TEXT
  5
41
  8
0
 62
     7
 10
73.542745999999994
 20
247.036
 30
0.0
 40
3.0923400000000001
  1
水栓取付穴
 41
0.5
 72
     1
 11
77.975099999999983
 21
247.036
 31
0.0
  0
TEXT
  5
42
  8
0
 62
     7
 10
60.191952000000001
 20
38.334200000000003
 30
0.0
 40
3.0923400000000001
  1
水側
 41
0.5
 72
     1
 11
61.841200000000001
 21
38.334200000000003
 31
0.0
  0
TEXT
  5
43
  8
0
 62
     7
 10
68.655252000000004
 20
38.334200000000003
 30
0.0
 40
3.0923400000000001
  1
湯側
 41
0.5
 72
     1
 11
70.304500000000004
 21
38.334200000000003
 31
0.0
  0
LINE
  5
44
  8
0
 62
     7
 10
90.494299999999996
 20
181.685
 30
0.0
 11
89.514499999999984
 21
179.61699999999999
 31
0.0
  0
LINE
  5
45
  8
0
 62
     7
 10
89.514499999999984
 20
179.61699999999999
 30
0.0
 11
91.396899999999988
 21
180.91800000000001
 31
0.0
  0
LINE
  5
46
  8
0
 62
     7
 10
91.396899999999988
 20
180.91800000000001
 30
0.0
 11
90.494299999999996
 21
181.685
 31
0.0
  0
LINE
  5
47
  8
0
 62
     7
 10
89.509
 20
179.62200000000001
 30
0.0
 11
100.006
 21
191.97999999999999
 31
0.0
  0
LINE
  5
48
  8
0
 62
     7
 10
80.462100000000007
 20
180.19499999999999
 30
0.0
 11
78.251699999999985
 21
179.60300000000001
 31
0.0
  0
LINE
  5
49
  8
0
 62
     7
 10
78.251699999999985
 20
179.60300000000001
 30
0.0
 11
80.462100000000007
 21
179.00999999999999
 31
0.0
  0
LINE
  5
4A
  8
0
 62
     7
 10
80.462100000000007
 20
179.00999999999999
 30
0.0
 11
80.462100000000007
 21
180.19499999999999
 31
0.0
  0
LINE
  5
4B
  8
0
 62
     7
 10
94.040800000000004
 20
179.02500000000001
 30
0.0
 11
96.251900000000006
 21
179.61699999999999
 31
0.0
  0
LINE
  5
4C
  8
0
 62
     7
 10
96.251900000000006
 20
179.61699999999999
 30
0.0
 11
94.040800000000004
 21
180.21000000000001
 31
0.0
  0
LINE
  5
4D
  8
0
 62
     7
 10
94.040800000000004
 20
180.21000000000001
 30
0.0
 11
94.040800000000004
 21
179.02500000000001
 31
0.0
  0
LINE
  5
4E
  8
0
 62
     7
 10
78.251699999999985
 20
179.61000000000001
 30
0.0
 11
96.251900000000006
 21
179.61000000000001
 31
0.0
  0
LINE
  5
4F
  8
0
 62
     7
 10
100.006
 20
191.97999999999999
 30
0.0
 11
145.58699999999999
 21
191.97999999999999
 31
0.0
  0
LINE
  5
50
  8
0
  6
AIGENLINE002
 62
     7
 10
96.251900000000006
 20
114.136
 30
0.0
 11
96.251900000000006
 21
209.30799999999999
 31
0.0
  0
LINE
  5
51
  8
0
 62
     7
 10
61.391999999999989
 20
131.68799999999999
 30
0.0
 11
61.391999999999989
 21
147.06899999999999
 31
0.0
  0
LINE
  5
52
  8
0
 62
     7
 10
88.270499999999984
 20
131.79599999999999
 30
0.0
 11
90.482200000000006
 21
132.38800000000001
 31
0.0
  0
LINE
  5
53
  8
0
 62
     7
 10
90.482200000000006
 20
132.38800000000001
 30
0.0
 11
88.270499999999984
 21
132.98099999999999
 31
0.0
  0
LINE
  5
54
  8
0
 62
     7
 10
88.270499999999984
 20
132.98099999999999
 30
0.0
 11
88.270499999999984
 21
131.79599999999999
 31
0.0
  0
LINE
  5
55
  8
0
 62
     7
 10
76.040300000000002
 20
131.79599999999999
 30
0.0
 11
78.251999999999995
 21
132.38800000000001
 31
0.0
  0
LINE
  5
56
  8
0
 62
     7
 10
78.251999999999995
 20
132.38800000000001
 30
0.0
 11
76.040300000000002
 21
132.98099999999999
 31
0.0
  0
LINE
  5
57
  8
0
 62
     7
 10
76.040300000000002
 20
132.98099999999999
 30
0.0
 11
76.040300000000002
 21
131.79599999999999
 31
0.0
  0
LINE
  5
58
  8
0
 62
     7
 10
80.463099999999997
 20
132.98099999999999
 30
0.0
 11
78.251999999999995
 21
132.38800000000001
 31
0.0
  0
LINE
  5
59
  8
0
 62
     7
 10
78.251999999999995
 20
132.38800000000001
 30
0.0
 11
80.463099999999997
 21
131.79599999999999
 31
0.0
  0
LINE
  5
5A
  8
0
 62
     7
 10
80.463099999999997
 20
131.79599999999999
 30
0.0
 11
80.463099999999997
 21
132.98099999999999
 31
0.0
  0
LINE
  5
5B
  8
0
 62
     7
 10
63.603099999999998
 20
132.98099999999999
 30
0.0
 11
61.391999999999989
 21
132.38800000000001
 31
0.0
  0
LINE
  5
5C
  8
0
 62
     7
 10
61.391999999999989
 20
132.38800000000001
 30
0.0
 11
63.603099999999998
 21
131.79599999999999
 31
0.0
  0
LINE
  5
5D
  8
0
 62
     7
 10
63.603099999999998
 20
131.79599999999999
 30
0.0
 11
63.603099999999998
 21
132.98099999999999
 31
0.0
  0
LINE
  5
5E
  8
0
 62
     7
 10
90.482200000000006
 20
132.38800000000001
 30
0.0
 11
61.391999999999989
 21
132.38800000000001
 31
0.0
  0
LINE
  5
5F
  8
0
  6
AIGENLINE002
 62
     7
 10
90.422600000000003
 20
155.36199999999999
 30
0.0
 11
90.482200000000006
 21
155.577
 31
0.0
  0
LINE
  5
60
  8
0
  6
AIGENLINE002
 62
     7
 10
89.233699999999999
 20
156.43199999999999
 30
0.0
 11
89.441800000000015
 21
156.51400000000001
 31
0.0
  0
LINE
  5
61
  8
0
  6
AIGENLINE002
 62
     7
 10
80.757000000000005
 20
147.018
 30
0.0
 11
89.233699999999999
 21
156.43199999999999
 31
0.0
  0
LINE
  5
62
  8
0
  6
AIGENLINE002
 62
     7
 10
89.233699999999999
 20
156.43199999999999
 30
0.0
 11
90.422600000000003
 21
155.36199999999999
 31
0.0
  0
LINE
  5
63
  8
0
  6
AIGENLINE002
 62
     7
 10
89.441800000000015
 20
156.51400000000001
 30
0.0
 11
90.482200000000006
 21
155.577
 31
0.0
  0
LINE
  5
64
  8
0
  6
AIGENLINE002
 62
     7
 10
90.422600000000003
 20
155.36199999999999
 30
0.0
 11
81.945899999999995
 21
145.947
 31
0.0
  0
LINE
  5
65
  8
0
  6
AIGENLINE001
 62
     7
 10
78.251699999999985
 20
143.03999999999999
 30
0.0
 11
90.485699999999994
 21
156.62700000000001
 31
0.0
  0
LINE
  5
66
  8
0
 62
     7
 10
90.816699999999997
 20
156.995
 30
0.0
 11
91.713499999999996
 21
157.99100000000001
 31
0.0
  0
LINE
  5
67
  8
0
  6
AIGENLINE002
 62
     7
 10
62.045900000000003
 20
149.148
 30
0.0
 11
61.8247
 21
149.114
 31
0.0
  0
LINE
  5
68
  8
0
  6
AIGENLINE002
 62
     7
 10
61.55149999999999
 20
147.626
 30
0.0
 11
61.392299999999999
 21
147.78299999999999
 31
0.0
  0
LINE
  5
69
  8
0
  6
AIGENLINE002
 62
     7
 10
73.599400000000003
 20
143.71100000000001
 30
0.0
 11
61.55149999999999
 21
147.626
 31
0.0
  0
LINE
  5
6A
  8
0
  6
AIGENLINE002
 62
     7
 10
61.55149999999999
 20
147.626
 30
0.0
 11
62.045900000000003
 21
149.148
 31
0.0
  0
LINE
  5
6B
  8
0
  6
AIGENLINE002
 62
     7
 10
61.392299999999999
 20
147.78299999999999
 30
0.0
 11
61.8247
 21
149.114
 31
0.0
  0
LINE
  5
6C
  8
0
  6
AIGENLINE002
 62
     7
 10
62.045900000000003
 20
149.148
 30
0.0
 11
74.094099999999997
 21
145.233
 31
0.0
  0
LINE
  5
6D
  8
0
  6
AIGENLINE001
 62
     7
 10
78.251999999999995
 20
143.03999999999999
 30
0.0
 11
60.863900000000001
 21
148.69
 31
0.0
  0
LINE
  5
6E
  8
0
 62
     7
 10
60.392899999999997
 20
148.84299999999999
 30
0.0
 11
59.118600000000001
 21
149.25700000000001
 31
0.0
  0
LINE
  5
6F
  8
0
 62
     7
 10
74.547499999999999
 20
159.958
 30
0.0
 11
74.399000000000001
 21
160.126
 31
0.0
  0
LINE
  5
70
  8
0
 62
     7
 10
73.001999999999995
 20
159.54400000000001
 30
0.0
 11
73.046800000000005
 21
159.76300000000001
 31
0.0
  0
LINE
  5
71
  8
0
 62
     7
 10
76.280799999999999
 20
147.30799999999999
 30
0.0
 11
73.001999999999995
 21
159.54400000000001
 31
0.0
  0
LINE
  5
72
  8
0
 62
     7
 10
73.001999999999995
 20
159.54400000000001
 30
0.0
 11
74.547499999999999
 21
159.958
 31
0.0
  0
LINE
  5
73
  8
0
 62
     7
 10
73.046800000000005
 20
159.76300000000001
 30
0.0
 11
74.399000000000001
 21
160.126
 31
0.0
  0
LINE
  5
74
  8
0
 62
     7
 10
74.547499999999999
 20
159.958
 30
0.0
 11
77.8262
 21
147.72200000000001
 31
0.0
  0
ARC
  5
75
  8
0
 62
     7
 10
78.637968999999998
 20
142.502813
 30
0.0
 40
20.185341999999999
 50
91.095484999999996
 51
160.88665700000001
  0
ARC
  5
76
  8
0
 62
     7
 10
78.174203000000006
 20
142.839992
 30
0.0
 40
19.844626999999999
 50
48.219687999999998
 51
89.775230000000008
  0
LINE
  5
77
  8
0
 62
     7
 10
89.337400000000002
 20
158.63999999999999
 30
0.0
 11
91.396199999999979
 21
157.63800000000001
 31
0.0
  0
LINE
  5
78
  8
0
 62
     7
 10
91.396199999999979
 20
157.63800000000001
 30
0.0
 11
90.113600000000005
 21
159.535
 31
0.0
  0
LINE
  5
79
  8
0
 62
     7
 10
90.113600000000005
 20
159.535
 30
0.0
 11
89.337400000000002
 21
158.63999999999999
 31
0.0
  0
LINE
  5
7A
  8
0
 62
     7
 10
75.200699999999998
 20
163.06999999999999
 30
0.0
 11
73.166700000000006
 21
162.01900000000001
 31
0.0
  0
LINE
  5
7B
  8
0
 62
     7
 10
73.166700000000006
 20
162.01900000000001
 30
0.0
 11
75.454300000000003
 21
161.91300000000001
 31
0.0
  0
LINE
  5
7C
  8
0
 62
     7
 10
75.454300000000003
 20
161.91300000000001
 30
0.0
 11
75.200699999999998
 21
163.06999999999999
 31
0.0
  0
LINE
  5
7D
  8
0
 62
     7
 10
71.238500000000002
 20
160.78399999999999
 30
0.0
 11
73.166700000000006
 21
162.01900000000001
 31
0.0
  0
LINE
  5
7E
  8
0
 62
     7
 10
73.166700000000006
 20
162.01900000000001
 30
0.0
 11
70.879199999999997
 21
161.91300000000001
 31
0.0
  0
LINE
  5
7F
  8
0
 62
     7
 10
70.879199999999997
 20
161.91300000000001
 30
0.0
 11
71.238500000000002
 21
160.78399999999999
 31
0.0
  0
LINE
  5
80
  8
0
 62
     7
 10
59.820999999999998
 20
151.38800000000001
 30
0.0
 11
59.5657
 21
149.11199999999999
 31
0.0
  0
LINE
  5
81
  8
0
 62
     7
 10
59.5657
 20
149.11199999999999
 30
0.0
 11
60.924100000000003
 21
150.95500000000001
 31
0.0
  0
LINE
  5
82
  8
0
 62
     7
 10
60.924100000000003
 20
150.95500000000001
 30
0.0
 11
59.820999999999998
 21
151.38800000000001
 31
0.0
  0
LINE
  5
83
  8
0
  6
AIGENLINE001
 62
     7
 10
78.251999999999995
 20
143.03999999999999
 30
0.0
 11
73.520200000000003
 21
160.70099999999999
 31
0.0
  0
LINE
  5
84
  8
0
 62
     7
 10
73.3917
 20
161.179
 30
0.0
 11
73.045100000000005
 21
162.47300000000001
 31
0.0
  0
LINE
  5
85
  8
0
 62
     7
 10
90.482200000000006
 20
131.68799999999999
 30
0.0
 11
90.482200000000006
 21
154.447
 31
0.0
  0
LINE
  5
86
  8
0
  6
AIGENLINE002
 62
     7
 10
-6.1588399999999996
 20
157.547
 30
0.0
 11
-6.2559899999999988
 21
157.8129999999999
 31
0.0
  0
LINE
  5
87
  8
0
  6
AIGENLINE002
 62
     7
 10
-7.6092300000000002
 20
158.22300000000001
 30
0.0
 11
-7.3432699999999986
 21
158.31999999999999
 31
0.0
  0
LINE
  5
88
  8
0
  6
AIGENLINE002
 62
     7
 10
-7.3432699999999986
 20
158.31999999999999
 30
0.0
 11
-6.2559899999999988
 21
157.8129999999999
 31
0.0
  0
LINE
  5
89
  8
0
  6
AIGENLINE002
 62
     7
 10
-6.1588399999999996
 20
157.547
 30
0.0
 11
-11.484
 21
146.12799999999999
 31
0.0
  0
LINE
  5
8A
  8
0
  6
AIGENLINE002
 62
     7
 10
-7.6092300000000002
 20
158.22300000000001
 30
0.0
 11
-12.933999999999999
 21
146.804
 31
0.0
  0
ARC
  5
8B
  8
0
  6
AIGENLINE002
 62
     7
 10
-11.374052000000001
 20
145.885504
 30
0.0
 40
0.198106
 50
335.67700400000001
 51
343.02901800000001
  0
ARC
  5
8C
  8
0
  6
AIGENLINE002
 62
     7
 10
-11.424977
 20
145.892473
 30
0.0
 40
0.248983
 50
344.91614099999998
 51
350.99871200000001
  0
ARC
  5
8D
  8
0
  6
AIGENLINE002
 62
     7
 10
-11.396686000000001
 20
145.87225000000001
 30
0.0
 40
0.21843
 50
355.08048700000001
 51
1.864461999999999
  0
ARC
  5
8E
  8
0
  6
AIGENLINE002
 62
     7
 10
-11.301917
 20
145.87992700000001
 30
0.0
 40
0.123546
 50
359.73516000000001
 51
12.127891999999999
  0
ARC
  5
8F
  8
0
  6
AIGENLINE002
 62
     7
 10
-11.310561999999999
 20
145.88582
 30
0.0
 40
0.130979
 50
8.8112570000000012
 51
20.675865000000002
  0
ARC
  5
90
  8
0
  6
AIGENLINE002
 62
     7
 10
-11.338331
 20
145.88499299999989
 30
0.0
 40
0.157512
 50
17.389182999999999
 51
27.29210800000001
  0
ARC
  5
91
  8
0
  6
AIGENLINE002
 62
     7
 10
-11.503710999999999
 20
145.798721
 30
0.0
 40
0.34404
 50
27.431417
 51
32.058338999999997
  0
ARC
  5
92
  8
0
  6
AIGENLINE002
 62
     7
 10
-11.814295
 20
145.52111400000001
 30
0.0
 40
0.75789
 50
37.389848000000001
 51
39.484746999999999
  0
ARC
  5
93
  8
0
  6
AIGENLINE002
 62
     7
 10
-11.64794
 20
145.583124
 30
0.0
 40
0.5929050000000001
 50
45.091056000000002
 51
47.846536000000008
  0
ARC
  5
94
  8
0
  6
AIGENLINE002
 62
     7
 10
-12.015313000000001
 20
144.97884500000001
 30
0.0
 40
1.294308999999999
 50
53.753014
 51
55.009993999999999
  0
ARC
  5
95
  8
0
  6
AIGENLINE002
 62
     7
 10
-11.367727
 20
145.8923659999999
 30
0.0
 40
0.174685
 50
57.205461999999997
 51
66.568106999999998
  0
ARC
  5
96
  8
0
  6
AIGENLINE002
 62
     7
 10
-15.189821999999999
 20
137.72471299999989
 30
0.0
 40
0.207474
 50
247.1217740000001
 51
333.05911200000003
  0
LINE
  5
97
  8
0
  6
AIGENLINE002
 62
     7
 10
-11.1935
 20
145.804
 30
0.0
 11
-15.004899999999999
 21
137.631
 31
0.0
  0
LINE
  5
98
  8
0
  6
AIGENLINE002
 62
     7
 10
-13.6547
 20
147.15199999999999
 30
0.0
 11
-17.627300000000002
 21
138.63300000000001
 31
0.0
  0
LINE
  5
99
  8
0
  6
AIGENLINE002
 62
     7
 10
-17.627300000000002
 20
138.63300000000001
 30
0.0
 11
-17.626899999999999
 21
138.63200000000001
 31
0.0
  0
LINE
  5
9A
  8
0
  6
AIGENLINE002
 62
     7
 10
-17.626899999999999
 20
138.63200000000001
 30
0.0
 11
-15.2705
 21
137.53399999999999
 31
0.0
  0
LINE
  5
9B
  8
0
  6
AIGENLINE002
 62
     7
 10
-13.6547
 20
147.15199999999999
 30
0.0
 11
-11.2979
 21
146.053
 31
0.0
  0
LINE
  5
9C
  8
0
 62
     7
 10
-40.090499999999999
 20
114.239
 30
0.0
 11
-36.490699999999997
 21
110.038
 31
0.0
  0
LINE
  5
9D
  8
0
 62
     7
 10
-23.290700000000001
 20
114.239
 30
0.0
 11
-26.890499999999999
 21
110.038
 31
0.0
  0
LINE
  5
9E
  8
0
 62
     7
 10
-29.590800000000002
 20
114.239
 30
0.0
 11
-29.590800000000002
 21
110.038
 31
0.0
  0
LINE
  5
9F
  8
0
 62
     7
 10
-33.790700000000001
 20
110.038
 30
0.0
 11
-33.790700000000001
 21
114.239
 31
0.0
  0
LINE
  5
A0
  8
0
 62
     7
 10
-30.1906
 20
114.239
 30
0.0
 11
-30.1906
 21
110.038
 31
0.0
  0
LINE
  5
A1
  8
0
 62
     7
 10
-33.190600000000003
 20
110.038
 30
0.0
 11
-33.190600000000003
 21
114.239
 31
0.0
  0
LINE
  5
A2
  8
0
 62
     7
 10
-30.590599999999998
 20
114.239
 30
0.0
 11
-30.590599999999998
 21
110.038
 31
0.0
  0
LINE
  5
A3
  8
0
 62
     7
 10
-32.790599999999998
 20
110.038
 30
0.0
 11
-32.790599999999998
 21
114.239
 31
0.0
  0
LINE
  5
A4
  8
0
 62
     7
 10
-28.1907
 20
114.239
 30
0.0
 11
-28.1907
 21
110.038
 31
0.0
  0
LINE
  5
A5
  8
0
 62
     7
 10
-35.19080000000001
 20
110.038
 30
0.0
 11
-35.19080000000001
 21
114.239
 31
0.0
  0
LINE
  5
A6
  8
0
 62
     7
 10
-26.290700000000001
 20
110.738
 30
0.0
 11
-26.290700000000001
 21
110.038
 31
0.0
  0
LINE
  5
A7
  8
0
 62
     7
 10
-26.290700000000001
 20
110.038
 30
0.0
 11
-37.090499999999999
 21
110.038
 31
0.0
  0
LINE
  5
A8
  8
0
 62
     7
 10
-37.090499999999999
 20
110.038
 30
0.0
 11
-37.090499999999999
 21
110.738
 31
0.0
  0
LINE
  5
A9
  8
0
 62
     7
 10
-22.6906
 20
114.238
 30
0.0
 11
-40.690600000000003
 21
114.238
 31
0.0
  0
LINE
  5
AA
  8
0
 62
     7
 10
-40.690600000000003
 20
114.238
 30
0.0
 11
-40.690600000000003
 21
115.038
 31
0.0
  0
LINE
  5
AB
  8
0
 62
     7
 10
-40.690600000000003
 20
115.038
 30
0.0
 11
-22.6906
 21
115.038
 31
0.0
  0
LINE
  5
AC
  8
0
 62
     7
 10
-22.6906
 20
115.038
 30
0.0
 11
-22.6906
 21
114.238
 31
0.0
  0
LINE
  5
AD
  8
0
 62
     7
 10
-33.490699999999997
 20
107.708
 30
0.0
 11
-33.890300000000003
 21
107.708
 31
0.0
  0
LINE
  5
AE
  8
0
 62
     7
 10
-31.6906
 20
108.83799999999999
 30
0.0
 11
-35.690399999999997
 21
108.83799999999999
 31
0.0
  0
LINE
  5
AF
  8
0
 62
     7
 10
-35.690399999999997
 20
108.83799999999999
 30
0.0
 11
-35.690399999999997
 21
107.792
 31
0.0
  0
ARC
  5
B0
  8
0
 62
     7
 10
-35.505499
 20
107.82414799999999
 30
0.0
 40
0.18768
 50
189.90544399999999
 51
201.06865300000001
  0
ARC
  5
B1
  8
0
 62
     7
 10
-35.312992000000001
 20
107.891065
 30
0.0
 40
0.3914329999999999
 50
200.07910999999999
 51
232.10691199999999
  0
ARC
  5
B2
  8
0
 62
     7
 10
-35.214601999999999
 20
108.001299
 30
0.0
 40
0.5389470000000001
 50
231.05006900000001
 51
249.41393199999999
  0
ARC
  5
B3
  8
0
 62
     7
 10
-35.111952000000002
 20
108.256409
 30
0.0
 40
0.8138850000000001
 50
248.96378100000001
 51
263.89801199999999
  0
ARC
  5
B4
  8
0
 62
     7
 10
-35.050721000000003
 20
108.690076
 30
0.0
 40
1.2516899999999991
 50
263.22117300000002
 51
270.20950199999999
  0
LINE
  5
B5
  8
0
 62
     7
 10
-35.046100000000003
 20
107.438
 30
0.0
 11
-31.6906
 21
107.438
 31
0.0
  0
LINE
  5
B6
  8
0
 62
     7
 10
-33.490699999999997
 20
108.83799999999999
 30
0.0
 11
-33.490699999999997
 21
107.708
 31
0.0
  0
ARC
  5
B7
  8
0
 62
     7
 10
-33.238976999999998
 20
107.866911
 30
0.0
 40
0.297771
 50
212.298903
 51
221.309057
  0
ARC
  5
B8
  8
0
 62
     7
 10
-32.969653000000001
 20
108.09320700000001
 30
0.0
 40
0.649505
 50
220.62085300000001
 51
262.035642
  0
ARC
  5
B9
  8
0
 62
     7
 10
-32.919998999999997
 20
108.286396
 30
0.0
 40
0.848007
 50
260.521525
 51
270.17519900000002
  0
LINE
  5
BA
  8
0
 62
     7
 10
-33.890300000000003
 20
108.83799999999999
 30
0.0
 11
-33.890300000000003
 21
107.708
 31
0.0
  0
ARC
  5
BB
  8
0
 62
     7
 10
-34.661383000000001
 20
109.11996600000001
 30
0.0
 40
1.608963999999999
 50
294.71506299999999
 51
298.63559500000002
  0
ARC
  5
BC
  8
0
 62
     7
 10
-35.151159999999997
 20
110.100302
 30
0.0
 40
2.7045049999999988
 50
283.58152999999999
 51
295.457176
  0
ARC
  5
BD
  8
0
 62
     7
 10
-34.813819000000009
 20
108.78876200000001
 30
0.0
 40
1.35057
 50
270.98861299999999
 51
282.73638899999997
  0
LINE
  5
BE
  8
0
 62
     7
 10
-29.890499999999999
 20
107.708
 30
0.0
 11
-29.490500000000001
 21
107.708
 31
0.0
  0
LINE
  5
BF
  8
0
 62
     7
 10
-31.6906
 20
108.83799999999999
 30
0.0
 11
-27.6905
 21
108.83799999999999
 31
0.0
  0
LINE
  5
C0
  8
0
 62
     7
 10
-27.6905
 20
108.83799999999999
 30
0.0
 11
-27.6905
 21
107.792
 31
0.0
  0
ARC
  5
C1
  8
0
 62
     7
 10
-27.876100999999998
 20
107.82298
 30
0.0
 40
0.188217
 50
339.37440900000001
 51
350.48358899999999
  0
ARC
  5
C2
  8
0
 62
     7
 10
-28.064769999999999
 20
107.887157
 30
0.0
 40
0.387453
 50
308.07729399999999
 51
340.32048500000002
  0
ARC
  5
C3
  8
0
 62
     7
 10
-28.183668999999998
 20
108.024805
 30
0.0
 40
0.5692010000000001
 50
282.232328
 51
308.9534700000001
  0
ARC
  5
C4
  8
0
 62
     7
 10
-28.312452
 20
108.47906999999999
 30
0.0
 40
1.0408599999999999
 50
268.92636900000002
 51
283.86254200000002
  0
LINE
  5
C5
  8
0
 62
     7
 10
-28.332000000000001
 20
107.438
 30
0.0
 11
-31.6906
 21
107.438
 31
0.0
  0
LINE
  5
C6
  8
0
 62
     7
 10
-29.890499999999999
 20
108.83799999999999
 30
0.0
 11
-29.890499999999999
 21
107.708
 31
0.0
  0
ARC
  5
C7
  8
0
 62
     7
 10
-30.139686999999999
 20
107.864791
 30
0.0
 40
0.294493
 50
318.67989499999999
 51
327.78612800000002
  0
ARC
  5
C8
  8
0
 62
     7
 10
-30.410958000000001
 20
108.092175
 30
0.0
 40
0.648415
 50
277.93394899999998
 51
319.41668399999998
  0
ARC
  5
C9
  8
0
 62
     7
 10
-30.461193000000002
 20
108.2874639999999
 30
0.0
 40
0.849074
 50
269.82448199999999
 51
279.47252900000001
  0
LINE
  5
CA
  8
0
 62
     7
 10
-29.490500000000001
 20
108.83799999999999
 30
0.0
 11
-29.490500000000001
 21
107.708
 31
0.0
  0
ARC
  5
CB
  8
0
 62
     7
 10
-28.632179000000001
 20
109.291079
 30
0.0
 40
1.8009900000000001
 50
241.535796
 51
245.224671
  0
ARC
  5
CC
  8
0
 62
     7
 10
-28.237898000000001
 20
110.07991699999999
 30
0.0
 40
2.6825890000000001
 50
244.63904500000001
 51
256.69766800000002
  0
ARC
  5
CD
  8
0
 62
     7
 10
-28.568068
 20
108.778875
 30
0.0
 40
1.340665999999999
 50
257.6359930000001
 51
269.04816899999997
  0
LINE
  5
CE
  8
0
 62
     7
 10
-27.290500000000002
 20
108.83799999999999
 30
0.0
 11
-36.090699999999998
 21
108.83799999999999
 31
0.0
  0
LINE
  5
CF
  8
0
 62
     7
 10
-36.090699999999998
 20
108.83799999999999
 30
0.0
 11
-36.090699999999998
 21
109.339
 31
0.0
  0
LINE
  5
D0
  8
0
 62
     7
 10
-36.090699999999998
 20
109.339
 30
0.0
 11
-27.290500000000002
 21
109.339
 31
0.0
  0
LINE
  5
D1
  8
0
 62
     7
 10
-27.290500000000002
 20
109.339
 30
0.0
 11
-27.290500000000002
 21
108.83799999999999
 31
0.0
  0
LINE
  5
D2
  8
0
 62
     7
 10
-26.890499999999999
 20
109.339
 30
0.0
 11
-36.490699999999997
 21
109.339
 31
0.0
  0
LINE
  5
D3
  8
0
 62
     7
 10
-36.490699999999997
 20
109.339
 30
0.0
 11
-36.490699999999997
 21
109.63800000000001
 31
0.0
  0
LINE
  5
D4
  8
0
 62
     7
 10
-36.490699999999997
 20
109.63800000000001
 30
0.0
 11
-26.890499999999999
 21
109.63800000000001
 31
0.0
  0
LINE
  5
D5
  8
0
 62
     7
 10
-26.890499999999999
 20
109.63800000000001
 30
0.0
 11
-26.890499999999999
 21
109.339
 31
0.0
  0
LINE
  5
D6
  8
0
 62
     7
 10
-26.890499999999999
 20
109.63800000000001
 30
0.0
 11
-36.490699999999997
 21
109.63800000000001
 31
0.0
  0
LINE
  5
D7
  8
0
 62
     7
 10
-36.490699999999997
 20
109.63800000000001
 30
0.0
 11
-36.490699999999997
 21
110.038
 31
0.0
  0
LINE
  5
D8
  8
0
 62
     7
 10
-36.490699999999997
 20
110.038
 30
0.0
 11
-26.890499999999999
 21
110.038
 31
0.0
  0
LINE
  5
D9
  8
0
 62
     7
 10
-26.890499999999999
 20
110.038
 30
0.0
 11
-26.890499999999999
 21
109.63800000000001
 31
0.0
  0
ARC
  5
DA
  8
0
 62
     7
 10
75.388813999999996
 20
112.26915200000001
 30
0.0
 40
0.194442
 50
182.136886
 51
267.96856400000007
  0
ARC
  5
DB
  8
0
 62
     7
 10
75.375101000000001
 20
112.269081
 30
0.0
 40
0.194368
 50
272.01115700000003
 51
357.88343300000003
  0
ARC
  5
DC
  8
0
 62
     7
 10
75.37468100000001
 20
112.254661
 30
0.0
 40
0.19479
 50
2.130412999999999
 51
87.869577000000007
  0
ARC
  5
DD
  8
0
 62
     7
 10
75.388776000000007
 20
112.255048
 30
0.0
 40
0.194389
 50
92.020612000000014
 51
177.97935899999999
  0
LINE
  5
DE
  8
0
 62
     7
 10
75.381900000000002
 20
112.262
 30
0.0
 11
69.821299999999994
 21
108.10599999999999
 31
0.0
  0
LINE
  5
DF
  8
0
 62
     7
 10
69.821299999999994
 20
108.10599999999999
 30
0.0
 11
58.677100000000003
 21
108.10599999999999
 31
0.0
  0
LINE
  5
E0
  8
0
 62
     7
 10
84.049800000000005
 20
114.23999999999999
 30
0.0
 11
72.449399999999983
 21
114.23999999999999
 31
0.0
  0
LINE
  5
E1
  8
0
 62
     7
 10
72.449399999999983
 20
114.23999999999999
 30
0.0
 11
72.449399999999983
 21
115.04000000000001
 31
0.0
  0
LINE
  5
E2
  8
0
 62
     7
 10
72.449399999999983
 20
115.04000000000001
 30
0.0
 11
84.049800000000005
 21
115.04000000000001
 31
0.0
  0
LINE
  5
E3
  8
0
 62
     7
 10
84.049800000000005
 20
115.04000000000001
 30
0.0
 11
84.049800000000005
 21
114.23999999999999
 31
0.0
  0
LINE
  5
E4
  8
0
 62
     7
 10
83.449700000000007
 20
113.84
 30
0.0
 11
84.049800000000005
 21
114.23999999999999
 31
0.0
  0
LINE
  5
E5
  8
0
 62
     7
 10
83.449700000000007
 20
110.04000000000001
 30
0.0
 11
83.449700000000007
 21
113.84
 31
0.0
  0
LINE
  5
E6
  8
0
 62
     7
 10
82.249399999999994
 20
110.04000000000001
 30
0.0
 11
82.249399999999994
 21
114.23999999999999
 31
0.0
  0
LINE
  5
E7
  8
0
 62
     7
 10
81.649299999999997
 20
110.04000000000001
 30
0.0
 11
81.649299999999997
 21
114.23999999999999
 31
0.0
  0
LINE
  5
E8
  8
0
 62
     7
 10
80.649500000000003
 20
110.04000000000001
 30
0.0
 11
80.649500000000003
 21
114.23999999999999
 31
0.0
  0
LINE
  5
E9
  8
0
 62
     7
 10
79.249399999999994
 20
110.04000000000001
 30
0.0
 11
79.249399999999994
 21
114.23999999999999
 31
0.0
  0
LINE
  5
EA
  8
0
 62
     7
 10
78.649299999999997
 20
110.04000000000001
 30
0.0
 11
78.649299999999997
 21
114.23999999999999
 31
0.0
  0
LINE
  5
EB
  8
0
 62
     7
 10
78.4495
 20
110.04000000000001
 30
0.0
 11
78.4495
 21
114.23999999999999
 31
0.0
  0
LINE
  5
EC
  8
0
 62
     7
 10
76.249399999999994
 20
110.04000000000001
 30
0.0
 11
76.249399999999994
 21
114.23999999999999
 31
0.0
  0
LINE
  5
ED
  8
0
 62
     7
 10
75.849100000000007
 20
110.04000000000001
 30
0.0
 11
73.449200000000005
 21
114.23999999999999
 31
0.0
  0
LINE
  5
EE
  8
0
 62
     7
 10
75.249600000000001
 20
110.04000000000001
 30
0.0
 11
72.849100000000007
 21
114.23999999999999
 31
0.0
  0
LINE
  5
EF
  8
0
 62
     7
 10
74.449700000000007
 20
110.04000000000001
 30
0.0
 11
74.449700000000007
 21
111.44
 31
0.0
  0
LINE
  5
F0
  8
0
 62
     7
 10
72.849100000000007
 20
110.04000000000001
 30
0.0
 11
83.449700000000007
 21
110.04000000000001
 31
0.0
  0
LINE
  5
F1
  8
0
 62
     7
 10
72.849100000000007
 20
110.04000000000001
 30
0.0
 11
72.849100000000007
 21
114.23999999999999
 31
0.0
  0
LINE
  5
F2
  8
0
 62
     7
 10
76.449600000000004
 20
107.70999999999999
 30
0.0
 11
76.049899999999994
 21
107.70999999999999
 31
0.0
  0
LINE
  5
F3
  8
0
 62
     7
 10
78.25
 20
108.84
 30
0.0
 11
74.250200000000007
 21
108.84
 31
0.0
  0
LINE
  5
F4
  8
0
 62
     7
 10
74.250200000000007
 20
108.84
 30
0.0
 11
74.250200000000007
 21
107.794
 31
0.0
  0
ARC
  5
F5
  8
0
 62
     7
 10
74.435082999999992
 20
107.82586999999999
 30
0.0
 40
0.18768
 50
189.90544399999999
 51
201.06865300000001
  0
ARC
  5
F6
  8
0
 62
     7
 10
74.627568000000011
 20
107.89277800000001
 30
0.0
 40
0.391408
 50
200.07898399999999
 51
232.10934700000001
  0
ARC
  5
F7
  8
0
 62
     7
 10
74.725849999999994
 20
108.002771
 30
0.0
 40
0.538666
 50
231.044611
 51
249.41761
  0
ARC
  5
F8
  8
0
 62
     7
 10
74.828630000000004
 20
108.258132
 30
0.0
 40
0.8138850000000001
 50
248.96378100000001
 51
263.89801199999999
  0
ARC
  5
F9
  8
0
 62
     7
 10
74.889860999999996
 20
108.69179800000001
 30
0.0
 40
1.2516899999999991
 50
263.22117300000002
 51
270.20950199999999
  0
LINE
  5
FA
  8
0
 62
     7
 10
74.894400000000005
 20
107.44
 30
0.0
 11
78.25
 21
107.44
 31
0.0
  0
LINE
  5
FB
  8
0
 62
     7
 10
76.449600000000004
 20
108.84
 30
0.0
 11
76.449600000000004
 21
107.70999999999999
 31
0.0
  0
ARC
  5
FC
  8
0
 62
     7
 10
76.70270699999999
 20
107.870007
 30
0.0
 40
0.299728
 50
212.373074
 51
221.32985300000001
  0
ARC
  5
FD
  8
0
 62
     7
 10
76.971435999999997
 20
108.096418
 30
0.0
 40
0.651084
 50
220.67424800000001
 51
261.988045
  0
ARC
  5
FE
  8
0
 62
     7
 10
77.020261000000005
 20
108.28722399999999
 30
0.0
 40
0.847112
 50
260.51653499999998
 51
270.17387500000001
  0
LINE
  5
FF
  8
0
 62
     7
 10
76.049899999999994
 20
108.84
 30
0.0
 11
76.049899999999994
 21
107.70999999999999
 31
0.0
  0
ARC
  5
100
  8
0
 62
     7
 10
75.277912000000001
 20
109.123419
 30
0.0
 40
1.610935
 50
294.72014900000011
 51
298.63554099999999
  0
ARC
  5
101
  8
0
 62
     7
 10
74.788718000000003
 20
110.102538
 30
0.0
 40
2.7051279999999989
 50
283.58981299999999
 51
295.45957800000002
  0
ARC
  5
102
  8
0
 62
     7
 10
75.126739000000001
 20
108.78908199999999
 30
0.0
 40
1.349167999999999
 50
270.990656
 51
282.74315100000001
  0
LINE
  5
103
  8
0
 62
     7
 10
80.049700000000001
 20
107.70999999999999
 30
0.0
 11
80.449999999999989
 21
107.70999999999999
 31
0.0
  0
LINE
  5
104
  8
0
 62
     7
 10
78.25
 20
108.84
 30
0.0
 11
82.249799999999993
 21
108.84
 31
0.0
  0
LINE
  5
105
  8
0
 62
     7
 10
82.249799999999993
 20
108.84
 30
0.0
 11
82.249799999999993
 21
107.794
 31
0.0
  0
ARC
  5
106
  8
0
 62
     7
 10
82.064137000000002
 20
107.824703
 30
0.0
 40
0.188217
 50
339.37440900000001
 51
350.48358899999999
  0
ARC
  5
107
  8
0
 62
     7
 10
81.875467
 20
107.88888
 30
0.0
 40
0.387453
 50
308.07729399999999
 51
340.32048500000002
  0
ARC
  5
108
  8
0
 62
     7
 10
81.756561000000005
 20
108.026538
 30
0.0
 40
0.569213
 50
282.23337700000002
 51
308.95343400000002
  0
ARC
  5
109
  8
0
 62
     7
 10
81.627768000000003
 20
108.480992
 30
0.0
 40
1.041058
 50
268.927525
 51
283.861133
  0
LINE
  5
10A
  8
0
 62
     7
 10
81.6083
 20
107.44
 30
0.0
 11
78.25
 21
107.44
 31
0.0
  0
LINE
  5
10B
  8
0
 62
     7
 10
80.049700000000001
 20
108.84
 30
0.0
 11
80.049700000000001
 21
107.70999999999999
 31
0.0
  0
ARC
  5
10C
  8
0
 62
     7
 10
79.800550999999999
 20
107.866513
 30
0.0
 40
0.294493
 50
318.67989499999999
 51
327.78612800000002
  0
ARC
  5
10D
  8
0
 62
     7
 10
79.529375000000002
 20
108.093722
 30
0.0
 40
0.6482280000000001
 50
277.92769700000002
 51
319.42293599999999
  0
ARC
  5
10E
  8
0
 62
     7
 10
79.479044999999985
 20
108.289186
 30
0.0
 40
0.849074
 50
269.82448199999999
 51
279.47252900000001
  0
LINE
  5
10F
  8
0
 62
     7
 10
80.449999999999989
 20
108.84
 30
0.0
 11
80.449999999999989
 21
107.70999999999999
 31
0.0
  0
ARC
  5
110
  8
0
 62
     7
 10
81.315027000000001
 20
109.30507
 30
0.0
 40
1.8149329999999999
 50
241.53657100000001
 51
245.19527400000001
  0
ARC
  5
111
  8
0
 62
     7
 10
81.701796999999999
 20
110.078514
 30
0.0
 40
2.6794129999999998
 50
244.62629999999999
 51
256.69446399999998
  0
ARC
  5
112
  8
0
 62
     7
 10
81.372116000000005
 20
108.779741
 30
0.0
 40
1.339809
 50
257.63217500000002
 51
269.04984000000002
  0
LINE
  5
113
  8
0
 62
     7
 10
82.650099999999995
 20
108.84
 30
0.0
 11
73.849900000000005
 21
108.84
 31
0.0
  0
LINE
  5
114
  8
0
 62
     7
 10
73.849900000000005
 20
108.84
 30
0.0
 11
73.849900000000005
 21
109.34
 31
0.0
  0
LINE
  5
115
  8
0
 62
     7
 10
73.849900000000005
 20
109.34
 30
0.0
 11
82.650099999999995
 21
109.34
 31
0.0
  0
LINE
  5
116
  8
0
 62
     7
 10
82.650099999999995
 20
109.34
 30
0.0
 11
82.650099999999995
 21
108.84
 31
0.0
  0
LINE
  5
117
  8
0
 62
     7
 10
83.049700000000001
 20
109.34
 30
0.0
 11
73.449600000000004
 21
109.34
 31
0.0
  0
LINE
  5
118
  8
0
 62
     7
 10
73.449600000000004
 20
109.34
 30
0.0
 11
73.449600000000004
 21
109.64
 31
0.0
  0
LINE
  5
119
  8
0
 62
     7
 10
73.449600000000004
 20
109.64
 30
0.0
 11
83.049700000000001
 21
109.64
 31
0.0
  0
LINE
  5
11A
  8
0
 62
     7
 10
83.049700000000001
 20
109.64
 30
0.0
 11
83.049700000000001
 21
109.34
 31
0.0
  0
LINE
  5
11B
  8
0
 62
     7
 10
83.049700000000001
 20
109.64
 30
0.0
 11
73.449600000000004
 21
109.64
 31
0.0
  0
LINE
  5
11C
  8
0
 62
     7
 10
73.449600000000004
 20
109.64
 30
0.0
 11
73.449600000000004
 21
110.04000000000001
 31
0.0
  0
LINE
  5
11D
  8
0
 62
     7
 10
73.449600000000004
 20
110.04000000000001
 30
0.0
 11
83.049700000000001
 21
110.04000000000001
 31
0.0
  0
LINE
  5
11E
  8
0
 62
     7
 10
83.049700000000001
 20
110.04000000000001
 30
0.0
 11
83.049700000000001
 21
109.64
 31
0.0
  0
LINE
  5
11F
  8
0
 62
     7
 10
-13.1717
 20
160.34
 30
0.0
 11
-13.371499999999999
 21
160.53999999999999
 31
0.0
  0
LINE
  5
120
  8
0
 62
     7
 10
-14.771599999999999
 20
160.34
 30
0.0
 11
-14.5718
 21
160.53999999999999
 31
0.0
  0
LINE
  5
121
  8
0
 62
     7
 10
-14.771599999999999
 20
160.34
 30
0.0
 11
-13.1717
 21
160.34
 31
0.0
  0
LINE
  5
122
  8
0
 62
     7
 10
-14.5718
 20
160.53999999999999
 30
0.0
 11
-13.371499999999999
 21
160.53999999999999
 31
0.0
  0
LINE
  5
123
  8
0
 62
     7
 10
-13.1717
 20
160.34
 30
0.0
 11
-13.1717
 21
147.74000000000001
 31
0.0
  0
LINE
  5
124
  8
0
 62
     7
 10
-14.771599999999999
 20
160.34
 30
0.0
 11
-14.771599999999999
 21
147.74000000000001
 31
0.0
  0
ARC
  5
125
  8
0
 62
     7
 10
-13.994453999999999
 20
260.71446600000002
 30
0.0
 40
0.6233430000000001
 50
272.09438799999998
 51
357.88917400000003
  0
ARC
  5
126
  8
0
 62
     7
 10
-13.949127000000001
 20
260.71423099999998
 30
0.0
 40
0.6231
 50
182.09006500000001
 51
267.92641299999991
  0
ARC
  5
127
  8
0
 62
     7
 10
-13.948893
 20
260.66854799999999
 30
0.0
 40
0.6233430000000001
 50
92.094351000000003
 51
177.889171
  0
ARC
  5
128
  8
0
 62
     7
 10
-13.994218999999999
 20
260.66878200000002
 30
0.0
 40
0.6231
 50
2.0900620000000001
 51
87.926376000000005
  0
ARC
  5
129
  8
0
 62
     7
 10
-14.002269
 20
260.722103
 30
0.0
 40
0.8311159999999999
 50
272.109737
 51
357.89027299999998
  0
ARC
  5
12A
  8
0
 62
     7
 10
-13.941077
 20
260.722103
 30
0.0
 40
0.8311149999999999
 50
182.10972899999999
 51
267.89030000000002
  0
ARC
  5
12B
  8
0
 62
     7
 10
-13.941077
 20
260.660911
 30
0.0
 40
0.8311149999999999
 50
92.109700000000004
 51
177.89027100000001
  0
ARC
  5
12C
  8
0
 62
     7
 10
-14.002269
 20
260.66091
 30
0.0
 40
0.8311159999999999
 50
2.109726999999999
 51
87.890263000000004
  0
ARC
  5
12D
  8
0
 62
     7
 10
78.251705000000001
 20
143.040234
 30
0.0
 40
4.7001739999999987
 50
90.0
 51
179.99996999999999
  0
ARC
  5
12E
  8
0
 62
     7
 10
78.251704000000004
 20
143.040234
 30
0.0
 40
4.7001739999999987
 50
0.00001
 51
89.999980000000008
  0
ARC
  5
12F
  8
0
 62
     7
 10
78.251875999999996
 20
143.04040800000001
 30
0.0
 40
4.7000019999999987
 50
269.99792000000002
 51
359.99788999999998
  0
ARC
  5
130
  8
0
 62
     7
 10
78.251531
 20
143.04040699999999
 30
0.0
 40
4.7000000000000002
 50
180.00210999999999
 51
270.00211999999999
  0
ARC
  5
131
  8
0
 62
     7
 10
78.251878000000005
 20
143.04040699999999
 30
0.0
 40
4.5001850000000001
 50
90.002193000000034
 51
180.00220300000001
  0
ARC
  5
132
  8
0
 62
     7
 10
78.251531
 20
143.04040699999999
 30
0.0
 40
4.5001850000000001
 50
359.997817
 51
89.997787000000002
  0
ARC
  5
133
  8
0
 62
     7
 10
78.251704000000004
 20
143.04023599999999
 30
0.0
 40
4.500013
 50
270.00002000000001
 51
359.99999000000003
  0
ARC
  5
134
  8
0
 62
     7
 10
78.251704000000004
 20
143.040235
 30
0.0
 40
4.5000109999999989
 50
179.99996999999999
 51
270.00002000000001
  0
ARC
  5
135
  8
0
 62
     7
 10
-12.938056
 20
147.56888499999999
 30
0.0
 40
0.166317
 50
359.98526700000002
 51
9.0427090000000003
  0
ARC
  5
136
  8
0
 62
     7
 10
-12.970305
 20
147.561723
 30
0.0
 40
0.199302
 50
9.6188440000000011
 51
16.950886000000001
  0
ARC
  5
137
  8
0
 62
     7
 10
-12.938675
 20
147.57019700000001
 30
0.0
 40
0.166578
 50
17.334595999999991
 51
26.542359999999999
  0
ARC
  5
138
  8
0
 62
     7
 10
-13.048335
 20
147.50340299999999
 30
0.0
 40
0.294724
 50
28.633132
 51
33.803666999999997
  0
ARC
  5
139
  8
0
 62
     7
 10
-13.020814
 20
147.50373500000001
 30
0.0
 40
0.272087
 50
36.971366000000003
 51
42.639766999999992
  0
ARC
  5
13A
  8
0
 62
     7
 10
-12.989255999999999
 20
147.520093
 30
0.0
 40
0.237975
 50
44.889771000000003
 51
51.354480000000002
  0
ARC
  5
13B
  8
0
 62
     7
 10
-12.928906
 20
147.60213100000001
 30
0.0
 40
0.136274
 50
49.631396999999993
 51
61.424163
  0
ARC
  5
13C
  8
0
 62
     7
 10
-12.950526999999999
 20
147.579204
 30
0.0
 40
0.166943
 50
58.670454000000007
 51
68.199430000000007
  0
ARC
  5
13D
  8
0
 62
     7
 10
-12.991720000000001
 20
147.46941899999999
 30
0.0
 40
0.284186
 50
68.708456999999996
 51
74.421629999999993
  0
ARC
  5
13E
  8
0
 62
     7
 10
-12.958284000000001
 20
147.59945500000001
 30
0.0
 40
0.149972
 50
73.384447999999992
 51
84.26785799999999
  0
ARC
  5
13F
  8
0
 62
     7
 10
-12.971717
 20
147.55446699999999
 30
0.0
 40
0.196277
 50
81.677194999999998
 51
89.952954000000005
  0
ARC
  5
140
  8
0
 62
     7
 10
-12.979620000000001
 20
138.55860899999999
 30
0.0
 40
0.208024
 50
272.22168199999999
 51
357.877028
  0
LINE
  5
141
  8
0
 62
     7
 10
-12.771699999999999
 20
147.56899999999999
 30
0.0
 11
-12.771699999999999
 21
138.55099999999999
 31
0.0
  0
LINE
  5
142
  8
0
 62
     7
 10
-15.571899999999999
 20
138.351
 30
0.0
 11
-15.571899999999999
 21
147.751
 31
0.0
  0
LINE
  5
143
  8
0
 62
     7
 10
-15.571899999999999
 20
147.751
 30
0.0
 11
-12.9716
 21
147.751
 31
0.0
  0
LINE
  5
144
  8
0
 62
     7
 10
-15.5716
 20
138.351
 30
0.0
 11
-12.9716
 21
138.351
 31
0.0
  0
LINE
  5
145
  8
0
 62
     7
 10
80.651600000000002
 20
149.19
 30
0.0
 11
77.4328
 21
149.19
 31
0.0
  0
LINE
  5
146
  8
0
 62
     7
 10
80.651600000000002
 20
149.13999999999999
 30
0.0
 11
77.446200000000005
 21
149.13999999999999
 31
0.0
  0
ARC
  5
147
  8
0
 62
     7
 10
78.251878000000005
 20
143.04040699999999
 30
0.0
 40
4.5001850000000001
 50
90.002193000000034
 51
180.00220300000001
  0
ARC
  5
148
  8
0
 62
     7
 10
78.251531
 20
143.04040699999999
 30
0.0
 40
4.5001850000000001
 50
359.997817
 51
89.997787000000002
  0
ARC
  5
149
  8
0
 62
     7
 10
78.251704000000004
 20
143.04023599999999
 30
0.0
 40
4.500013
 50
270.00002000000001
 51
359.99999000000003
  0
ARC
  5
14A
  8
0
 62
     7
 10
78.251704000000004
 20
143.040235
 30
0.0
 40
4.5000109999999989
 50
179.99996999999999
 51
270.00002000000001
  0
LINE
  5
14B
  8
0
 62
     7
 10
83.762500000000003
 20
117.919
 30
0.0
 11
81.551400000000015
 21
117.32599999999999
 31
0.0
  0
LINE
  5
14C
  8
0
 62
     7
 10
81.551400000000015
 20
117.32599999999999
 30
0.0
 11
83.762500000000003
 21
116.73399999999999
 31
0.0
  0
LINE
  5
14D
  8
0
 62
     7
 10
83.762500000000003
 20
116.73399999999999
 30
0.0
 11
83.762500000000003
 21
117.919
 31
0.0
  0
LINE
  5
14E
  8
0
 62
     7
 10
72.741900000000001
 20
116.748
 30
0.0
 11
74.952299999999994
 21
117.34099999999999
 31
0.0
  0
LINE
  5
14F
  8
0
 62
     7
 10
74.952299999999994
 20
117.34099999999999
 30
0.0
 11
72.741900000000001
 21
117.93300000000001
 31
0.0
  0
LINE
  5
150
  8
0
 62
     7
 10
72.741900000000001
 20
117.93300000000001
 30
0.0
 11
72.741900000000001
 21
116.748
 31
0.0
  0
LINE
  5
151
  8
0
 62
     7
 10
71.308099999999996
 20
117.334
 30
0.0
 11
89.217200000000005
 21
117.334
 31
0.0
  0
LINE
  5
152
  8
0
 62
     7
 10
-33.590600000000002
 20
36.576799999999999
 30
0.0
 11
-29.789899999999999
 21
36.576799999999999
 31
0.0
  0
LINE
  5
153
  8
0
 62
     7
 10
-27.579499999999999
 20
37.169000000000011
 30
0.0
 11
-29.789899999999999
 21
36.576799999999999
 31
0.0
  0
LINE
  5
154
  8
0
 62
     7
 10
-29.789899999999999
 20
36.576799999999999
 30
0.0
 11
-27.579499999999999
 21
35.9846
 31
0.0
  0
LINE
  5
155
  8
0
 62
     7
 10
-27.579499999999999
 20
35.9846
 30
0.0
 11
-27.579499999999999
 21
37.169000000000011
 31
0.0
  0
LINE
  5
156
  8
0
 62
     7
 10
-29.789899999999999
 20
36.576799999999999
 30
0.0
 11
-26.589099999999998
 21
36.576799999999999
 31
0.0
  0
LINE
  5
157
  8
0
 62
     7
 10
-33.3904
 20
35.87680000000001
 30
0.0
 11
-33.3904
 21
43.174599999999991
 31
0.0
  0
LINE
  5
158
  8
0
 62
     7
 10
-29.990100000000002
 20
35.87680000000001
 30
0.0
 11
-29.990100000000002
 21
43.174599999999991
 31
0.0
  0
LINE
  5
159
  8
0
 62
     7
 10
-35.6008
 20
35.9846
 30
0.0
 11
-33.3904
 21
36.576799999999999
 31
0.0
  0
LINE
  5
15A
  8
0
 62
     7
 10
-33.3904
 20
36.576799999999999
 30
0.0
 11
-35.6008
 21
37.169000000000011
 31
0.0
  0
LINE
  5
15B
  8
0
 62
     7
 10
-35.6008
 20
37.169000000000011
 30
0.0
 11
-35.6008
 21
35.9846
 31
0.0
  0
LINE
  5
15C
  8
0
 62
     7
 10
-44.643199999999993
 20
36.576799999999999
 30
0.0
 11
-33.590600000000002
 21
36.576799999999999
 31
0.0
  0
LINE
  5
15D
  8
0
 62
     7
 10
-32.740699999999997
 20
50.036900000000003
 30
0.0
 11
-32.740699999999997
 21
105.04000000000001
 31
0.0
  0
LINE
  5
15E
  8
0
 62
     7
 10
-30.640499999999999
 20
50.036900000000003
 30
0.0
 11
-30.640499999999999
 21
105.04000000000001
 31
0.0
  0
LINE
  5
15F
  8
0
 62
     7
 10
-29.488099999999999
 20
46.13559999999999
 30
0.0
 11
-29.488099999999999
 21
44.034500000000001
 31
0.0
  0
LINE
  5
160
  8
0
 62
     7
 10
-30.5885
 20
46.13559999999999
 30
0.0
 11
-30.5885
 21
44.034500000000001
 31
0.0
  0
ARC
  5
161
  8
0
 62
     7
 10
-32.130082000000002
 20
50.204444000000002
 30
0.0
 40
6.7118279999999988
 50
291.31268999999998
 51
293.180272
  0
ARC
  5
162
  8
0
 62
     7
 10
-30.174081999999999
 20
45.226151999999992
 30
0.0
 40
1.3631349999999991
 50
279.67420700000002
 51
290.77325500000001
  0
ARC
  5
163
  8
0
 62
     7
 10
-30.050338
 20
44.589259999999989
 30
0.0
 40
0.7146620000000001
 50
270.19001600000001
 51
278.47499199999999
  0
ARC
  5
164
  8
0
 62
     7
 10
-30.047231
 20
44.613711000000002
 30
0.0
 40
0.7391090000000001
 50
256.33946900000001
 51
269.94282099999998
  0
ARC
  5
165
  8
0
 62
     7
 10
-29.915323000000001
 20
45.217667999999989
 30
0.0
 40
1.3572120000000001
 50
245.13305399999999
 51
256.94990200000001
  0
ARC
  5
166
  8
0
 62
     7
 10
-29.407045
 20
46.414577999999999
 30
0.0
 40
2.6572230000000001
 50
243.600807
 51
246.04220900000001
  0
ARC
  5
167
  8
0
 62
     7
 10
-29.996224999999999
 20
45.26169999999999
 30
0.0
 40
1.0557259999999991
 50
92.809301000000019
 51
124.12629099999999
  0
ARC
  5
168
  8
0
 62
     7
 10
-30.048470999999999
 20
45.576605999999998
 30
0.0
 40
0.7395510000000001
 50
76.442886000000001
 51
89.961050999999983
  0
ARC
  5
169
  8
0
 62
     7
 10
-30.141451
 20
45.141908999999998
 30
0.0
 40
1.1839879999999989
 50
64.649830000000009
 51
76.999894999999995
  0
ARC
  5
16A
  8
0
 62
     7
 10
-30.348116999999998
 20
44.663339999999998
 30
0.0
 40
1.7050540000000001
 50
59.710383999999991
 51
65.259174999999999
  0
LINE
  5
16B
  8
0
 62
     7
 10
-33.888199999999998
 20
46.13559999999999
 30
0.0
 11
-33.888199999999998
 21
44.034500000000001
 31
0.0
  0
LINE
  5
16C
  8
0
 62
     7
 10
-32.788600000000002
 20
46.13559999999999
 30
0.0
 11
-32.788600000000002
 21
44.034500000000001
 31
0.0
  0
ARC
  5
16D
  8
0
 62
     7
 10
-35.193292999999997
 20
49.61280399999999
 30
0.0
 40
6.0745959999999988
 50
291.34287899999998
 51
293.320087
  0
ARC
  5
16E
  8
0
 62
     7
 10
-33.501469
 20
45.300863999999997
 30
0.0
 40
1.4426509999999999
 50
280.19748299999998
 51
291.08572400000003
  0
ARC
  5
16F
  8
0
 62
     7
 10
-33.331242000000003
 20
44.443860999999998
 30
0.0
 40
0.569267
 50
270.31987900000001
 51
278.60581300000001
  0
ARC
  5
170
  8
0
 62
     7
 10
-33.327528000000001
 20
44.610742999999992
 30
0.0
 40
0.736142
 50
256.19376299999999
 51
269.95824499999998
  0
ARC
  5
171
  8
0
 62
     7
 10
-33.211649000000001
 20
45.162081000000001
 30
0.0
 40
1.2993429999999999
 50
251.28995
 51
257.0333950000001
  0
ARC
  5
172
  8
0
 62
     7
 10
-32.663627000000012
 20
46.742657000000001
 30
0.0
 40
2.97221
 50
245.66815399999999
 51
251.057751
  0
ARC
  5
173
  8
0
 62
     7
 10
-33.093633000000011
 20
44.773009999999992
 30
0.0
 40
1.5773839999999999
 50
106.3542409999999
 51
120.248389
  0
ARC
  5
174
  8
0
 62
     7
 10
-33.314995000000003
 20
45.465381000000001
 30
0.0
 40
0.850876
 50
90.880092000000005
 51
105.17909400000001
  0
ARC
  5
175
  8
0
 62
     7
 10
-33.328536999999997
 20
45.697692999999987
 30
0.0
 40
0.618464
 50
75.005428000000023
 51
89.956233999999995
  0
ARC
  5
176
  8
0
 62
     7
 10
-33.471666999999997
 20
45.074694000000001
 30
0.0
 40
1.257490999999999
 50
63.742472999999997
 51
76.050279000000003
  0
ARC
  5
177
  8
0
 62
     7
 10
-33.668154000000001
 20
44.619832000000002
 30
0.0
 40
1.7525230000000001
 50
59.874073000000003
 51
64.560518000000002
  0
ARC
  5
178
  8
0
 62
     7
 10
-29.507930000000002
 20
38.613883000000001
 30
0.0
 40
5.527228
 50
101.27396899999999
 51
103.427391
  0
ARC
  5
179
  8
0
 62
     7
 10
-31.911377000000002
 20
48.277824000000003
 30
0.0
 40
4.4316500000000003
 50
278.46848299999999
 51
284.63834900000001
  0
ARC
  5
17A
  8
0
 62
     7
 10
-31.526107
 20
45.673799000000002
 30
0.0
 40
1.799282
 50
270.55438700000002
 51
278.54531100000003
  0
LINE
  5
17B
  8
0
 62
     7
 10
-31.508700000000001
 20
43.874599999999987
 30
0.0
 11
-31.867999999999999
 21
43.874599999999987
 31
0.0
  0
ARC
  5
17C
  8
0
 62
     7
 10
-31.866699000000001
 20
45.477685000000001
 30
0.0
 40
1.6030829999999989
 50
260.63633499999997
 51
269.952676
  0
ARC
  5
17D
  8
0
 62
     7
 10
-31.612272000000001
 20
47.234169999999999
 30
0.0
 40
3.377739
 50
257.71888300000001
 51
261.22569700000003
  0
ARC
  5
17E
  8
0
 62
     7
 10
-40.716328999999988
 20
6.9111409999999998
 30
0.0
 40
37.960374000000002
 50
77.237880000000004
 51
77.945414999999997
  0
ARC
  5
17F
  8
0
 62
     7
 10
-31.783892000000002
 20
43.180128000000003
 30
0.0
 40
3.1215959999999989
 50
102.063368
 51
108.774478
  0
ARC
  5
180
  8
0
 62
     7
 10
-31.644739999999999
 20
42.730840999999998
 30
0.0
 40
3.5902910000000001
 50
92.451288999999989
 51
102.736519
  0
ARC
  5
181
  8
0
 62
     7
 10
-31.766729000000002
 20
44.787064000000001
 30
0.0
 40
1.531107999999999
 50
87.059633999999988
 51
91.181416000000013
  0
ARC
  5
182
  8
0
 62
     7
 10
-31.622471000000001
 20
45.162213000000001
 30
0.0
 40
1.1558129999999991
 50
88.554182999999995
 51
93.259502999999995
  0
ARC
  5
183
  8
0
 62
     7
 10
-31.641888999999999
 20
44.111311000000001
 30
0.0
 40
2.2068819999999989
 50
84.572031999999993
 51
88.738597999999996
  0
ARC
  5
184
  8
0
 62
     7
 10
-31.814827000000001
 20
42.289004999999989
 30
0.0
 40
4.0373760000000001
 50
72.317507999999989
 51
84.575118000000003
  0
LINE
  5
185
  8
0
 62
     7
 10
-30.6877
 20
46.456699999999991
 30
0.0
 11
-31.688199999999998
 21
46.456699999999991
 31
0.0
  0
LINE
  5
186
  8
0
 62
     7
 10
-32.688299999999998
 20
46.456699999999991
 30
0.0
 11
-31.688199999999998
 21
46.456699999999991
 31
0.0
  0
LINE
  5
187
  8
0
 62
     7
 10
-33.5289
 20
43.835700000000003
 30
0.0
 11
-31.688199999999998
 21
43.835700000000003
 31
0.0
  0
LINE
  5
188
  8
0
 62
     7
 10
-31.688199999999998
 20
43.835700000000003
 30
0.0
 11
-29.847799999999999
 21
43.835700000000003
 31
0.0
  0
LINE
  5
189
  8
0
 62
     7
 10
-29.607299999999999
 20
43.9955
 30
0.0
 11
-29.847799999999999
 21
43.85499999999999
 31
0.0
  0
LINE
  5
18A
  8
0
 62
     7
 10
-29.847799999999999
 20
43.85499999999999
 30
0.0
 11
-29.847799999999999
 21
43.835700000000003
 31
0.0
  0
LINE
  5
18B
  8
0
 62
     7
 10
-29.488099999999999
 20
44.034500000000001
 30
0.0
 11
-29.847799999999999
 21
43.85499999999999
 31
0.0
  0
LINE
  5
18C
  8
0
 62
     7
 10
-33.888199999999998
 20
44.034500000000001
 30
0.0
 11
-33.5289
 21
43.835700000000003
 31
0.0
  0
LINE
  5
18D
  8
0
 62
     7
 10
-33.5289
 20
46.335399999999993
 30
0.0
 11
-29.847799999999999
 21
46.335399999999993
 31
0.0
  0
LINE
  5
18E
  8
0
 62
     7
 10
-32.928400000000003
 20
46.435000000000002
 30
0.0
 11
-30.447900000000001
 21
46.435000000000002
 31
0.0
  0
ARC
  5
18F
  8
0
 62
     7
 10
-30.890428
 20
46.997996000000001
 30
0.0
 40
0.5779880000000001
 50
290.53024699999997
 51
322.34792800000002
  0
ARC
  5
190
  8
0
 62
     7
 10
-30.767357000000001
 20
46.887813000000001
 30
0.0
 40
0.413418
 50
324.01895000000002
 51
341.37127900000002
  0
LINE
  5
191
  8
0
 62
     7
 10
-30.375599999999999
 20
46.755800000000001
 30
0.0
 11
-30.348400000000002
 21
46.835700000000003
 31
0.0
  0
LINE
  5
192
  8
0
 62
     7
 10
-30.348400000000002
 20
46.835700000000003
 30
0.0
 11
-30.348400000000002
 21
46.95559999999999
 31
0.0
  0
LINE
  5
193
  8
0
 62
     7
 10
-30.348400000000002
 20
46.95559999999999
 30
0.0
 11
-30.388000000000002
 21
47.0961
 31
0.0
  0
LINE
  5
194
  8
0
 62
     7
 10
-33.008400000000002
 20
47.0961
 30
0.0
 11
-32.988700000000001
 21
47.0961
 31
0.0
  0
ARC
  5
195
  8
0
 62
     7
 10
-15.165730999999999
 20
44.487978999999989
 30
0.0
 40
18.032243000000001
 50
171.68364800000001
 51
172.13475800000001
  0
LINE
  5
196
  8
0
 62
     7
 10
-33.028300000000002
 20
46.95559999999999
 30
0.0
 11
-33.028300000000002
 21
46.835700000000003
 31
0.0
  0
LINE
  5
197
  8
0
 62
     7
 10
-33.028300000000002
 20
46.835700000000003
 30
0.0
 11
-33.002499999999998
 21
46.755800000000001
 31
0.0
  0
ARC
  5
198
  8
0
 62
     7
 10
-32.173496
 20
47.033411000000001
 30
0.0
 40
0.874267
 50
198.51721699999999
 51
203.69466800000001
  0
ARC
  5
199
  8
0
 62
     7
 10
-32.657190999999997
 20
46.818959999999997
 30
0.0
 40
0.345173
 50
203.36358100000001
 51
237.88476800000001
  0
ARC
  5
19A
  8
0
 62
     7
 10
-32.157505999999998
 20
47.66328699999999
 30
0.0
 40
1.3261940000000001
 50
238.99259799999999
 51
245.47751600000001
  0
LINE
  5
19B
  8
0
 62
     7
 10
-32.707900000000002
 20
46.456699999999991
 30
0.0
 11
-32.688299999999998
 21
46.456699999999991
 31
0.0
  0
LINE
  5
19C
  8
0
 62
     7
 10
-32.848500000000001
 20
47.43549999999999
 30
0.0
 11
-30.547899999999998
 21
47.43549999999999
 31
0.0
  0
LINE
  5
19D
  8
0
 62
     7
 10
-32.848500000000001
 20
49.0364
 30
0.0
 11
-31.688199999999998
 21
49.0364
 31
0.0
  0
LINE
  5
19E
  8
0
 62
     7
 10
-31.688199999999998
 20
49.0364
 30
0.0
 11
-30.547899999999998
 21
49.0364
 31
0.0
  0
LINE
  5
19F
  8
0
 62
     7
 10
-30.348400000000002
 20
49.476000000000013
 30
0.0
 11
-30.348400000000002
 21
49.375799999999998
 31
0.0
  0
LINE
  5
1A0
  8
0
 62
     7
 10
-30.348400000000002
 20
49.375799999999998
 30
0.0
 11
-30.4087
 21
49.276200000000003
 31
0.0
  0
LINE
  5
1A1
  8
0
 62
     7
 10
-33.048999999999999
 20
49.476000000000013
 30
0.0
 11
-33.028300000000002
 21
49.375799999999998
 31
0.0
  0
LINE
  5
1A2
  8
0
 62
     7
 10
-33.028300000000002
 20
49.375799999999998
 30
0.0
 11
-32.988700000000001
 21
49.276200000000003
 31
0.0
  0
LINE
  5
1A3
  8
0
 62
     7
 10
-33.048999999999999
 20
50.036900000000003
 30
0.0
 11
-30.348400000000002
 21
50.036900000000003
 31
0.0
  0
LINE
  5
1A4
  8
0
 62
     7
 10
-33.048999999999999
 20
50.036900000000003
 30
0.0
 11
-33.048999999999999
 21
49.476000000000013
 31
0.0
  0
LINE
  5
1A5
  8
0
 62
     7
 10
-30.348400000000002
 20
50.036900000000003
 30
0.0
 11
-30.348400000000002
 21
49.476000000000013
 31
0.0
  0
LINE
  5
1A6
  8
0
 62
     7
 10
-29.847799999999999
 20
46.335399999999993
 30
0.0
 11
-29.488099999999999
 21
46.13559999999999
 31
0.0
  0
LINE
  5
1A7
  8
0
 62
     7
 10
-33.5289
 20
46.335399999999993
 30
0.0
 11
-33.888199999999998
 21
46.13559999999999
 31
0.0
  0
LINE
  5
1A8
  8
0
 62
     7
 10
-32.988700000000001
 20
49.276200000000003
 30
0.0
 11
-32.848500000000001
 21
49.0364
 31
0.0
  0
LINE
  5
1A9
  8
0
 62
     7
 10
-32.848500000000001
 20
47.43549999999999
 30
0.0
 11
-32.988700000000001
 21
47.0961
 31
0.0
  0
LINE
  5
1AA
  8
0
 62
     7
 10
-30.4087
 20
49.276200000000003
 30
0.0
 11
-30.547899999999998
 21
49.0364
 31
0.0
  0
LINE
  5
1AB
  8
0
 62
     7
 10
-30.547899999999998
 20
47.43549999999999
 30
0.0
 11
-30.388000000000002
 21
47.0961
 31
0.0
  0
LINE
  5
1AC
  8
0
 62
     7
 10
-32.848500000000001
 20
49.0364
 30
0.0
 11
-32.848500000000001
 21
47.43549999999999
 31
0.0
  0
LINE
  5
1AD
  8
0
 62
     7
 10
-30.547899999999998
 20
49.0364
 30
0.0
 11
-30.547899999999998
 21
47.43549999999999
 31
0.0
  0
LINE
  5
1AE
  8
0
 62
     7
 10
-32.928400000000003
 20
46.435000000000002
 30
0.0
 11
-32.928400000000003
 21
46.335399999999993
 31
0.0
  0
LINE
  5
1AF
  8
0
 62
     7
 10
-30.447900000000001
 20
46.435000000000002
 30
0.0
 11
-30.447900000000001
 21
46.335399999999993
 31
0.0
  0
LINE
  5
1B0
  8
0
 62
     7
 10
-33.888199999999998
 20
44.034500000000001
 30
0.0
 11
-33.5289
 21
43.835700000000003
 31
0.0
  0
LINE
  5
1B1
  8
0
 62
     7
 10
-29.488099999999999
 20
44.034500000000001
 30
0.0
 11
-29.847799999999999
 21
43.835700000000003
 31
0.0
  0
LINE
  5
1B2
  8
0
 62
     7
 10
-28.590699999999998
 20
107.44
 30
0.0
 11
-28.590699999999998
 21
105.04000000000001
 31
0.0
  0
LINE
  5
1B3
  8
0
 62
     7
 10
-34.790500000000002
 20
107.44
 30
0.0
 11
-34.790500000000002
 21
105.04000000000001
 31
0.0
  0
LINE
  5
1B4
  8
0
 62
     7
 10
-28.390899999999998
 20
105.23999999999999
 30
0.0
 11
-34.990299999999998
 21
105.23999999999999
 31
0.0
  0
LINE
  5
1B5
  8
0
 62
     7
 10
-28.390899999999998
 20
105.23999999999999
 30
0.0
 11
-28.590699999999998
 21
105.04000000000001
 31
0.0
  0
LINE
  5
1B6
  8
0
 62
     7
 10
-28.590699999999998
 20
105.04000000000001
 30
0.0
 11
-34.790500000000002
 21
105.04000000000001
 31
0.0
  0
LINE
  5
1B7
  8
0
 62
     7
 10
-34.790500000000002
 20
105.04000000000001
 30
0.0
 11
-34.990299999999998
 21
105.23999999999999
 31
0.0
  0
LINE
  5
1B8
  8
0
 62
     7
 10
-34.990299999999998
 20
105.23999999999999
 30
0.0
 11
-34.990299999999998
 21
107.44
 31
0.0
  0
LINE
  5
1B9
  8
0
 62
     7
 10
-34.990299999999998
 20
107.44
 30
0.0
 11
-28.390899999999998
 21
107.44
 31
0.0
  0
LINE
  5
1BA
  8
0
 62
     7
 10
-28.390899999999998
 20
107.44
 30
0.0
 11
-28.390899999999998
 21
105.23999999999999
 31
0.0
  0
LINE
  5
1BB
  8
0
 62
     7
 10
-28.590699999999998
 20
123.04000000000001
 30
0.0
 11
-28.590699999999998
 21
115.04000000000001
 31
0.0
  0
LINE
  5
1BC
  8
0
 62
     7
 10
-34.790500000000002
 20
123.04000000000001
 30
0.0
 11
-34.790500000000002
 21
115.04000000000001
 31
0.0
  0
LINE
  5
1BD
  8
0
 62
     7
 10
-28.390899999999998
 20
115.04000000000001
 30
0.0
 11
-34.990299999999998
 21
115.04000000000001
 31
0.0
  0
LINE
  5
1BE
  8
0
 62
     7
 10
-34.990299999999998
 20
115.04000000000001
 30
0.0
 11
-34.990299999999998
 21
123.04000000000001
 31
0.0
  0
LINE
  5
1BF
  8
0
 62
     7
 10
-34.990299999999998
 20
123.04000000000001
 30
0.0
 11
-28.390899999999998
 21
123.04000000000001
 31
0.0
  0
LINE
  5
1C0
  8
0
 62
     7
 10
-28.390899999999998
 20
123.04000000000001
 30
0.0
 11
-28.390899999999998
 21
115.04000000000001
 31
0.0
  0
LINE
  5
1C1
  8
0
  6
AIGENLINE001
 62
     7
 10
79.451599999999999
 20
67.392700000000005
 30
0.0
 11
70.304500000000004
 21
81.206599999999995
 31
0.0
  0
LINE
  5
1C2
  8
0
 62
     7
 10
71.354600000000005
 20
50.036499999999997
 30
0.0
 11
71.354600000000005
 21
77.998800000000003
 31
0.0
  0
LINE
  5
1C3
  8
0
 62
     7
 10
69.254400000000004
 20
77.998800000000003
 30
0.0
 11
69.254400000000004
 21
50.036499999999997
 31
0.0
  0
LINE
  5
1C4
  8
0
  6
AIGENLINE001
 62
     7
 10
70.304500000000004
 20
81.206599999999995
 30
0.0
 11
70.304500000000004
 21
42.865200000000002
 31
0.0
  0
LINE
  5
1C5
  8
0
 62
     7
 10
70.304500000000004
 20
44.034500000000001
 30
0.0
 11
70.304500000000004
 21
46.134599999999992
 31
0.0
  0
LINE
  5
1C6
  8
0
 62
     7
 10
68.404499999999999
 20
44.034500000000001
 30
0.0
 11
68.404499999999999
 21
46.134599999999992
 31
0.0
  0
ARC
  5
1C7
  8
0
 62
     7
 10
72.812794999999994
 20
61.71694999999999
 30
0.0
 40
18.223706
 50
256.00145099999997
 51
257.12688200000002
  0
ARC
  5
1C8
  8
0
 62
     7
 10
69.542147
 20
47.516675999999997
 30
0.0
 40
3.651751
 50
257.51477199999999
 51
264.347465
  0
ARC
  5
1C9
  8
0
 62
     7
 10
69.368209999999991
 20
46.012865999999988
 30
0.0
 40
2.138266999999999
 50
265.01662800000003
 51
269.90542099999999
  0
ARC
  5
1CA
  8
0
 62
     7
 10
69.363846999999993
 20
45.919834000000002
 30
0.0
 40
2.0452319999999991
 50
270.023347
 51
278.15184699999998
  0
ARC
  5
1CB
  8
0
 62
     7
 10
69.204708999999994
 20
47.196717
 30
0.0
 40
3.3318620000000001
 50
277.74724900000001
 51
281.36495500000001
  0
ARC
  5
1CC
  8
0
 62
     7
 10
68.328117000000006
 20
51.441612999999997
 30
0.0
 40
7.6662970000000001
 50
281.53621399999997
 51
284.93972300000001
  0
ARC
  5
1CD
  8
0
 62
     7
 10
69.023709999999994
 20
42.381749999999997
 30
0.0
 40
3.9653900000000002
 50
71.155899000000005
 51
79.957351000000003
  0
ARC
  5
1CE
  8
0
 62
     7
 10
69.348640000000003
 20
44.022576999999998
 30
0.0
 40
2.2932909999999991
 50
80.802391
 51
89.599238999999983
  0
ARC
  5
1CF
  8
0
 62
     7
 10
69.366084000000001
 20
43.975621999999987
 30
0.0
 40
2.3401900000000002
 50
90.034361000000004
 51
102.23045999999999
  0
ARC
  5
1D0
  8
0
 62
     7
 10
69.606967999999995
 20
42.673147
 30
0.0
 40
3.664358
 50
101.597105
 51
109.15623600000001
  0
ARC
  5
1D1
  8
0
 62
     7
 10
74.805344999999988
 20
62.128351000000002
 30
0.0
 40
18.645282999999999
 50
256.03125399999999
 51
257.13267000000002
  0
ARC
  5
1D2
  8
0
 62
     7
 10
71.444055000000006
 20
47.524887999999997
 30
0.0
 40
3.660080999999999
 50
257.52045500000003
 51
264.33507700000001
  0
ARC
  5
1D3
  8
0
 62
     7
 10
71.268226999999996
 20
46.00635599999999
 30
0.0
 40
2.131756999999999
 50
265.00899900000002
 51
269.90419600000001
  0
ARC
  5
1D4
  8
0
 62
     7
 10
71.263829000000001
 20
45.920068000000001
 30
0.0
 40
2.0454659999999989
 50
270.02335900000003
 51
278.1513799999999
  0
ARC
  5
1D5
  8
0
 62
     7
 10
71.103960999999984
 20
47.202672
 30
0.0
 40
3.3378629999999991
 50
277.74616900000001
 51
281.35873600000002
  0
ARC
  5
1D6
  8
0
 62
     7
 10
70.216561999999996
 20
51.502361000000001
 30
0.0
 40
7.7281440000000003
 50
281.53065900000001
 51
284.91119700000002
  0
LINE
  5
1D7
  8
0
 62
     7
 10
72.205200000000005
 20
44.034500000000001
 30
0.0
 11
72.205200000000005
 21
46.134599999999992
 31
0.0
  0
ARC
  5
1D8
  8
0
 62
     7
 10
70.918309999999991
 20
42.355185999999989
 30
0.0
 40
3.9924929999999992
 50
71.196572000000003
 51
79.947238999999996
  0
ARC
  5
1D9
  8
0
 62
     7
 10
71.248552000000004
 20
44.021278000000002
 30
0.0
 40
2.2945899999999999
 50
80.804929999999999
 51
89.597727000000006
  0
ARC
  5
1DA
  8
0
 62
     7
 10
71.266060999999993
 20
43.978132000000002
 30
0.0
 40
2.3376809999999999
 50
90.034270999999976
 51
102.237048
  0
ARC
  5
1DB
  8
0
 62
     7
 10
71.511510999999985
 20
42.655037999999998
 30
0.0
 40
3.6829610000000002
 50
101.60595000000001
 51
109.130809
  0
LINE
  5
1DC
  8
0
 62
     7
 10
72.205200000000005
 20
43.874599999999987
 30
0.0
 11
72.205200000000005
 21
44.034500000000001
 31
0.0
  0
LINE
  5
1DD
  8
0
 62
     7
 10
72.205200000000005
 20
46.134599999999992
 30
0.0
 11
72.205200000000005
 21
46.315800000000003
 31
0.0
  0
LINE
  5
1DE
  8
0
 62
     7
 10
68.404499999999999
 20
43.874599999999987
 30
0.0
 11
68.404499999999999
 21
44.034500000000001
 31
0.0
  0
LINE
  5
1DF
  8
0
 62
     7
 10
68.404499999999999
 20
46.134599999999992
 30
0.0
 11
68.404499999999999
 21
46.315800000000003
 31
0.0
  0
LINE
  5
1E0
  8
0
 62
     7
 10
71.305000000000007
 20
46.454999999999998
 30
0.0
 11
70.304500000000004
 21
46.454999999999998
 31
0.0
  0
LINE
  5
1E1
  8
0
 62
     7
 10
70.304500000000004
 20
46.454999999999998
 30
0.0
 11
69.305099999999996
 21
46.454999999999998
 31
0.0
  0
LINE
  5
1E2
  8
0
 62
     7
 10
72.205200000000005
 20
43.874599999999987
 30
0.0
 11
72.144900000000007
 21
43.835299999999989
 31
0.0
  0
LINE
  5
1E3
  8
0
 62
     7
 10
72.144900000000007
 20
43.835299999999989
 30
0.0
 11
68.464500000000001
 21
43.835299999999989
 31
0.0
  0
LINE
  5
1E4
  8
0
 62
     7
 10
68.464500000000001
 20
43.835299999999989
 30
0.0
 11
68.404499999999999
 21
43.874599999999987
 31
0.0
  0
ARC
  5
1E5
  8
0
 62
     7
 10
72.186268999999996
 20
46.280282999999997
 30
0.0
 40
0.040248
 50
61.976429000000003
 51
93.704817000000006
  0
ARC
  5
1E6
  8
0
 62
     7
 10
72.022336999999993
 20
44.702153999999993
 30
0.0
 40
1.6263149999999991
 50
84.306828999999993
 51
88.712819999999994
  0
ARC
  5
1E7
  8
0
 62
     7
 10
71.484456999999992
 20
28.568387999999999
 30
0.0
 40
17.768957
 50
88.147480999999999
 51
89.595580999999996
  0
ARC
  5
1E8
  8
0
 62
     7
 10
70.637979000000001
 20
-59.538263000000001
 30
0.0
 40
105.879627
 50
89.474051000000003
 51
90.088875999999985
  0
ARC
  5
1E9
  8
0
 62
     7
 10
71.059411999999995
 20
-474.82046799999989
 30
0.0
 40
521.16203299999995
 50
90.064380000000014
 51
90.285274999999999
  0
LINE
  5
1EA
  8
0
 62
     7
 10
68.464500000000001
 20
46.335099999999997
 30
0.0
 11
68.404499999999999
 21
46.315800000000003
 31
0.0
  0
LINE
  5
1EB
  8
0
 62
     7
 10
71.544799999999995
 20
46.335099999999997
 30
0.0
 11
71.544799999999995
 21
46.435000000000002
 31
0.0
  0
LINE
  5
1EC
  8
0
 62
     7
 10
71.544799999999995
 20
46.435000000000002
 30
0.0
 11
69.064300000000003
 21
46.435000000000002
 31
0.0
  0
LINE
  5
1ED
  8
0
 62
     7
 10
69.064300000000003
 20
46.335099999999997
 30
0.0
 11
69.064300000000003
 21
46.435000000000002
 31
0.0
  0
LINE
  5
1EE
  8
0
 62
     7
 10
69.305099999999996
 20
46.454999999999998
 30
0.0
 11
69.0047
 21
46.696199999999997
 31
0.0
  0
LINE
  5
1EF
  8
0
 62
     7
 10
69.0047
 20
46.696199999999997
 30
0.0
 11
68.984300000000005
 21
47.09579999999999
 31
0.0
  0
LINE
  5
1F0
  8
0
 62
     7
 10
71.625699999999995
 20
47.09579999999999
 30
0.0
 11
71.604699999999994
 21
46.696199999999997
 31
0.0
  0
LINE
  5
1F1
  8
0
 62
     7
 10
71.604699999999994
 20
46.696199999999997
 30
0.0
 11
71.305000000000007
 21
46.454999999999998
 31
0.0
  0
LINE
  5
1F2
  8
0
 62
     7
 10
71.464799999999997
 20
47.43549999999999
 30
0.0
 11
69.145200000000003
 21
47.43549999999999
 31
0.0
  0
LINE
  5
1F3
  8
0
 62
     7
 10
69.145200000000003
 20
47.43549999999999
 30
0.0
 11
68.984300000000005
 21
47.09579999999999
 31
0.0
  0
LINE
  5
1F4
  8
0
 62
     7
 10
71.625699999999995
 20
47.09579999999999
 30
0.0
 11
71.464799999999997
 21
47.43549999999999
 31
0.0
  0
LINE
  5
1F5
  8
0
 62
     7
 10
71.464799999999997
 20
49.036099999999998
 30
0.0
 11
69.145200000000003
 21
49.036099999999998
 31
0.0
  0
LINE
  5
1F6
  8
0
 62
     7
 10
69.145200000000003
 20
47.43549999999999
 30
0.0
 11
69.145200000000003
 21
49.036099999999998
 31
0.0
  0
LINE
  5
1F7
  8
0
 62
     7
 10
71.464799999999997
 20
47.43549999999999
 30
0.0
 11
71.464799999999997
 21
49.036099999999998
 31
0.0
  0
LINE
  5
1F8
  8
0
 62
     7
 10
69.145200000000003
 20
49.036099999999998
 30
0.0
 11
69.0047
 21
49.2759
 31
0.0
  0
LINE
  5
1F9
  8
0
 62
     7
 10
71.604699999999994
 20
49.2759
 30
0.0
 11
71.464799999999997
 21
49.036099999999998
 31
0.0
  0
LINE
  5
1FA
  8
0
 62
     7
 10
69.0047
 20
49.2759
 30
0.0
 11
68.964399999999998
 21
49.375799999999998
 31
0.0
  0
LINE
  5
1FB
  8
0
 62
     7
 10
68.964399999999998
 20
49.375799999999998
 30
0.0
 11
68.964399999999998
 21
49.475700000000003
 31
0.0
  0
ARC
  5
1FC
  8
0
 62
     7
 10
71.128734999999992
 20
49.528469000000001
 30
0.0
 40
0.5388430000000001
 50
332.043204
 51
354.377139
  0
LINE
  5
1FD
  8
0
 62
     7
 10
71.665000000000006
 20
49.475700000000003
 30
0.0
 11
71.665000000000006
 21
50.036499999999997
 31
0.0
  0
LINE
  5
1FE
  8
0
 62
     7
 10
71.665000000000006
 20
50.036499999999997
 30
0.0
 11
68.964399999999998
 21
50.036499999999997
 31
0.0
  0
LINE
  5
1FF
  8
0
 62
     7
 10
68.964399999999998
 20
49.475700000000003
 30
0.0
 11
68.964399999999998
 21
50.036499999999997
 31
0.0
  0
LINE
  5
200
  8
0
 62
     7
 10
62.891300000000001
 20
50.036499999999997
 30
0.0
 11
62.891300000000001
 21
77.998800000000003
 31
0.0
  0
LINE
  5
201
  8
0
 62
     7
 10
60.791200000000003
 20
77.998800000000003
 30
0.0
 11
60.791200000000003
 21
50.036499999999997
 31
0.0
  0
LINE
  5
202
  8
0
  6
AIGENLINE001
 62
     7
 10
61.841200000000001
 20
81.206599999999995
 30
0.0
 11
61.841200000000001
 21
42.865200000000002
 31
0.0
  0
LINE
  5
203
  8
0
 62
     7
 10
61.841200000000001
 20
44.034500000000001
 30
0.0
 11
61.841200000000001
 21
46.134599999999992
 31
0.0
  0
LINE
  5
204
  8
0
 62
     7
 10
59.941299999999998
 20
44.034500000000001
 30
0.0
 11
59.941299999999998
 21
46.134599999999992
 31
0.0
  0
ARC
  5
205
  8
0
 62
     7
 10
64.325108
 20
61.618944999999989
 30
0.0
 40
18.122706000000001
 50
256.00138500000003
 51
257.133353
  0
ARC
  5
206
  8
0
 62
     7
 10
61.079642000000007
 20
47.521189
 30
0.0
 40
3.6563050000000001
 50
257.51959199999999
 51
264.34443199999998
  0
ARC
  5
207
  8
0
 62
     7
 10
60.904966999999999
 20
46.010628999999987
 30
0.0
 40
2.136029999999999
 50
265.01400000000001
 51
269.90445099999999
  0
ARC
  5
208
  8
0
 62
     7
 10
60.900573000000001
 20
45.921929999999989
 30
0.0
 40
2.0473279999999989
 50
270.02328399999999
 51
278.14766500000002
  0
ARC
  5
209
  8
0
 62
     7
 10
60.74203
 20
47.193567000000002
 30
0.0
 40
3.3286809999999991
 50
277.74696599999999
 51
281.36767300000002
  0
ARC
  5
20A
  8
0
 62
     7
 10
59.864217000000011
 20
51.442450000000001
 30
0.0
 40
7.6672669999999989
 50
281.54044900000002
 51
284.9426259999999
  0
ARC
  5
20B
  8
0
 62
     7
 10
60.566099000000001
 20
42.404153999999991
 30
0.0
 40
3.942356999999999
 50
71.128633999999991
 51
79.980318000000011
  0
ARC
  5
20C
  8
0
 62
     7
 10
60.88530999999999
 20
44.020789999999998
 30
0.0
 40
2.295078999999999
 50
80.805929000000006
 51
89.598193999999978
  0
ARC
  5
20D
  8
0
 62
     7
 10
60.902816000000001
 20
43.977963000000003
 30
0.0
 40
2.3378499999999991
 50
90.034581000000017
 51
102.236605
  0
ARC
  5
20E
  8
0
 62
     7
 10
61.146222999999999
 20
42.662455000000001
 30
0.0
 40
3.6752879999999988
 50
101.598294
 51
109.13880399999999
  0
ARC
  5
20F
  8
0
 62
     7
 10
66.337279000000009
 20
62.109076000000002
 30
0.0
 40
18.625422
 50
256.03124200000002
 51
257.13387999999998
  0
ARC
  5
210
  8
0
 62
     7
 10
62.980656999999987
 20
47.524896999999989
 30
0.0
 40
3.6600609999999998
 50
257.52260699999999
 51
264.33985300000001
  0
ARC
  5
211
  8
0
 62
     7
 10
62.805275999999999
 20
46.009607000000003
 30
0.0
 40
2.135008
 50
265.01281499999999
 51
269.90488599999998
  0
ARC
  5
212
  8
0
 62
     7
 10
62.800897999999989
 20
45.919989999999999
 30
0.0
 40
2.0453879999999991
 50
270.02335499999998
 51
278.15153600000002
  0
ARC
  5
213
  8
0
 62
     7
 10
62.641325000000002
 20
47.200079999999993
 30
0.0
 40
3.3352539999999991
 50
277.74706700000002
 51
281.36173100000002
  0
ARC
  5
214
  8
0
 62
     7
 10
61.759414
 20
51.471910000000001
 30
0.0
 40
7.6971419999999986
 50
281.53343699999999
 51
284.92544900000001
  0
LINE
  5
215
  8
0
 62
     7
 10
63.741900000000001
 20
44.034500000000001
 30
0.0
 11
63.741900000000001
 21
46.134599999999992
 31
0.0
  0
ARC
  5
216
  8
0
 62
     7
 10
62.460351000000003
 20
42.376634000000003
 30
0.0
 40
3.9704760000000001
 50
71.169432
 51
79.966302999999996
  0
ARC
  5
217
  8
0
 62
     7
 10
62.785496999999999
 20
44.02193599999999
 30
0.0
 40
2.2939329999999991
 50
80.803469000000007
 51
89.594491000000005
  0
ARC
  5
218
  8
0
 62
     7
 10
62.803131
 20
43.977722
 30
0.0
 40
2.3380899999999998
 50
90.034286000000009
 51
102.235972
  0
ARC
  5
219
  8
0
 62
     7
 10
63.050181999999992
 20
42.646208000000001
 30
0.0
 40
3.6919409999999999
 50
101.60339
 51
109.114441
  0
LINE
  5
21A
  8
0
 62
     7
 10
63.741900000000001
 20
43.874599999999987
 30
0.0
 11
63.741900000000001
 21
44.034500000000001
 31
0.0
  0
LINE
  5
21B
  8
0
 62
     7
 10
63.741900000000001
 20
46.134599999999992
 30
0.0
 11
63.741900000000001
 21
46.315800000000003
 31
0.0
  0
LINE
  5
21C
  8
0
 62
     7
 10
59.941299999999998
 20
43.874599999999987
 30
0.0
 11
59.941299999999998
 21
44.034500000000001
 31
0.0
  0
LINE
  5
21D
  8
0
 62
     7
 10
59.941299999999998
 20
46.134599999999992
 30
0.0
 11
59.941299999999998
 21
46.315800000000003
 31
0.0
  0
LINE
  5
21E
  8
0
 62
     7
 10
62.841700000000003
 20
46.454999999999998
 30
0.0
 11
61.841200000000001
 21
46.454999999999998
 31
0.0
  0
LINE
  5
21F
  8
0
 62
     7
 10
61.841200000000001
 20
46.454999999999998
 30
0.0
 11
60.842100000000002
 21
46.454999999999998
 31
0.0
  0
LINE
  5
220
  8
0
 62
     7
 10
63.741900000000001
 20
43.874599999999987
 30
0.0
 11
63.681999999999988
 21
43.835299999999989
 31
0.0
  0
LINE
  5
221
  8
0
 62
     7
 10
63.681999999999988
 20
43.835299999999989
 30
0.0
 11
60.0015
 21
43.835299999999989
 31
0.0
  0
LINE
  5
222
  8
0
 62
     7
 10
60.0015
 20
43.835299999999989
 30
0.0
 11
59.941299999999998
 21
43.874599999999987
 31
0.0
  0
ARC
  5
223
  8
0
 62
     7
 10
63.723038000000003
 20
46.280462999999997
 30
0.0
 40
0.040069
 50
61.910291999999998
 51
93.729551999999984
  0
ARC
  5
224
  8
0
 62
     7
 10
63.559232999999999
 20
44.704684
 30
0.0
 40
1.6237839999999999
 50
84.302673999999996
 51
88.713068999999976
  0
ARC
  5
225
  8
0
 62
     7
 10
63.021453999999999
 20
28.578109000000001
 30
0.0
 40
17.759236000000001
 50
88.146996999999999
 51
89.595578000000003
  0
ARC
  5
226
  8
0
 62
     7
 10
62.175004999999999
 20
-59.516743999999989
 30
0.0
 40
105.858107
 50
89.473996
 51
90.08889400000001
  0
ARC
  5
227
  8
0
 62
     7
 10
62.596481999999988
 20
-474.81651799999992
 30
0.0
 40
521.15808300000003
 50
90.064384999999987
 51
90.285277000000008
  0
LINE
  5
228
  8
0
 62
     7
 10
60.0015
 20
46.335099999999997
 30
0.0
 11
59.941299999999998
 21
46.315800000000003
 31
0.0
  0
LINE
  5
229
  8
0
 62
     7
 10
63.081499999999998
 20
46.335099999999997
 30
0.0
 11
63.081499999999998
 21
46.435000000000002
 31
0.0
  0
LINE
  5
22A
  8
0
 62
     7
 10
63.081499999999998
 20
46.435000000000002
 30
0.0
 11
60.601000000000013
 21
46.435000000000002
 31
0.0
  0
LINE
  5
22B
  8
0
 62
     7
 10
60.601000000000013
 20
46.335099999999997
 30
0.0
 11
60.601000000000013
 21
46.435000000000002
 31
0.0
  0
LINE
  5
22C
  8
0
 62
     7
 10
60.842100000000002
 20
46.454999999999998
 30
0.0
 11
60.541699999999999
 21
46.696199999999997
 31
0.0
  0
LINE
  5
22D
  8
0
 62
     7
 10
60.541699999999999
 20
46.696199999999997
 30
0.0
 11
60.52109999999999
 21
47.09579999999999
 31
0.0
  0
LINE
  5
22E
  8
0
 62
     7
 10
63.16279999999999
 20
47.09579999999999
 30
0.0
 11
63.141800000000003
 21
46.696199999999997
 31
0.0
  0
LINE
  5
22F
  8
0
 62
     7
 10
63.141800000000003
 20
46.696199999999997
 30
0.0
 11
62.841700000000003
 21
46.454999999999998
 31
0.0
  0
LINE
  5
230
  8
0
 62
     7
 10
63.0015
 20
47.43549999999999
 30
0.0
 11
60.682299999999991
 21
47.43549999999999
 31
0.0
  0
LINE
  5
231
  8
0
 62
     7
 10
60.682299999999991
 20
47.43549999999999
 30
0.0
 11
60.52109999999999
 21
47.09579999999999
 31
0.0
  0
LINE
  5
232
  8
0
 62
     7
 10
63.16279999999999
 20
47.09579999999999
 30
0.0
 11
63.0015
 21
47.43549999999999
 31
0.0
  0
LINE
  5
233
  8
0
 62
     7
 10
63.0015
 20
49.036099999999998
 30
0.0
 11
60.682299999999991
 21
49.036099999999998
 31
0.0
  0
LINE
  5
234
  8
0
 62
     7
 10
60.682299999999991
 20
47.43549999999999
 30
0.0
 11
60.682299999999991
 21
49.036099999999998
 31
0.0
  0
LINE
  5
235
  8
0
 62
     7
 10
63.0015
 20
47.43549999999999
 30
0.0
 11
63.0015
 21
49.036099999999998
 31
0.0
  0
LINE
  5
236
  8
0
 62
     7
 10
60.682299999999991
 20
49.036099999999998
 30
0.0
 11
60.541699999999999
 21
49.2759
 31
0.0
  0
LINE
  5
237
  8
0
 62
     7
 10
63.141800000000003
 20
49.2759
 30
0.0
 11
63.0015
 21
49.036099999999998
 31
0.0
  0
LINE
  5
238
  8
0
 62
     7
 10
60.541699999999999
 20
49.2759
 30
0.0
 11
60.50139999999999
 21
49.375799999999998
 31
0.0
  0
LINE
  5
239
  8
0
 62
     7
 10
60.50139999999999
 20
49.375799999999998
 30
0.0
 11
60.50139999999999
 21
49.475700000000003
 31
0.0
  0
ARC
  5
23A
  8
0
 62
     7
 10
62.675270999999988
 20
49.524704999999997
 30
0.0
 40
0.528717
 50
331.92257600000011
 51
354.67893900000001
  0
LINE
  5
23B
  8
0
 62
     7
 10
63.201700000000002
 20
49.475700000000003
 30
0.0
 11
63.201700000000002
 21
50.036499999999997
 31
0.0
  0
LINE
  5
23C
  8
0
 62
     7
 10
63.201700000000002
 20
50.036499999999997
 30
0.0
 11
60.50139999999999
 21
50.036499999999997
 31
0.0
  0
LINE
  5
23D
  8
0
 62
     7
 10
60.50139999999999
 20
49.475700000000003
 30
0.0
 11
60.50139999999999
 21
50.036499999999997
 31
0.0
  0
LINE
  5
23E
  8
0
  6
AIGENLINE001
 62
     7
 10
77.0518
 20
67.391999999999996
 30
0.0
 11
61.841200000000001
 21
81.206599999999995
 31
0.0
  0
LINE
  5
23F
  8
0
 62
     7
 10
78.401600000000002
 20
71.0535
 30
0.0
 11
78.401600000000002
 21
105.04000000000001
 31
0.0
  0
LINE
  5
240
  8
0
 62
     7
 10
80.501699999999985
 20
71.0535
 30
0.0
 11
80.501699999999985
 21
105.04000000000001
 31
0.0
  0
LINE
  5
241
  8
0
 62
     7
 10
76.0017
 20
71.0535
 30
0.0
 11
76.0017
 21
105.04000000000001
 31
0.0
  0
LINE
  5
242
  8
0
 62
     7
 10
78.101799999999983
 20
71.0535
 30
0.0
 11
78.101799999999983
 21
105.04000000000001
 31
0.0
  0
LINE
  5
243
  8
0
 62
     7
 10
54.881799999999991
 20
120.83
 30
0.0
 11
54.289200000000001
 21
123.042
 31
0.0
  0
LINE
  5
244
  8
0
 62
     7
 10
54.289200000000001
 20
123.042
 30
0.0
 11
53.696599999999989
 21
120.83
 31
0.0
  0
LINE
  5
245
  8
0
 62
     7
 10
53.696599999999989
 20
120.83
 30
0.0
 11
54.881799999999991
 21
120.83
 31
0.0
  0
LINE
  5
246
  8
0
 62
     7
 10
53.711100000000002
 20
46.040199999999999
 30
0.0
 11
54.303699999999992
 21
43.828400000000002
 31
0.0
  0
LINE
  5
247
  8
0
 62
     7
 10
54.303699999999992
 20
43.828400000000002
 30
0.0
 11
54.8962
 21
46.040199999999999
 31
0.0
  0
LINE
  5
248
  8
0
 62
     7
 10
54.8962
 20
46.040199999999999
 30
0.0
 11
53.711100000000002
 21
46.040199999999999
 31
0.0
  0
LINE
  5
249
  8
0
 62
     7
 10
54.296399999999998
 20
123.04000000000001
 30
0.0
 11
54.296399999999998
 21
43.829500000000003
 31
0.0
  0
LINE
  5
24A
  8
0
 62
     7
 10
59.241199999999999
 20
43.829500000000003
 30
0.0
 11
53.596400000000003
 21
43.829500000000003
 31
0.0
  0
LINE
  5
24B
  8
0
  6
AIGENLINE001
 62
     7
 10
77.0518
 20
124.256
 30
0.0
 11
77.0518
 21
67.391999999999996
 31
0.0
  0
LINE
  5
24C
  8
0
  6
AIGENLINE001
 62
     7
 10
79.451999999999984
 20
124.256
 30
0.0
 11
79.451999999999984
 21
67.391999999999996
 31
0.0
  0
LINE
  5
24D
  8
0
 62
     7
 10
81.352000000000004
 20
107.43899999999999
 30
0.0
 11
81.352000000000004
 21
105.04000000000001
 31
0.0
  0
LINE
  5
24E
  8
0
 62
     7
 10
75.151799999999994
 20
107.43899999999999
 30
0.0
 11
75.151799999999994
 21
105.04000000000001
 31
0.0
  0
LINE
  5
24F
  8
0
 62
     7
 10
81.551400000000015
 20
105.23999999999999
 30
0.0
 11
74.952299999999994
 21
105.23999999999999
 31
0.0
  0
LINE
  5
250
  8
0
 62
     7
 10
81.551400000000015
 20
105.23999999999999
 30
0.0
 11
81.352000000000004
 21
105.04000000000001
 31
0.0
  0
LINE
  5
251
  8
0
 62
     7
 10
81.352000000000004
 20
105.04000000000001
 30
0.0
 11
75.151799999999994
 21
105.04000000000001
 31
0.0
  0
LINE
  5
252
  8
0
 62
     7
 10
75.151799999999994
 20
105.04000000000001
 30
0.0
 11
74.952299999999994
 21
105.23999999999999
 31
0.0
  0
LINE
  5
253
  8
0
 62
     7
 10
74.952299999999994
 20
105.23999999999999
 30
0.0
 11
74.952299999999994
 21
107.43899999999999
 31
0.0
  0
LINE
  5
254
  8
0
 62
     7
 10
74.952299999999994
 20
107.43899999999999
 30
0.0
 11
81.551400000000015
 21
107.43899999999999
 31
0.0
  0
LINE
  5
255
  8
0
 62
     7
 10
81.551400000000015
 20
107.43899999999999
 30
0.0
 11
81.551400000000015
 21
105.23999999999999
 31
0.0
  0
LINE
  5
256
  8
0
 62
     7
 10
81.352000000000004
 20
123.04000000000001
 30
0.0
 11
81.352000000000004
 21
115.04000000000001
 31
0.0
  0
LINE
  5
257
  8
0
 62
     7
 10
75.151799999999994
 20
123.04000000000001
 30
0.0
 11
75.151799999999994
 21
115.04000000000001
 31
0.0
  0
LINE
  5
258
  8
0
 62
     7
 10
81.551400000000015
 20
115.04000000000001
 30
0.0
 11
74.952299999999994
 21
115.04000000000001
 31
0.0
  0
LINE
  5
259
  8
0
 62
     7
 10
74.952299999999994
 20
115.04000000000001
 30
0.0
 11
74.952299999999994
 21
123.04000000000001
 31
0.0
  0
LINE
  5
25A
  8
0
 62
     7
 10
74.952299999999994
 20
123.04000000000001
 30
0.0
 11
81.551400000000015
 21
123.04000000000001
 31
0.0
  0
LINE
  5
25B
  8
0
 62
     7
 10
81.551400000000015
 20
123.04000000000001
 30
0.0
 11
81.551400000000015
 21
115.04000000000001
 31
0.0
  0
LINE
  5
25C
  8
0
 62
     7
 10
65.958799999999997
 20
120.83
 30
0.0
 11
65.366299999999995
 21
123.042
 31
0.0
  0
LINE
  5
25D
  8
0
 62
     7
 10
65.366299999999995
 20
123.042
 30
0.0
 11
64.773700000000005
 21
120.83
 31
0.0
  0
LINE
  5
25E
  8
0
 62
     7
 10
64.773700000000005
 20
120.83
 30
0.0
 11
65.958799999999997
 21
120.83
 31
0.0
  0
LINE
  5
25F
  8
0
 62
     7
 10
64.788200000000003
 20
117.25
 30
0.0
 11
65.380700000000004
 21
115.039
 31
0.0
  0
LINE
  5
260
  8
0
 62
     7
 10
65.380700000000004
 20
115.039
 30
0.0
 11
65.973299999999995
 21
117.25
 31
0.0
  0
LINE
  5
261
  8
0
 62
     7
 10
65.973299999999995
 20
117.25
 30
0.0
 11
64.788200000000003
 21
117.25
 31
0.0
  0
LINE
  5
262
  8
0
 62
     7
 10
65.373500000000007
 20
123.04000000000001
 30
0.0
 11
65.373500000000007
 21
115.04000000000001
 31
0.0
  0
LINE
  5
263
  8
0
 62
     7
 10
71.749399999999994
 20
115.04000000000001
 30
0.0
 11
64.673500000000004
 21
115.04000000000001
 31
0.0
  0
ARC
  5
264
  8
0
 62
     7
 10
78.25179
 20
260.69141999999999
 30
0.0
 40
3.4999799999999999
 50
179.99856
 51
269.99860999999999
  0
ARC
  5
265
  8
0
 62
     7
 10
78.251617999999993
 20
260.69142099999999
 30
0.0
 40
3.4999809999999991
 50
270.00143000000003
 51
0.0014
  0
ARC
  5
266
  8
0
 62
     7
 10
78.251617999999993
 20
260.69159200000001
 30
0.0
 40
3.4999809999999991
 50
359.99860000000001
 51
89.998570000000001
  0
ARC
  5
267
  8
0
 62
     7
 10
78.251790999999983
 20
260.69159200000001
 30
0.0
 40
3.4999809999999991
 50
90.001410000000007
 51
180.00142
  0
LINE
  5
268
  8
0
 62
     7
 10
35.333500000000001
 20
165.23599999999999
 30
0.0
 11
33.2164
 21
164.36199999999999
 31
0.0
  0
LINE
  5
269
  8
0
 62
     7
 10
33.2164
 20
164.36199999999999
 30
0.0
 11
35.4861
 21
164.06
 31
0.0
  0
LINE
  5
26A
  8
0
 62
     7
 10
35.4861
 20
164.06
 30
0.0
 11
35.333500000000001
 21
165.23599999999999
 31
0.0
  0
ARC
  5
26B
  8
0
 62
     7
 10
33.252808000000002
 20
172.30826099999999
 30
0.0
 40
7.940682999999999
 50
270.01851199999999
 51
301.33783
  0
ARC
  5
26C
  8
0
 62
     7
 10
33.251691000000001
 20
172.34950000000001
 30
0.0
 40
7.9819219999999991
 50
263.075378
 51
270.02643499999999
  0
LINE
  5
26D
  8
0
 62
     7
 10
29.959800000000001
 20
164.43799999999999
 30
0.0
 11
32.249400000000001
 21
164.43700000000001
 31
0.0
  0
LINE
  5
26E
  8
0
 62
     7
 10
32.249400000000001
 20
164.43700000000001
 30
0.0
 11
30.267099999999999
 21
165.58199999999999
 31
0.0
  0
LINE
  5
26F
  8
0
 62
     7
 10
30.267099999999999
 20
165.58199999999999
 30
0.0
 11
29.959800000000001
 21
164.43799999999999
 31
0.0
  0
ARC
  5
270
  8
0
 62
     7
 10
33.265796000000002
 20
172.31405000000001
 30
0.0
 40
7.9484529999999989
 50
228.82243600000001
 51
262.94363700000002
  0
LINE
  5
271
  8
0
 62
     7
 10
-43.6066
 20
234.28200000000001
 30
0.0
 11
-45.335999999999999
 21
235.78299999999999
 31
0.0
  0
LINE
  5
272
  8
0
 62
     7
 10
-45.335999999999999
 20
235.78299999999999
 30
0.0
 11
-43.087699999999991
 21
235.34800000000001
 31
0.0
  0
LINE
  5
273
  8
0
 62
     7
 10
-43.087699999999991
 20
235.34800000000001
 30
0.0
 11
-43.6066
 21
234.28200000000001
 31
0.0
  0
ARC
  5
274
  8
0
 62
     7
 10
-31.553587
 20
260.87844799999999
 30
0.0
 40
28.631232000000001
 50
241.22459900000001
 51
269.92575699999998
  0
LINE
  5
275
  8
0
 62
     7
 10
-19.5748
 20
234.28200000000001
 30
0.0
 11
-17.845400000000001
 21
235.78299999999999
 31
0.0
  0
LINE
  5
276
  8
0
 62
     7
 10
-17.845400000000001
 20
235.78299999999999
 30
0.0
 11
-20.093599999999999
 21
235.34800000000001
 31
0.0
  0
LINE
  5
277
  8
0
 62
     7
 10
-20.093599999999999
 20
235.34800000000001
 30
0.0
 11
-19.5748
 21
234.28200000000001
 31
0.0
  0
ARC
  5
278
  8
0
 62
     7
 10
-31.627797000000001
 20
260.87844799999999
 30
0.0
 40
28.631232000000001
 50
270.07426299999997
 51
298.77542099999999
  0
ARC
  5
279
  8
0
 62
     7
 10
-31.504429999999999
 20
215.70048600000001
 30
0.0
 40
2.3136079999999999
 50
354.23205899999999
 51
0.022041
  0
ARC
  5
27A
  8
0
 62
     7
 10
-31.465052
 20
215.68666899999999
 30
0.0
 40
2.2730610000000002
 50
348.58066500000001
 51
354.47882299999998
  0
ARC
  5
27B
  8
0
 62
     7
 10
-31.474191000000001
 20
215.68047200000001
 30
0.0
 40
2.2808060000000001
 50
342.90309000000002
 51
348.77869800000002
  0
ARC
  5
27C
  8
0
 62
     7
 10
-31.563379000000001
 20
215.70238000000001
 30
0.0
 40
2.3724979999999989
 50
337.37798100000009
 51
343.030621
  0
ARC
  5
27D
  8
0
 62
     7
 10
-31.787275999999999
 20
215.810078
 30
0.0
 40
2.6206299999999989
 50
331.97139800000002
 51
337.08740599999999
  0
ARC
  5
27E
  8
0
 62
     7
 10
-31.571020999999998
 20
215.709981
 30
0.0
 40
2.3827389999999991
 50
326.01553799999999
 51
331.65244899999999
  0
ARC
  5
27F
  8
0
 62
     7
 10
-31.550125999999999
 20
215.69172900000001
 30
0.0
 40
2.355213
 50
320.39646900000002
 51
326.09959800000001
  0
ARC
  5
280
  8
0
 62
     7
 10
-31.552202000000001
 20
215.68934200000001
 30
0.0
 40
2.3552930000000001
 50
314.76417700000002
 51
320.47337599999997
  0
ARC
  5
281
  8
0
 62
     7
 10
-31.627813
 20
215.77164500000001
 30
0.0
 40
2.4669769999999991
 50
309.209496
 51
314.664964
  0
ARC
  5
282
  8
0
 62
     7
 10
-31.507282
 20
215.61748700000001
 30
0.0
 40
2.2713389999999989
 50
303.38557700000001
 51
309.31190600000008
  0
ARC
  5
283
  8
0
 62
     7
 10
-31.654986000000001
 20
215.837953
 30
0.0
 40
2.5367029999999988
 50
298.12186500000001
 51
303.43108599999999
  0
ARC
  5
284
  8
0
 62
     7
 10
-31.588097000000001
 20
215.729376
 30
0.0
 40
2.4094279999999988
 50
292.341159
 51
297.93602199999998
  0
ARC
  5
285
  8
0
 62
     7
 10
-31.694998999999999
 20
216.03136699999999
 30
0.0
 40
2.7294330000000002
 50
287.06370199999998
 51
292.00707399999999
  0
ARC
  5
286
  8
0
 62
     7
 10
-31.541350999999999
 20
215.535583
 30
0.0
 40
2.210388
 50
280.9231529999999
 51
287.02731499999999
  0
ARC
  5
287
  8
0
 62
     7
 10
-31.637678999999999
 20
216.057085
 30
0.0
 40
2.7406980000000001
 50
275.91188499999998
 51
280.83454499999999
  0
ARC
  5
288
  8
0
 62
     7
 10
-31.601469000000002
 20
215.94358600000001
 30
0.0
 40
2.624187
 50
270.23531400000002
 51
275.38072799999998
  0
ARC
  5
289
  8
0
 62
     7
 10
-12.808833
 20
258.81294700000001
 30
0.0
 40
0.036754
 50
332.54757699999999
 51
359.09629799999999
  0
ARC
  5
28A
  8
0
 62
     7
 10
-12.823278999999999
 20
258.818175
 30
0.0
 40
0.052023
 50
313.32172100000003
 51
334.77343100000007
  0
ARC
  5
28B
  8
0
 62
     7
 10
-12.86261
 20
258.856245
 30
0.0
 40
0.106733
 50
302.129569
 51
314.66077200000001
  0
ARC
  5
28C
  8
0
 62
     7
 10
-12.899535999999999
 20
258.91992099999999
 30
0.0
 40
0.180314
 50
292.45969100000002
 51
301.30527499999999
  0
ARC
  5
28D
  8
0
 62
     7
 10
-12.930878999999999
 20
258.99347899999998
 30
0.0
 40
0.260268
 50
285.58185400000008
 51
292.64986400000009
  0
ARC
  5
28E
  8
0
 62
     7
 10
-12.973288999999999
 20
259.16500400000001
 30
0.0
 40
0.436912
 50
280.220752
 51
284.89693899999997
  0
ARC
  5
28F
  8
0
 62
     7
 10
-12.971978999999999
 20
259.19647800000001
 30
0.0
 40
0.4677060000000001
 50
274.74199499999997
 51
279.378647
  0
ARC
  5
290
  8
0
 62
     7
 10
-12.966557
 20
259.07556499999998
 30
0.0
 40
0.346788
 50
269.06028900000001
 51
275.50070099999999
  0
ARC
  5
291
  8
0
 62
     7
 10
-31.591588999999999
 20
216.27175800000001
 30
0.0
 40
2.4221330000000001
 50
264.446459
 51
270.02122900000001
  0
ARC
  5
292
  8
0
 62
     7
 10
-31.619199999999999
 20
216.07420400000001
 30
0.0
 40
2.2228500000000002
 50
258.59158200000002
 51
264.66202700000002
  0
ARC
  5
293
  8
0
 62
     7
 10
-31.527342000000001
 20
216.51842500000001
 30
0.0
 40
2.6764649999999999
 50
253.50457
 51
258.54500200000001
  0
ARC
  5
294
  8
0
 62
     7
 10
-31.514671
 20
216.48167599999999
 30
0.0
 40
2.6449220000000002
 50
247.91391899999999
 51
253.015344
  0
ARC
  5
295
  8
0
 62
     7
 10
-31.677233999999999
 20
216.080512
 30
0.0
 40
2.212072
 50
241.81419199999999
 51
247.90866600000001
  0
ARC
  5
296
  8
0
 62
     7
 10
-31.559788999999999
 20
216.31191799999999
 30
0.0
 40
2.4715180000000001
 50
236.49886799999999
 51
241.94822099999999
  0
ARC
  5
297
  8
0
 62
     7
 10
-31.628961
 20
216.20885999999999
 30
0.0
 40
2.347399999999999
 50
230.784209
 51
236.518348
  0
ARC
  5
298
  8
0
 62
     7
 10
-31.534590000000001
 20
216.32085599999999
 30
0.0
 40
2.4938380000000002
 50
225.33188200000001
 51
230.73119500000001
  0
ARC
  5
299
  8
0
 62
     7
 10
-31.512591
 20
216.323688
 30
0.0
 40
2.511355
 50
219.67442700000001
 51
225.020366
  0
ARC
  5
29A
  8
0
 62
     7
 10
-31.561444999999999
 20
216.27735200000001
 30
0.0
 40
2.4441749999999991
 50
214.06930299999999
 51
219.56953200000001
  0
ARC
  5
29B
  8
0
 62
     7
 10
-31.412424000000001
 20
216.355785
 30
0.0
 40
2.6116220000000001
 50
208.524575
 51
213.663208
  0
ARC
  5
29C
  8
0
 62
     7
 10
-31.588636000000001
 20
216.24652699999999
 30
0.0
 40
2.4046549999999991
 50
202.66270399999999
 51
208.242267
  0
ARC
  5
29D
  8
0
 62
     7
 10
-31.801977999999998
 20
216.16950299999999
 30
0.0
 40
2.1781349999999988
 50
196.79476299999999
 51
202.95535699999999
  0
ARC
  5
29E
  8
0
 62
     7
 10
-31.641722999999999
 20
216.227192
 30
0.0
 40
2.3482400000000001
 50
191.305757
 51
197.012495
  0
ARC
  5
29F
  8
0
 62
     7
 10
-31.588356000000001
 20
216.236108
 30
0.0
 40
2.4023209999999988
 50
185.68825799999999
 51
191.26473300000001
  0
ARC
  5
2A0
  8
0
 62
     7
 10
-31.561449
 20
216.23631399999999
 30
0.0
 40
2.4291169999999989
 50
180.11574999999999
 51
185.630189
  0
ARC
  5
2A1
  8
0
 62
     7
 10
-31.591588000000002
 20
215.705589
 30
0.0
 40
2.386166999999999
 50
264.36246599999998
 51
270.02153199999998
  0
ARC
  5
2A2
  8
0
 62
     7
 10
-31.619199999999999
 20
215.544172
 30
0.0
 40
2.2228500000000002
 50
258.59158200000002
 51
264.66202700000002
  0
ARC
  5
2A3
  8
0
 62
     7
 10
-31.527342000000001
 20
215.988394
 30
0.0
 40
2.6764649999999999
 50
253.50457
 51
258.54500200000001
  0
ARC
  5
2A4
  8
0
 62
     7
 10
-31.514671
 20
215.95164500000001
 30
0.0
 40
2.6449220000000002
 50
247.91391899999999
 51
253.015344
  0
ARC
  5
2A5
  8
0
 62
     7
 10
-31.677233999999999
 20
215.55048099999999
 30
0.0
 40
2.212072
 50
241.81419199999999
 51
247.90866600000001
  0
ARC
  5
2A6
  8
0
 62
     7
 10
-31.559788999999999
 20
215.78188700000001
 30
0.0
 40
2.4715180000000001
 50
236.49886799999999
 51
241.94822099999999
  0
ARC
  5
2A7
  8
0
 62
     7
 10
-31.628961
 20
215.67882900000001
 30
0.0
 40
2.347399999999999
 50
230.784209
 51
236.518348
  0
ARC
  5
2A8
  8
0
 62
     7
 10
-31.516760999999999
 20
215.81261599999999
 30
0.0
 40
2.521993999999999
 50
225.39460399999999
 51
230.730976
  0
ARC
  5
2A9
  8
0
 62
     7
 10
-31.530397000000001
 20
215.775678
 30
0.0
 40
2.4861729999999991
 50
219.61749599999999
 51
225.02056099999999
  0
ARC
  5
2AA
  8
0
 62
     7
 10
-31.561444999999999
 20
215.747321
 30
0.0
 40
2.4441749999999991
 50
214.06930299999999
 51
219.56953200000001
  0
ARC
  5
2AB
  8
0
 62
     7
 10
-31.412424000000001
 20
215.82575399999999
 30
0.0
 40
2.6116220000000001
 50
208.524575
 51
213.663208
  0
ARC
  5
2AC
  8
0
 62
     7
 10
-31.576111999999998
 20
215.72321700000001
 30
0.0
 40
2.4188679999999998
 50
202.69908599999999
 51
208.24214900000001
  0
ARC
  5
2AD
  8
0
 62
     7
 10
-31.801977999999998
 20
215.63929999999999
 30
0.0
 40
2.1781349999999988
 50
196.79476299999999
 51
202.95535699999999
  0
ARC
  5
2AE
  8
0
 62
     7
 10
-31.641722999999999
 20
215.696989
 30
0.0
 40
2.3482400000000001
 50
191.305757
 51
197.012495
  0
ARC
  5
2AF
  8
0
 62
     7
 10
-31.591906999999999
 20
215.705198
 30
0.0
 40
2.3986999999999989
 50
185.67578900000001
 51
191.26476199999999
  0
ARC
  5
2B0
  8
0
 62
     7
 10
-31.561449
 20
215.70628199999999
 30
0.0
 40
2.4291169999999989
 50
180.11574999999999
 51
185.630189
  0
ARC
  5
2B1
  8
0
 62
     7
 10
-31.504429999999999
 20
216.23051699999999
 30
0.0
 40
2.3136079999999999
 50
354.23205899999999
 51
0.022041
  0
ARC
  5
2B2
  8
0
 62
     7
 10
-31.510088
 20
216.223747
 30
0.0
 40
2.3185679999999991
 50
348.63448399999999
 51
354.41256399999997
  0
ARC
  5
2B3
  8
0
 62
     7
 10
-31.474191000000001
 20
216.21067600000001
 30
0.0
 40
2.2808060000000001
 50
342.90309000000002
 51
348.77869800000002
  0
ARC
  5
2B4
  8
0
 62
     7
 10
-31.563379000000001
 20
216.23258300000001
 30
0.0
 40
2.3724979999999989
 50
337.37798100000009
 51
343.030621
  0
ARC
  5
2B5
  8
0
 62
     7
 10
-31.806251
 20
216.34831
 30
0.0
 40
2.6412330000000002
 50
332.00780900000001
 51
337.08725900000002
  0
ARC
  5
2B6
  8
0
 62
     7
 10
-31.571020999999998
 20
216.240013
 30
0.0
 40
2.3827389999999991
 50
326.01553799999999
 51
331.65244899999999
  0
ARC
  5
2B7
  8
0
 62
     7
 10
-31.840634999999999
 20
216.43870899999999
 30
0.0
 40
2.7174009999999988
 50
320.776793
 51
325.7192740000001
  0
ARC
  5
2B8
  8
0
 62
     7
 10
-31.533231000000001
 20
216.203709
 30
0.0
 40
2.330690999999999
 50
314.70721099999997
 51
320.47359499999999
  0
ARC
  5
2B9
  8
0
 62
     7
 10
-31.648904999999999
 20
216.323204
 30
0.0
 40
2.4969929999999998
 50
309.27223800000002
 51
314.66472499999998
  0
ARC
  5
2BA
  8
0
 62
     7
 10
-31.507282
 20
216.14751899999999
 30
0.0
 40
2.2713389999999989
 50
303.38557700000001
 51
309.31190600000008
  0
ARC
  5
2BB
  8
0
 62
     7
 10
-31.654986000000001
 20
216.367985
 30
0.0
 40
2.5367029999999988
 50
298.12186500000001
 51
303.43108599999999
  0
ARC
  5
2BC
  8
0
 62
     7
 10
-31.588097000000001
 20
216.25940700000001
 30
0.0
 40
2.4094279999999988
 50
292.341159
 51
297.93602199999998
  0
ARC
  5
2BD
  8
0
 62
     7
 10
-31.694998999999999
 20
216.561398
 30
0.0
 40
2.7294330000000002
 50
287.06370199999998
 51
292.00707399999999
  0
ARC
  5
2BE
  8
0
 62
     7
 10
-31.541350999999999
 20
216.06561400000001
 30
0.0
 40
2.210388
 50
280.9231529999999
 51
287.02731499999999
  0
ARC
  5
2BF
  8
0
 62
     7
 10
-31.637678999999999
 20
216.58711600000001
 30
0.0
 40
2.7406980000000001
 50
275.91188499999998
 51
280.83454499999999
  0
ARC
  5
2C0
  8
0
 62
     7
 10
-31.59751
 20
216.43143599999999
 30
0.0
 40
2.581818999999999
 50
270.15131500000001
 51
275.38103599999999
  0
ARC
  5
2C1
  8
0
 62
     7
 10
-12.808218999999999
 20
262.57004899999998
 30
0.0
 40
0.036138
 50
0.673199
 51
27.68292700000001
  0
ARC
  5
2C2
  8
0
 62
     7
 10
-12.820682
 20
262.56654900000001
 30
0.0
 40
0.048875
 50
24.526619
 51
47.378228999999997
  0
ARC
  5
2C3
  8
0
 62
     7
 10
-12.854191999999999
 20
262.537218
 30
0.0
 40
0.093272
 50
44.430535999999989
 51
58.779123999999989
  0
ARC
  5
2C4
  8
0
 62
     7
 10
-12.894901000000001
 20
262.47419300000001
 30
0.0
 40
0.168285
 50
58.048852000000011
 51
67.554878000000002
  0
ARC
  5
2C5
  8
0
 62
     7
 10
-12.922423
 20
262.41016300000001
 30
0.0
 40
0.237974
 50
67.316485
 51
75.034079000000006
  0
ARC
  5
2C6
  8
0
 62
     7
 10
-12.949648
 20
262.323958
 30
0.0
 40
0.32831
 50
74.328975
 51
80.553335000000004
  0
ARC
  5
2C7
  8
0
 62
     7
 10
-12.962876
 20
262.27388500000001
 30
0.0
 40
0.379906
 50
79.824831000000003
 51
85.537111999999993
  0
ARC
  5
2C8
  8
0
 62
     7
 10
-12.971213000000001
 20
262.19053400000001
 30
0.0
 40
0.4636580000000001
 50
85.311543
 51
90.127467000000024
  0
ARC
  5
2C9
  8
0
 62
     7
 10
-31.591588000000002
 20
215.70524399999999
 30
0.0
 40
2.386166999999999
 50
264.36246599999998
 51
270.02153199999998
  0
ARC
  5
2CA
  8
0
 62
     7
 10
-31.619199999999999
 20
215.54382799999999
 30
0.0
 40
2.2228500000000002
 50
258.59158200000002
 51
264.66202700000002
  0
ARC
  5
2CB
  8
0
 62
     7
 10
-31.527342000000001
 20
215.98804899999999
 30
0.0
 40
2.6764649999999999
 50
253.50457
 51
258.54500200000001
  0
ARC
  5
2CC
  8
0
 62
     7
 10
-31.514671
 20
215.9513
 30
0.0
 40
2.6449220000000002
 50
247.91391899999999
 51
253.015344
  0
ARC
  5
2CD
  8
0
 62
     7
 10
-31.687289
 20
215.52539100000001
 30
0.0
 40
2.185362
 50
241.73797300000001
 51
247.908929
  0
ARC
  5
2CE
  8
0
 62
     7
 10
-31.616035
 20
215.69009299999999
 30
0.0
 40
2.3642180000000002
 50
236.41227799999999
 51
242.107012
  0
ARC
  5
2CF
  8
0
 62
     7
 10
-31.686546
 20
215.59808000000001
 30
0.0
 40
2.2485740000000001
 50
230.62294700000001
 51
236.61193700000001
  0
ARC
  5
2D0
  8
0
 62
     7
 10
-31.516760999999999
 20
215.812444
 30
0.0
 40
2.521993999999999
 50
225.39460399999999
 51
230.730976
  0
ARC
  5
2D1
  8
0
 62
     7
 10
-31.643574999999998
 20
215.67603600000001
 30
0.0
 40
2.335831999999999
 50
219.50283999999999
 51
225.259646
  0
ARC
  5
2D2
  8
0
 62
     7
 10
-31.413824000000002
 20
215.85393300000001
 30
0.0
 40
2.6262849999999989
 50
214.194952
 51
219.30902
  0
ARC
  5
2D3
  8
0
 62
     7
 10
-31.412424000000001
 20
215.825582
 30
0.0
 40
2.6116220000000001
 50
208.524575
 51
213.663208
  0
ARC
  5
2D4
  8
0
 62
     7
 10
-31.643841999999999
 20
215.69357500000001
 30
0.0
 40
2.3452630000000001
 50
202.666279
 51
208.39088100000001
  0
ARC
  5
2D5
  8
0
 62
     7
 10
-31.749497000000002
 20
215.65505099999999
 30
0.0
 40
2.2329289999999991
 50
196.79258200000001
 51
202.798856
  0
ARC
  5
2D6
  8
0
 62
     7
 10
-31.641722999999999
 20
215.696989
 30
0.0
 40
2.3482400000000001
 50
191.305757
 51
197.012495
  0
ARC
  5
2D7
  8
0
 62
     7
 10
-31.588356000000001
 20
215.705904
 30
0.0
 40
2.4023209999999988
 50
185.68825799999999
 51
191.26473300000001
  0
ARC
  5
2D8
  8
0
 62
     7
 10
-31.502230999999998
 20
215.70907600000001
 30
0.0
 40
2.4883410000000001
 50
180.177325
 51
185.56438399999999
  0
ARC
  5
2D9
  8
0
 62
     7
 10
-31.504429999999999
 20
215.70048600000001
 30
0.0
 40
2.3136079999999999
 50
354.23205899999999
 51
0.022041
  0
ARC
  5
2DA
  8
0
 62
     7
 10
-31.465052
 20
215.68666899999999
 30
0.0
 40
2.2730610000000002
 50
348.58066500000001
 51
354.47882299999998
  0
ARC
  5
2DB
  8
0
 62
     7
 10
-31.474191000000001
 20
215.68047200000001
 30
0.0
 40
2.2808060000000001
 50
342.90309000000002
 51
348.77869800000002
  0
ARC
  5
2DC
  8
0
 62
     7
 10
-31.563379000000001
 20
215.70238000000001
 30
0.0
 40
2.3724979999999989
 50
337.37798100000009
 51
343.030621
  0
ARC
  5
2DD
  8
0
 62
     7
 10
-31.806251
 20
215.818106
 30
0.0
 40
2.6412330000000002
 50
332.00780900000001
 51
337.08725900000002
  0
ARC
  5
2DE
  8
0
 62
     7
 10
-31.571020999999998
 20
215.70980900000001
 30
0.0
 40
2.3827389999999991
 50
326.01553799999999
 51
331.65244899999999
  0
ARC
  5
2DF
  8
0
 62
     7
 10
-31.6174
 20
215.74179599999999
 30
0.0
 40
2.439074999999999
 50
320.49459000000007
 51
326.00147700000002
  0
ARC
  5
2E0
  8
0
 62
     7
 10
-31.552202000000001
 20
215.68916999999999
 30
0.0
 40
2.3552930000000001
 50
314.76417700000002
 51
320.47337599999997
  0
ARC
  5
2E1
  8
0
 62
     7
 10
-31.590802
 20
215.726934
 30
0.0
 40
2.4092880000000001
 50
309.20342299999999
 51
314.783523
  0
ARC
  5
2E2
  8
0
 62
     7
 10
-31.604897999999999
 20
215.75125800000001
 30
0.0
 40
2.437050999999999
 50
303.56681300000002
 51
309.09878200000003
  0
ARC
  5
2E3
  8
0
 62
     7
 10
-31.592759000000001
 20
215.73618500000001
 30
0.0
 40
2.41778
 50
297.95613700000001
 51
303.52461299999999
  0
ARC
  5
2E4
  8
0
 62
     7
 10
-31.604082999999999
 20
215.759376
 30
0.0
 40
2.4435739999999999
 50
292.41739999999999
 51
297.93573800000001
  0
ARC
  5
2E5
  8
0
 62
     7
 10
-31.694998999999999
 20
216.031023
 30
0.0
 40
2.7294330000000002
 50
287.06370199999998
 51
292.00707399999999
  0
ARC
  5
2E6
  8
0
 62
     7
 10
-31.541350999999999
 20
215.53523799999999
 30
0.0
 40
2.210388
 50
280.9231529999999
 51
287.02731499999999
  0
ARC
  5
2E7
  8
0
 62
     7
 10
-31.637678999999999
 20
216.05673999999999
 30
0.0
 40
2.7406980000000001
 50
275.91188499999998
 51
280.83454499999999
  0
ARC
  5
2E8
  8
0
 62
     7
 10
-31.601469000000002
 20
215.943242
 30
0.0
 40
2.624187
 50
270.23531400000002
 51
275.38072799999998
  0
LINE
  5
2E9
  8
0
 62
     7
 10
80.651600000000002
 20
152.47999999999999
 30
0.0
 11
80.649899999999988
 21
152.47399999999999
 31
0.0
  0
ARC
  5
2EA
  8
0
 62
     7
 10
81.718459999999993
 20
152.20825199999999
 30
0.0
 40
1.1011159999999991
 50
166.04335699999999
 51
166.96513999999999
  0
LINE
  5
2EB
  8
0
 62
     7
 10
80.645700000000005
 20
152.45699999999999
 30
0.0
 11
80.638499999999993
 21
152.428
 31
0.0
  0
ARC
  5
2EC
  8
0
 62
     7
 10
75.319170999999997
 20
153.65633199999999
 30
0.0
 40
5.4592130000000001
 50
346.57369599999998
 51
347.00081299999999
  0
ARC
  5
2ED
  8
0
 62
     7
 10
83.347965000000016
 20
151.78135700000001
 30
0.0
 40
2.785803
 50
167.406891
 51
168.45753400000001
  0
ARC
  5
2EE
  8
0
 62
     7
 10
83.846473000000003
 20
151.673428
 30
0.0
 40
3.2958309999999988
 50
168.353272
 51
169.409221
  0
ARC
  5
2EF
  8
0
 62
     7
 10
82.703970999999996
 20
151.88971799999999
 30
0.0
 40
2.1330409999999991
 50
169.47964899999999
 51
171.30990499999999
  0
ARC
  5
2F0
  8
0
 62
     7
 10
83.406432999999993
 20
151.78365500000001
 30
0.0
 40
2.8434639999999991
 50
171.33587299999999
 51
172.849763
  0
ARC
  5
2F1
  8
0
 62
     7
 10
83.593282999999985
 20
151.78243399999999
 30
0.0
 40
3.029091999999999
 50
173.26677799999999
 51
174.76727099999999
  0
ARC
  5
2F2
  8
0
 62
     7
 10
84.080484999999996
 20
151.75341399999999
 30
0.0
 40
3.516945999999999
 50
175.02033299999999
 51
176.36556400000001
  0
ARC
  5
2F3
  8
0
 62
     7
 10
83.075261999999995
 20
151.85232099999999
 30
0.0
 40
2.5077189999999989
 50
177.16496599999999
 51
179.094559
  0
ARC
  5
2F4
  8
0
 62
     7
 10
82.359436999999986
 20
151.84957199999999
 30
0.0
 40
1.792081
 50
178.64505700000001
 51
181.35494299999999
  0
ARC
  5
2F5
  8
0
 62
     7
 10
82.613883999999985
 20
151.83220499999999
 30
0.0
 40
2.0461800000000001
 50
180.70027300000001
 51
183.055521
  0
ARC
  5
2F6
  8
0
 62
     7
 10
83.99521
 20
151.93840700000001
 30
0.0
 40
3.4313569999999989
 50
183.59691100000001
 51
184.981435
  0
ARC
  5
2F7
  8
0
 62
     7
 10
83.819631999999984
 20
151.94043199999999
 30
0.0
 40
3.2566630000000001
 50
185.28515799999991
 51
186.68079399999991
  0
ARC
  5
2F8
  8
0
 62
     7
 10
83.060907
 20
151.86926800000001
 30
0.0
 40
2.4948730000000001
 50
187.08469500000001
 51
188.80228700000001
  0
ARC
  5
2F9
  8
0
 62
     7
 10
82.776487999999986
 20
151.8199919999999
 30
0.0
 40
2.2062689999999989
 50
188.66795999999999
 51
190.44628599999999
  0
ARC
  5
2FA
  8
0
 62
     7
 10
85.701634999999996
 20
152.39031499999999
 30
0.0
 40
5.1864299999999997
 50
190.783243
 51
191.45426399999999
  0
ARC
  5
2FB
  8
0
 62
     7
 10
84.123102999999986
 20
152.088874
 30
0.0
 40
3.5795199999999991
 50
191.74297100000001
 51
192.55525
  0
ARC
  5
2FC
  8
0
 62
     7
 10
85.948491000000004
 20
152.538736
 30
0.0
 40
5.4592130000000001
 50
192.99920700000001
 51
193.42632399999999
  0
LINE
  5
2FD
  8
0
 62
     7
 10
80.638499999999993
 20
151.27099999999999
 30
0.0
 11
80.645700000000005
 21
151.24299999999999
 31
0.0
  0
ARC
  5
2FE
  8
0
 62
     7
 10
79.577106999999984
 20
150.976968
 30
0.0
 40
1.1011159999999991
 50
13.034840000000001
 51
13.956623
  0
LINE
  5
2FF
  8
0
 62
     7
 10
80.649899999999988
 20
151.22499999999999
 30
0.0
 11
80.651600000000002
 21
151.22
 31
0.0
  0
LINE
  5
300
  8
0
 62
     7
 10
-33.985700000000001
 20
147.738
 30
0.0
 11
-33.954700000000003
 21
147.72200000000001
 31
0.0
  0
ARC
  5
301
  8
0
 62
     7
 10
-37.269601999999999
 20
141.05722499999999
 30
0.0
 40
7.443452999999999
 50
63.047278000000013
 51
63.554868999999989
  0
ARC
  5
302
  8
0
 62
     7
 10
-31.346805
 20
152.84226000000001
 30
0.0
 40
5.7463759999999997
 50
243.667069
 51
244.644181
  0
ARC
  5
303
  8
0
 62
     7
 10
-32.120992999999999
 20
151.057851
 30
0.0
 40
3.8028769999999992
 50
243.671661
 51
245.63601299999999
  0
ARC
  5
304
  8
0
 62
     7
 10
-31.249701000000002
 20
152.871433
 30
0.0
 40
5.8145610000000003
 50
245.18730099999999
 51
246.78910999999999
  0
ARC
  5
305
  8
0
 62
     7
 10
-30.490680000000001
 20
154.53899000000001
 30
0.0
 40
7.6463960000000011
 50
246.48657600000001
 51
247.92589799999999
  0
ARC
  5
306
  8
0
 62
     7
 10
-31.100518999999998
 20
153.081684
 30
0.0
 40
6.0667569999999991
 50
248.090924
 51
250.135256
  0
ARC
  5
307
  8
0
 62
     7
 10
-30.834790000000002
 20
153.83325199999999
 30
0.0
 40
6.8639020000000004
 50
250.18088
 51
252.158973
  0
ARC
  5
308
  8
0
 62
     7
 10
-30.853578000000009
 20
154.02054099999989
 30
0.0
 40
7.0368300000000001
 50
252.7718220000001
 51
254.790594
  0
ARC
  5
309
  8
0
 62
     7
 10
-31.103342000000001
 20
153.42069799999999
 30
0.0
 40
6.393019999999999
 50
255.540289
 51
257.81862500000011
  0
ARC
  5
30A
  8
0
 62
     7
 10
-31.433192999999999
 20
152.165873
 30
0.0
 40
5.0971729999999997
 50
258.46663699999999
 51
261.33837599999998
  0
ARC
  5
30B
  8
0
 62
     7
 10
-31.520786000000001
 20
151.72920400000001
 30
0.0
 40
4.6523389999999987
 50
261.59492999999998
 51
264.73185699999999
  0
ARC
  5
30C
  8
0
 62
     7
 10
-31.529667
 20
152.20143899999999
 30
0.0
 40
5.1220299999999996
 50
265.31581800000009
 51
268.16093799999999
  0
ARC
  5
30D
  8
0
 62
     7
 10
-31.601752000000001
 20
151.25984700000001
 30
0.0
 40
4.178818999999999
 50
268.73447399999998
 51
272.20224100000001
  0
ARC
  5
30E
  8
0
 62
     7
 10
-31.556249999999999
 20
150.65285800000001
 30
0.0
 40
3.5705989999999992
 50
271.84690899999998
 51
275.92592000000002
  0
ARC
  5
30F
  8
0
 62
     7
 10
-31.594453999999999
 20
151.28162900000001
 30
0.0
 40
4.2000409999999997
 50
275.55873700000001
 51
279.03704699999997
  0
ARC
  5
310
  8
0
 62
     7
 10
-31.758362999999999
 20
152.16394
 30
0.0
 40
5.0971989999999989
 50
279.298813
 51
282.16852
  0
ARC
  5
311
  8
0
 62
     7
 10
-32.054769
 20
153.204004
 30
0.0
 40
6.1767750000000001
 50
282.82262000000009
 51
285.17434500000002
  0
ARC
  5
312
  8
0
 62
     7
 10
-31.714715999999999
 20
151.945807
 30
0.0
 40
4.873435999999999
 50
285.18780600000002
 51
288.08805899999999
  0
ARC
  5
313
  8
0
 62
     7
 10
-32.294307000000003
 20
153.71266600000001
 30
0.0
 40
6.7329280000000002
 50
288.10828600000002
 51
290.09713299999999
  0
ARC
  5
314
  8
0
 62
     7
 10
-32.371915000000001
 20
153.80891
 30
0.0
 40
6.8500940000000003
 50
290.43013000000002
 51
292.20571000000001
  0
ARC
  5
315
  8
0
 62
     7
 10
-32.198217
 20
153.39048700000001
 30
0.0
 40
6.3970599999999989
 50
292.1817069999999
 51
293.85470199999997
  0
ARC
  5
316
  8
0
 62
     7
 10
-34.863321999999997
 20
159.32402999999999
 30
0.0
 40
12.901597000000001
 50
294.02257900000001
 51
294.71963399999999
  0
ARC
  5
317
  8
0
 62
     7
 10
-31.008555999999999
 20
150.98912899999999
 30
0.0
 40
3.7185199999999989
 50
294.47216700000001
 51
296.40028000000001
  0
ARC
  5
318
  8
0
 62
     7
 10
-30.709811999999999
 20
150.50587999999999
 30
0.0
 40
3.1532759999999991
 50
295.44236999999998
 51
297.11094800000001
  0
LINE
  5
319
  8
0
 62
     7
 10
-33.9895
 20
147.74000000000001
 30
0.0
 11
-33.985700000000001
 21
147.738
 31
0.0
  0
ARC
  5
31A
  8
0
 62
     7
 10
-27.658192
 20
137.97258099999999
 30
0.0
 40
0.519604
 50
45.063845000000001
 51
47.482204000000003
  0
LINE
  5
31B
  8
0
 62
     7
 10
-27.306999999999999
 20
138.35599999999999
 30
0.0
 11
-27.356300000000001
 21
138.40199999999999
 31
0.0
  0
LINE
  5
31C
  8
0
 62
     7
 10
-27.356300000000001
 20
138.40199999999999
 30
0.0
 11
-27.439299999999999
 21
138.47900000000001
 31
0.0
  0
ARC
  5
31D
  8
0
 62
     7
 10
-44.545341000000001
 20
120.26601599999999
 30
0.0
 40
24.986495000000001
 50
46.795015999999997
 51
47.16671199999999
  0
ARC
  5
31E
  8
0
 62
     7
 10
43.148901999999993
 20
214.99541500000001
 30
0.0
 40
104.102395
 50
227.10115999999999
 51
227.21856
  0
ARC
  5
31F
  8
0
 62
     7
 10
-130.387494
 20
27.049479999999999
 30
0.0
 40
151.70809399999999
 50
47.407339
 51
47.508175000000008
  0
ARC
  5
320
  8
0
 62
     7
 10
-65.960352999999998
 20
97.440735000000004
 30
0.0
 40
56.283880000000011
 50
47.466085
 51
47.800723999999988
  0
ARC
  5
321
  8
0
 62
     7
 10
-101.31383099999999
 20
58.018459
 30
0.0
 40
109.236131
 50
47.952865000000003
 51
48.161307000000008
  0
ARC
  5
322
  8
0
 62
     7
 10
-55.666085000000002
 20
108.831931
 30
0.0
 40
40.930269000000003
 50
48.321377000000012
 51
48.97027099999999
  0
ARC
  5
323
  8
0
 62
     7
 10
-44.840553
 20
121.278818
 30
0.0
 40
24.434296
 50
48.960146000000002
 51
50.11538800000001
  0
ARC
  5
324
  8
0
 62
     7
 10
-43.171002000000001
 20
123.251307
 30
0.0
 40
21.850149999999999
 50
50.158034000000001
 51
51.424212999999988
  0
ARC
  5
325
  8
0
 62
     7
 10
-38.110399999999998
 20
129.50268299999999
 30
0.0
 40
13.807511
 50
51.665962
 51
53.510865000000003
  0
ARC
  5
326
  8
0
 62
     7
 10
-34.865997999999998
 20
133.863786
 30
0.0
 40
8.3719809999999981
 50
53.613403000000012
 51
56.345835999999998
  0
ARC
  5
327
  8
0
 62
     7
 10
-33.529038
 20
135.84705500000001
 30
0.0
 40
5.980213
 50
56.478029000000006
 51
59.950060999999998
  0
ARC
  5
328
  8
0
 62
     7
 10
-32.685009000000001
 20
137.253367
 30
0.0
 40
4.3403539999999996
 50
60.298099999999998
 51
64.637932999999975
  0
ARC
  5
329
  8
0
 62
     7
 10
-32.060029999999998
 20
138.50635199999999
 30
0.0
 40
2.9405639999999988
 50
65.184349999999995
 51
70.833375000000004
  0
ARC
  5
32A
  8
0
 62
     7
 10
-31.800515000000001
 20
139.187117
 30
0.0
 40
2.2124380000000001
 50
71.393376000000004
 51
78.028765000000007
  0
ARC
  5
32B
  8
0
 62
     7
 10
-31.713678000000002
 20
139.53377399999999
 30
0.0
 40
1.8553539999999999
 50
78.431581999999992
 51
85.665919999999986
  0
ARC
  5
32C
  8
0
 62
     7
 10
-31.691531000000001
 20
139.776914
 30
0.0
 40
1.61124
 50
85.797833999999995
 51
93.853315000000009
  0
ARC
  5
32D
  8
0
 62
     7
 10
-31.693297999999999
 20
139.720034
 30
0.0
 40
1.667881999999999
 50
93.66143799999999
 51
101.717106
  0
ARC
  5
32E
  8
0
 62
     7
 10
-31.643792000000001
 20
139.428213
 30
0.0
 40
1.963706
 50
101.40230699999999
 51
108.905806
  0
ARC
  5
32F
  8
0
 62
     7
 10
-31.479551000000001
 20
138.898945
 30
0.0
 40
2.517688999999999
 50
108.539213
 51
115.139453
  0
ARC
  5
330
  8
0
 62
     7
 10
-31.086704999999998
 20
137.99437900000001
 30
0.0
 40
3.5035790000000002
 50
114.670976
 51
120.06541900000001
  0
ARC
  5
331
  8
0
 62
     7
 10
-30.283915000000011
 20
136.55205000000001
 30
0.0
 40
5.1541110000000003
 50
119.756235
 51
123.793513
  0
ARC
  5
332
  8
0
 62
     7
 10
-28.846404
 20
134.336085
 30
0.0
 40
7.7953210000000004
 50
123.51506500000001
 51
126.460877
  0
ARC
  5
333
  8
0
 62
     7
 10
-26.631356
 20
131.29417900000001
 30
0.0
 40
11.558187999999999
 50
126.33078
 51
128.54194200000001
  0
ARC
  5
334
  8
0
 62
     7
 10
-23.972714
 20
127.847583
 30
0.0
 40
15.910663
 50
128.296817
 51
130.04111
  0
ARC
  5
335
  8
0
 62
     7
 10
-16.470880000000001
 20
118.855896
 30
0.0
 40
27.620784
 50
129.955206
 51
130.97817699999999
  0
ARC
  5
336
  8
0
 62
     7
 10
-12.292827000000001
 20
114.03577300000001
 30
0.0
 40
33.999630000000003
 50
130.96698699999999
 51
131.748976
  0
ARC
  5
337
  8
0
 62
     7
 10
-15.818716999999999
 20
117.834407
 30
0.0
 40
28.817986000000001
 50
131.54783599999999
 51
132.337952
  0
ARC
  5
338
  8
0
 62
     7
 10
13.239901
 20
85.668513000000004
 30
0.0
 40
72.165816000000007
 50
132.19177400000001
 51
132.452583
  0
ARC
  5
339
  8
0
 62
     7
 10
58.899303000000003
 20
36.259281999999999
 30
0.0
 40
139.44132300000001
 50
132.59183899999999
 51
132.701538
  0
ARC
  5
33A
  8
0
 62
     7
 10
-3.2363189999999991
 20
103.521328
 30
0.0
 40
47.871611999999992
 50
132.644701
 51
132.899721
  0
LINE
  5
33B
  8
0
 62
     7
 10
-35.823399999999999
 20
138.589
 30
0.0
 11
-35.9422
 21
138.47900000000001
 31
0.0
  0
ARC
  5
33C
  8
0
 62
     7
 10
-43.468133999999999
 20
146.492728
 30
0.0
 40
10.993672
 50
312.61087099999997
 51
313.20163500000001
  0
ARC
  5
33D
  8
0
 62
     7
 10
-39.712567999999997
 20
142.260186
 30
0.0
 40
5.3370419999999994
 50
312.97866600000009
 51
313.70077900000001
  0
ARC
  5
33E
  8
0
 62
     7
 10
-35.823543000000001
 20
138.07162600000001
 30
0.0
 40
0.378727
 50
131.433785
 51
134.78980899999999
  0
ARC
  5
33F
  8
0
 62
     7
 10
-31.591608999999998
 20
152.70231899999999
 30
0.0
 40
19.933024
 50
89.997354999999985
 51
90.673725000000005
  0
ARC
  5
340
  8
0
 62
     7
 10
-31.621427000000001
 20
155.27152899999999
 30
0.0
 40
17.363641000000001
 50
90.675023999999993
 51
91.443641
  0
ARC
  5
341
  8
0
 62
     7
 10
-31.609493000000001
 20
153.94302400000001
 30
0.0
 40
18.692036999999999
 50
91.377615000000006
 51
92.078075999999996
  0
ARC
  5
342
  8
0
 62
     7
 10
-31.617939
 20
154.67132599999999
 30
0.0
 40
17.963916999999999
 50
92.135386999999994
 51
92.843697999999975
  0
ARC
  5
343
  8
0
 62
     7
 10
-31.669619000000001
 20
156.36733799999999
 30
0.0
 40
16.267462999999999
 50
92.958258999999998
 51
93.709421999999989
  0
ARC
  5
344
  8
0
 62
     7
 10
-31.866275000000002
 20
159.401713
 30
0.0
 40
13.226721
 50
93.709721999999999
 51
94.586551999999998
  0
ARC
  5
345
  8
0
 62
     7
 10
-31.691952000000001
 20
157.86470399999999
 30
0.0
 40
14.772835999999989
 50
94.783800999999997
 51
95.520341000000016
  0
ARC
  5
346
  8
0
 62
     7
 10
-31.983172
 20
161.53890899999999
 30
0.0
 40
11.087838
 50
95.848927000000003
 51
96.757009000000025
  0
ARC
  5
347
  8
0
 62
     7
 10
-32.179803
 20
163.771702
 30
0.0
 40
8.8476759999999999
 50
97.193759000000014
 51
98.224885999999984
  0
ARC
  5
348
  8
0
 62
     7
 10
-32.796759999999999
 20
168.10522
 30
0.0
 40
4.4704800000000002
 50
98.344565999999986
 51
100.16990800000001
  0
ARC
  5
349
  8
0
 62
     7
 10
-33.06740700000001
 20
169.65000599999999
 30
0.0
 40
2.9021849999999989
 50
100.29555999999999
 51
102.73208
  0
ARC
  5
34A
  8
0
 62
     7
 10
-33.251499000000003
 20
170.50414499999999
 30
0.0
 40
2.0284939999999989
 50
102.97727500000001
 51
105.921887
  0
ARC
  5
34B
  8
0
 62
     7
 10
-33.544429999999998
 20
171.55306400000001
 30
0.0
 40
0.9394759999999999
 50
106.29105
 51
111.39891900000001
  0
ARC
  5
34C
  8
0
 62
     7
 10
-33.711596999999998
 20
171.992816
 30
0.0
 40
0.4690710000000001
 50
111.985844
 51
119.755312
  0
ARC
  5
34D
  8
0
 62
     7
 10
-33.868138999999999
 20
172.27251899999999
 30
0.0
 40
0.148584
 50
120.878714
 51
138.16651999999999
  0
ARC
  5
34E
  8
0
 62
     7
 10
-33.934998999999998
 20
172.336997
 30
0.0
 40
0.055869
 50
141.70526899999999
 51
173.983802
  0
ARC
  5
34F
  8
0
 62
     7
 10
-31.591576
 20
153.966318
 30
0.0
 40
18.613385999999998
 50
89.997267000000008
 51
90.697198999999998
  0
ARC
  5
350
  8
0
 62
     7
 10
-31.593952000000002
 20
154.07208399999999
 30
0.0
 40
18.507598999999999
 50
90.693830000000005
 51
91.39573399999999
  0
ARC
  5
351
  8
0
 62
     7
 10
-31.546485000000001
 20
152.2295
 30
0.0
 40
20.350792999999999
 50
91.402973999999986
 51
92.033721999999997
  0
ARC
  5
352
  8
0
 62
     7
 10
-31.844290000000001
 20
160.30729099999999
 30
0.0
 40
12.267526999999999
 50
91.982562000000016
 51
93.000457000000011
  0
ARC
  5
353
  8
0
 62
     7
 10
-31.882432000000001
 20
160.26369099999999
 30
0.0
 40
12.309136000000001
 50
92.812536000000009
 51
93.787556000000009
  0
ARC
  5
354
  8
0
 62
     7
 10
-32.063889000000003
 20
162.41465199999999
 30
0.0
 40
10.150962
 50
93.567571000000015
 51
94.688613999999987
  0
ARC
  5
355
  8
0
 62
     7
 10
-32.030512000000002
 20
161.920841
 30
0.0
 40
10.645851
 50
94.650407999999985
 51
95.65200200000001
  0
ARC
  5
356
  8
0
 62
     7
 10
-31.598725000000002
 20
158.32567399999999
 30
0.0
 40
14.266265000000001
 50
95.955678000000006
 51
96.648912999999993
  0
ARC
  5
357
  8
0
 62
     7
 10
-32.606352000000001
 20
167.117456
 30
0.0
 40
5.4169729999999996
 50
96.829883999999993
 51
98.484463000000005
  0
ARC
  5
358
  8
0
 62
     7
 10
-32.841160000000002
 20
168.596249
 30
0.0
 40
3.9197459999999991
 50
98.279009999999985
 51
100.320267
  0
ARC
  5
359
  8
0
 62
     7
 10
-33.06803
 20
169.80480499999999
 30
0.0
 40
2.6901060000000001
 50
100.17787300000001
 51
102.76116500000001
  0
ARC
  5
35A
  8
0
 62
     7
 10
-33.290589000000011
 20
170.78257199999999
 30
0.0
 40
1.6873309999999999
 50
102.724318
 51
106.19209499999999
  0
ARC
  5
35B
  8
0
 62
     7
 10
-33.516791999999988
 20
171.55833799999999
 30
0.0
 40
0.879259
 50
106.133386
 51
111.495361
  0
ARC
  5
35C
  8
0
 62
     7
 10
-33.674419999999998
 20
171.96537599999999
 30
0.0
 40
0.4427800000000001
 50
111.81688
 51
119.89855799999999
  0
ARC
  5
35D
  8
0
 62
     7
 10
-33.824084999999997
 20
172.22759600000001
 30
0.0
 40
0.140859
 50
120.28992599999999
 51
138.288859
  0
ARC
  5
35E
  8
0
 62
     7
 10
-33.885261999999997
 20
172.28785099999999
 30
0.0
 40
0.055264
 50
142.725403
 51
174.40084200000001
  0
ARC
  5
35F
  8
0
 62
     7
 10
-33.896835000000003
 20
172.29409100000001
 30
0.0
 40
0.043435
 50
181.11840599999999
 51
221.755349
  0
ARC
  5
360
  8
0
 62
     7
 10
-33.848666999999999
 20
172.328844
 30
0.0
 40
0.102696
 50
218.3211959999999
 51
243.100019
  0
ARC
  5
361
  8
0
 62
     7
 10
-33.706580000000002
 20
172.554754
 30
0.0
 40
0.369262
 50
239.29516699999991
 51
248.98939500000009
  0
ARC
  5
362
  8
0
 62
     7
 10
-33.560454
 20
172.89999599999999
 30
0.0
 40
0.744049
 50
248.016986
 51
254.35426699999999
  0
ARC
  5
363
  8
0
 62
     7
 10
-33.29746500000001
 20
173.78825800000001
 30
0.0
 40
1.6703799999999991
 50
253.88467499999999
 51
257.38618300000002
  0
ARC
  5
364
  8
0
 62
     7
 10
-33.113453
 20
174.540786
 30
0.0
 40
2.4449770000000002
 50
257.029177
 51
259.872321
  0
ARC
  5
365
  8
0
 62
     7
 10
-32.821717999999997
 20
176.139715
 30
0.0
 40
4.070295999999999
 50
259.78744599999999
 51
261.75280299999997
  0
ARC
  5
366
  8
0
 62
     7
 10
-32.555670999999997
 20
177.79898600000001
 30
0.0
 40
5.7506259999999996
 50
261.500902
 51
263.05970600000001
  0
ARC
  5
367
  8
0
 62
     7
 10
-32.275461
 20
180.20723599999999
 30
0.0
 40
8.1750990000000012
 50
263.14972299999999
 51
264.35936400000003
  0
ARC
  5
368
  8
0
 62
     7
 10
-32.154733999999998
 20
181.2878429999999
 30
0.0
 40
9.2623490000000004
 50
264.27319199999999
 51
265.424397
  0
ARC
  5
369
  8
0
 62
     7
 10
-32.050849999999997
 20
182.22990200000001
 30
0.0
 40
10.209733
 50
265.265017
 51
266.37967700000002
  0
ARC
  5
36A
  8
0
 62
     7
 10
-31.662203000000002
 20
188.14218
 30
0.0
 40
16.13476
 50
266.328036
 51
267.07187099999999
  0
ARC
  5
36B
  8
0
 62
     7
 10
-31.726475000000001
 20
187.26396099999999
 30
0.0
 40
15.254417
 50
267.14445799999999
 51
267.96301199999999
  0
ARC
  5
36C
  8
0
 62
     7
 10
-31.64865
 20
188.528166
 30
0.0
 40
16.520620999999998
 50
267.84911799999998
 51
268.62612000000001
  0
ARC
  5
36D
  8
0
 62
     7
 10
-31.591135999999999
 20
190.68771100000001
 30
0.0
 40
18.680925999999999
 50
268.60857900000002
 51
269.305027
  0
ARC
  5
36E
  8
0
 62
     7
 10
-30.943408000000002
 20
315.25539099999997
 30
0.0
 40
143.2499
 50
269.650307
 51
269.74111399999998
  0
ARC
  5
36F
  8
0
 62
     7
 10
-31.589808000000001
 20
193.279281
 30
0.0
 40
21.272327000000001
 50
269.99762800000002
 51
270.61006800000001
  0
ARC
  5
370
  8
0
 62
     7
 10
-31.589511000000002
 20
190.62838500000001
 30
0.0
 40
18.621599
 50
270.69599899999997
 51
271.39360499999998
  0
ARC
  5
371
  8
0
 62
     7
 10
-31.523595
 20
188.23114899999999
 30
0.0
 40
16.223471
 50
271.366784
 51
272.15801800000003
  0
ARC
  5
372
  8
0
 62
     7
 10
-31.462764
 20
187.47628800000001
 30
0.0
 40
15.466889
 50
272.03813199999991
 51
272.84671700000001
  0
ARC
  5
373
  8
0
 62
     7
 10
-31.620251
 20
189.901015
 30
0.0
 40
17.896483
 50
272.96476000000001
 51
273.63537200000007
  0
ARC
  5
374
  8
0
 62
     7
 10
-31.323059000000001
 20
184.845731
 30
0.0
 40
12.832549999999999
 50
273.742277
 51
274.6275740000001
  0
ARC
  5
375
  8
0
 62
     7
 10
-31.066337999999998
 20
181.74797799999999
 30
0.0
 40
9.7241850000000003
 50
274.592444
 51
275.69099499999999
  0
ARC
  5
376
  8
0
 62
     7
 10
-30.932409
 20
180.43402499999999
 30
0.0
 40
8.4034270000000006
 50
275.670725
 51
276.84516200000002
  0
ARC
  5
377
  8
0
 62
     7
 10
-30.716505999999999
 20
178.48419899999999
 30
0.0
 40
6.4417929999999988
 50
277.00551400000001
 51
278.40009500000002
  0
ARC
  5
378
  8
0
 62
     7
 10
-30.335263000000001
 20
175.951573
 30
0.0
 40
3.8806500000000002
 50
278.29415599999999
 51
280.35095899999999
  0
ARC
  5
379
  8
0
 62
     7
 10
-30.041774
 20
174.42906300000001
 30
0.0
 40
2.330233999999999
 50
279.97837399999997
 51
282.96070400000002
  0
ARC
  5
37A
  8
0
 62
     7
 10
-29.858867
 20
173.69044
 30
0.0
 40
1.5694559999999991
 50
282.501216
 51
286.22796599999998
  0
ARC
  5
37B
  8
0
 62
     7
 10
-29.671233000000001
 20
173.047641
 30
0.0
 40
0.8998310000000001
 50
286.19474200000002
 51
291.43404500000003
  0
ARC
  5
37C
  8
0
 62
     7
 10
-29.512881
 20
172.636189
 30
0.0
 40
0.4589780000000001
 50
291.80305199999998
 51
299.637877
  0
ARC
  5
37D
  8
0
 62
     7
 10
-29.359172000000001
 20
172.360276
 30
0.0
 40
0.143181
 50
300.77628299999998
 51
318.37327499999998
  0
ARC
  5
37E
  8
0
 62
     7
 10
-29.297559
 20
172.29989399999999
 30
0.0
 40
0.05717
 50
322.59378299999997
 51
353.31938600000001
  0
ARC
  5
37F
  8
0
 62
     7
 10
-29.283470000000001
 20
172.29229699999999
 30
0.0
 40
0.042703
 50
1.269293
 51
42.817537000000002
  0
ARC
  5
380
  8
0
 62
     7
 10
-29.330932000000001
 20
172.25982300000001
 30
0.0
 40
0.099946
 50
37.974575999999999
 51
63.446598999999992
  0
ARC
  5
381
  8
0
 62
     7
 10
-29.474945000000002
 20
172.03143899999989
 30
0.0
 40
0.369586
 50
59.299399999999991
 51
68.985122000000004
  0
ARC
  5
382
  8
0
 62
     7
 10
-29.614501000000001
 20
171.70535799999999
 30
0.0
 40
0.724146
 50
67.929785999999993
 51
74.441427000000004
  0
ARC
  5
383
  8
0
 62
     7
 10
-29.829819000000001
 20
171.019059
 30
0.0
 40
1.4432389999999991
 50
73.514523999999994
 51
77.569023999999999
  0
ARC
  5
384
  8
0
 62
     7
 10
-30.108978
 20
169.82637299999999
 30
0.0
 40
2.668104
 50
77.228161999999998
 51
79.832759999999993
  0
ARC
  5
385
  8
0
 62
     7
 10
-30.335003
 20
168.628131
 30
0.0
 40
3.8874439999999999
 50
79.671231999999989
 51
81.729450999999983
  0
ARC
  5
386
  8
0
 62
     7
 10
-30.481338999999998
 20
167.81434400000001
 30
0.0
 40
4.7138989999999987
 50
81.392116999999999
 51
83.293495999999976
  0
ARC
  5
387
  8
0
 62
     7
 10
-30.978984000000001
 20
163.80761299999989
 30
0.0
 40
8.7513699999999996
 50
83.121173999999996
 51
84.249038999999996
  0
ARC
  5
388
  8
0
 62
     7
 10
-31.508482999999998
 20
157.92494600000001
 30
0.0
 40
14.657621000000001
 50
84.493882999999997
 51
85.222677999999988
  0
ARC
  5
389
  8
0
 62
     7
 10
-31.260073999999999
 20
160.43915100000001
 30
0.0
 40
12.131522
 50
85.402877999999987
 51
86.340897999999996
  0
ARC
  5
38A
  8
0
 62
     7
 10
-31.304231000000001
 20
160.17213000000001
 30
0.0
 40
12.400846
 50
86.216029000000006
 51
87.183839000000006
  0
ARC
  5
38B
  8
0
 62
     7
 10
-31.445726000000001
 20
157.810723
 30
0.0
 40
14.766375
 50
87.085650999999984
 51
87.931289000000007
  0
ARC
  5
38C
  8
0
 62
     7
 10
-31.495087000000002
 20
156.88988900000001
 30
0.0
 40
15.688397999999999
 50
87.872530999999995
 51
88.690733000000009
  0
ARC
  5
38D
  8
0
 62
     7
 10
-31.587506000000001
 20
154.06801400000001
 30
0.0
 40
18.511669999999999
 50
88.604324000000005
 51
89.306072999999998
  0
ARC
  5
38E
  8
0
 62
     7
 10
-31.589815000000002
 20
153.96496200000001
 30
0.0
 40
18.614743000000001
 50
89.302807000000001
 51
90.002688000000006
  0
ARC
  5
38F
  8
0
 62
     7
 10
-29.233979999999999
 20
172.34204800000001
 30
0.0
 40
0.043164
 50
1.068254
 51
43.242634999999993
  0
ARC
  5
390
  8
0
 62
     7
 10
-29.283719000000001
 20
172.30830599999999
 30
0.0
 40
0.102952
 50
37.949935000000004
 51
63.004792000000002
  0
ARC
  5
391
  8
0
 62
     7
 10
-29.429369999999999
 20
172.07615899999999
 30
0.0
 40
0.37671
 50
59.290165000000002
 51
68.968638999999996
  0
ARC
  5
392
  8
0
 62
     7
 10
-29.566143
 20
171.76053400000001
 30
0.0
 40
0.720538
 50
67.824267000000006
 51
74.485725000000002
  0
ARC
  5
393
  8
0
 62
     7
 10
-29.827750000000002
 20
170.905191
 30
0.0
 40
1.614857999999999
 50
73.659370999999993
 51
77.346620999999999
  0
ARC
  5
394
  8
0
 62
     7
 10
-30.139654
 20
169.514645
 30
0.0
 40
3.0399560000000001
 50
77.351776999999998
 51
79.684223000000003
  0
ARC
  5
395
  8
0
 62
     7
 10
-30.322413000000001
 20
168.495724
 30
0.0
 40
4.0751349999999986
 50
79.721562000000006
 51
81.719224999999994
  0
ARC
  5
396
  8
0
 62
     7
 10
-30.634896999999999
 20
166.465923
 30
0.0
 40
6.1288019999999994
 50
81.561367000000004
 51
83.053138000000004
  0
ARC
  5
397
  8
0
 62
     7
 10
-30.794180000000001
 20
165.19683800000001
 30
0.0
 40
7.4078359999999988
 50
83.017406999999992
 51
84.37661700000001
  0
ARC
  5
398
  8
0
 62
     7
 10
-31.195958000000001
 20
161.11958799999999
 30
0.0
 40
11.504835
 50
84.375028
 51
85.320790000000017
  0
ARC
  5
399
  8
0
 62
     7
 10
-31.119437999999999
 20
162.09965800000001
 30
0.0
 40
10.521789999999999
 50
85.300717000000006
 51
86.402967999999987
  0
ARC
  5
39A
  8
0
 62
     7
 10
-31.197012999999998
 20
161.77057500000001
 30
0.0
 40
10.855238999999999
 50
86.103294999999974
 51
87.228983999999997
  0
ARC
  5
39B
  8
0
 62
     7
 10
-31.558823
 20
154.77760599999999
 30
0.0
 40
17.857538999999999
 50
87.154172000000003
 51
87.866703000000015
  0
ARC
  5
39C
  8
0
 62
     7
 10
-31.580662
 20
153.652244
 30
0.0
 40
18.982944
 50
87.927271999999988
 51
88.616997999999995
  0
ARC
  5
39D
  8
0
 62
     7
 10
-31.651765999999999
 20
150.30646899999999
 30
0.0
 40
22.329463000000001
 50
88.641806000000003
 51
89.239489000000006
  0
ARC
  5
39E
  8
0
 62
     7
 10
-31.590125
 20
152.642506
 30
0.0
 40
19.992837000000002
 50
89.327267000000006
 51
90.001613000000006
  0
LINE
  5
39F
  8
0
 62
     7
 10
-29.1919
 20
147.74000000000001
 30
0.0
 11
-29.193200000000001
 21
147.739
 31
0.0
  0
ARC
  5
3A0
  8
0
 62
     7
 10
-31.381671999999998
 20
152.011686
 30
0.0
 40
4.8006199999999994
 50
296.05847899999998
 51
296.779312
  0
ARC
  5
3A1
  8
0
 62
     7
 10
-29.503874
 20
148.312592
 30
0.0
 40
0.6522800000000001
 50
295.92233599999997
 51
298.43990000000002
  0
ARC
  5
3A2
  8
0
 62
     7
 10
-33.905845999999997
 20
172.34318400000001
 30
0.0
 40
0.084715
 50
180.22419099999999
 51
205.52584899999999
  0
ARC
  5
3A3
  8
0
 62
     7
 10
-33.888649000000001
 20
172.34712500000001
 30
0.0
 40
0.102005
 50
203.36033599999999
 51
225.42235099999999
  0
ARC
  5
3A4
  8
0
 62
     7
 10
-33.836789000000003
 20
172.39476400000001
 30
0.0
 40
0.172373
 50
224.257971
 51
239.179946
  0
ARC
  5
3A5
  8
0
 62
     7
 10
-33.751719999999999
 20
172.51840799999999
 30
0.0
 40
0.322287
 50
237.45384300000001
 51
247.54790499999999
  0
ARC
  5
3A6
  8
0
 62
     7
 10
-33.607258999999999
 20
172.82691399999999
 30
0.0
 40
0.6627650000000001
 50
246.19152700000001
 51
252.93353400000001
  0
ARC
  5
3A7
  8
0
 62
     7
 10
-33.399275000000003
 20
173.456467
 30
0.0
 40
1.3257099999999991
 50
252.325695
 51
256.86747800000001
  0
ARC
  5
3A8
  8
0
 62
     7
 10
-33.172195000000002
 20
174.32734300000001
 30
0.0
 40
2.2255240000000001
 50
256.268283
 51
259.453058
  0
ARC
  5
3A9
  8
0
 62
     7
 10
-32.867834999999999
 20
175.90384800000001
 30
0.0
 40
3.831119999999999
 50
259.29373500000003
 51
261.415683
  0
ARC
  5
3AA
  8
0
 62
     7
 10
-32.654285999999999
 20
177.190573
 30
0.0
 40
5.1353410000000004
 50
261.20265699999999
 51
262.97620599999999
  0
ARC
  5
3AB
  8
0
 62
     7
 10
-32.403883999999998
 20
179.070494
 30
0.0
 40
7.0317990000000004
 50
262.82430199999999
 51
264.24535400000002
  0
ARC
  5
3AC
  8
0
 62
     7
 10
-32.258423000000001
 20
180.25752499999999
 30
0.0
 40
8.2274729999999998
 50
264.06633900000003
 51
265.38429200000002
  0
ARC
  5
3AD
  8
0
 62
     7
 10
-32.023121000000003
 20
182.62471099999999
 30
0.0
 40
10.606007999999999
 50
265.14634999999998
 51
266.2363410000001
  0
ARC
  5
3AE
  8
0
 62
     7
 10
-31.789427
 20
186.13109399999999
 30
0.0
 40
14.120169000000001
 50
266.22405800000001
 51
267.08666199999999
  0
ARC
  5
3AF
  8
0
 62
     7
 10
-31.683831000000001
 20
188.07818700000001
 30
0.0
 40
16.070114
 50
267.06349599999999
 51
267.85285299999998
  0
ARC
  5
3B0
  8
0
 62
     7
 10
-31.521913000000001
 20
193.005089
 30
0.0
 40
20.999635999999999
 50
267.915031
 51
268.53759300000002
  0
ARC
  5
3B1
  8
0
 62
     7
 10
-31.535664000000001
 20
193.90626399999999
 30
0.0
 40
21.900196999999999
 50
268.63372600000002
 51
269.24132300000002
  0
ARC
  5
3B2
  8
0
 62
     7
 10
-31.59091500000001
 20
191.999346
 30
0.0
 40
19.992736999999991
 50
269.32728700000001
 51
270.00064900000001
  0
ARC
  5
3B3
  8
0
 62
     7
 10
-31.589774999999999
 20
191.881078
 30
0.0
 40
19.874469000000001
 50
269.997367
 51
270.674736
  0
ARC
  5
3B4
  8
0
 62
     7
 10
-31.558619
 20
189.27944199999999
 30
0.0
 40
17.272645999999991
 50
270.67301900000001
 51
271.44568600000002
  0
ARC
  5
3B5
  8
0
 62
     7
 10
-31.524640000000002
 20
188.67330799999999
 30
0.0
 40
16.665859000000001
 50
271.38148000000001
 51
272.16593599999999
  0
ARC
  5
3B6
  8
0
 62
     7
 10
-31.477018000000001
 20
187.659325
 30
0.0
 40
15.650803
 50
272.13201400000003
 51
272.94378
  0
ARC
  5
3B7
  8
0
 62
     7
 10
-31.398033999999999
 20
186.05808999999999
 30
0.0
 40
14.047625
 50
272.95745499999998
 51
273.82455599999997
  0
ARC
  5
3B8
  8
0
 62
     7
 10
-31.157129000000001
 20
182.765649
 30
0.0
 40
10.746468
 50
273.71388400000001
 51
274.79139199999997
  0
ARC
  5
3B9
  8
0
 62
     7
 10
-30.966822000000001
 20
180.644947
 30
0.0
 40
8.6172899999999988
 50
274.70825100000002
 51
275.96440699999999
  0
ARC
  5
3BA
  8
0
 62
     7
 10
-30.775759000000011
 20
179.07982799999999
 30
0.0
 40
7.0408429999999989
 50
275.741466
 51
277.163478
  0
ARC
  5
3BB
  8
0
 62
     7
 10
-30.559904
 20
177.436767
 30
0.0
 40
5.3836979999999999
 50
277.06472500000001
 51
278.75645200000002
  0
ARC
  5
3BC
  8
0
 62
     7
 10
-30.399788999999998
 20
176.37727899999999
 30
0.0
 40
4.3121849999999986
 50
278.79686600000002
 51
280.67794099999998
  0
ARC
  5
3BD
  8
0
 62
     7
 10
-30.048166999999999
 20
174.53693899999999
 30
0.0
 40
2.4385650000000001
 50
280.57127700000001
 51
283.48482799999999
  0
ARC
  5
3BE
  8
0
 62
     7
 10
-29.872209999999999
 20
173.77648600000001
 30
0.0
 40
1.658056
 50
283.69982299999998
 51
287.307931
  0
ARC
  5
3BF
  8
0
 62
     7
 10
-29.616040999999999
 20
172.941419
 30
0.0
 40
0.7845990000000001
 50
287.590416
 51
293.28456299999999
  0
ARC
  5
3C0
  8
0
 62
     7
 10
-29.477957
 20
172.61267799999999
 30
0.0
 40
0.4280600000000001
 50
293.70136200000002
 51
301.29692999999997
  0
ARC
  5
3C1
  8
0
 62
     7
 10
-29.362131000000002
 20
172.4145189999999
 30
0.0
 40
0.198607
 50
302.44136400000002
 51
315.22677700000003
  0
ARC
  5
3C2
  8
0
 62
     7
 10
-29.310979
 20
172.36127500000001
 30
0.0
 40
0.124807
 50
316.0397220000001
 51
334.05898300000001
  0
ARC
  5
3C3
  8
0
 62
     7
 10
-29.27985
 20
172.34339900000001
 30
0.0
 40
0.089028
 50
335.64093200000002
 51
359.64835099999999
  0
ARC
  5
3C4
  8
0
 62
     7
 10
-15.995683
 20
256.09554500000002
 30
0.0
 40
0.103765
 50
272.09513900000002
 51
358.00357200000008
  0
ARC
  5
3C5
  8
0
 62
     7
 10
-15.99569
 20
265.287283
 30
0.0
 40
0.103778
 50
2.0984519999999991
 51
87.901539000000014
  0
ARC
  5
3C6
  8
0
 62
     7
 10
-36.982729999999997
 20
256.19952499999999
 30
0.0
 40
0.207798
 50
182.11962700000001
 51
268.02826299999998
  0
ARC
  5
3C7
  8
0
 62
     7
 10
-36.981878999999999
 20
265.182456
 30
0.0
 40
0.208688
 50
92.196966000000003
 51
177.605773
  0
ARC
  5
3C8
  8
0
 62
     7
 10
-12.980276999999999
 20
256.21004099999999
 30
0.0
 40
0.208355
 50
272.20930700000002
 51
357.74137300000001
  0
ARC
  5
3C9
  8
0
 62
     7
 10
-12.979552999999999
 20
265.173518
 30
0.0
 40
0.207611
 50
2.1160519999999989
 51
87.98263900000002
  0
ARC
  5
3CA
  8
0
 62
     7
 10
-12.979727
 20
261.28381300000001
 30
0.0
 40
0.207785
 50
2.113024999999999
 51
87.936293999999975
  0
ARC
  5
3CB
  8
0
 62
     7
 10
-12.980276999999999
 20
260.09975100000003
 30
0.0
 40
0.208355
 50
272.20930700000002
 51
357.74137300000001
  0
ARC
  5
3CC
  8
0
 62
     7
 10
-31.590692000000001
 20
260.691506
 30
0.0
 40
2.3998689999999989
 50
0.00001
 51
89.999980000000008
  0
ARC
  5
3CD
  8
0
 62
     7
 10
-31.590691
 20
260.691506
 30
0.0
 40
2.3998689999999989
 50
90.0
 51
179.99996999999999
  0
ARC
  5
3CE
  8
0
 62
     7
 10
35.592257000000011
 20
172.05869899999999
 30
0.0
 40
0.051945
 50
264.98628300000001
 51
350.76369599999998
  0
ARC
  5
3CF
  8
0
 62
     7
 10
30.931419000000002
 20
172.63105400000001
 30
0.0
 40
0.051977
 50
175.26717500000001
 51
261.09425900000002
  0
ARC
  5
3D0
  8
0
 62
     7
 10
68.252594999999999
 20
175.441562
 30
0.0
 40
7.5992410000000001
 50
0.00001
 51
89.999980000000008
  0
ARC
  5
3D1
  8
0
 62
     7
 10
43.443590999999998
 20
175.56457
 30
0.0
 40
7.3140780000000003
 50
139.220933
 51
173.69655
  0
ARC
  5
3D2
  8
0
 62
     7
 10
43.827603000000003
 20
175.28157100000001
 30
0.0
 40
7.789788999999999
 50
101.764222
 51
139.48953700000001
  0
ARC
  5
3D3
  8
0
 62
     7
 10
43.616937
 20
175.88081700000001
 30
0.0
 40
7.1606729999999992
 50
89.206304999999986
 51
101.091572
  0
ARC
  5
3D4
  8
0
 62
     7
 10
68.252593999999988
 20
175.44156100000001
 30
0.0
 40
12.398979000000001
 50
0.00001
 51
89.999980000000008
  0
ARC
  5
3D5
  8
0
 62
     7
 10
43.209091000000001
 20
175.656633
 30
0.0
 40
11.870225
 50
143.10922199999999
 51
173.73209
  0
ARC
  5
3D6
  8
0
 62
     7
 10
43.922184999999999
 20
175.163386
 30
0.0
 40
12.73668
 50
103.75719700000001
 51
143.260257
  0
ARC
  5
3D7
  8
0
 62
     7
 10
43.558962000000001
 20
176.11202700000001
 30
0.0
 40
11.729566999999999
 50
89.232263000000003
 51
103.135806
  0
ARC
  5
3D8
  8
0
 62
     7
 10
-15.995696000000001
 20
138.444108
 30
0.0
 40
0.103772
 50
272.10179099999999
 51
358.09545000000003
  0
ARC
  5
3D9
  8
0
 62
     7
 10
-15.995699999999999
 20
147.63600099999999
 30
0.0
 40
0.103788
 50
2.1037910000000002
 51
87.896198999999996
  0
ARC
  5
3DA
  8
0
 62
     7
 10
-37.082464000000002
 20
138.548249
 30
0.0
 40
0.207971
 50
182.11659900000001
 51
267.98196100000001
  0
ARC
  5
3DB
  8
0
 62
     7
 10
-37.08178800000001
 20
147.53118499999999
 30
0.0
 40
0.208688
 50
92.196966000000003
 51
177.605773
  0
ARC
  5
3DC
  8
0
 62
     7
 10
-31.590692000000001
 20
185.44067100000001
 30
0.0
 40
2.3998689999999989
 50
0.00001
 51
89.999980000000008
  0
ARC
  5
3DD
  8
0
 62
     7
 10
-31.590691
 20
185.44067100000001
 30
0.0
 40
2.3998689999999989
 50
90.0
 51
179.99996999999999
  0
LINE
  5
3DE
  8
0
 62
     7
 10
-12.7721
 20
265.18099999999998
 30
0.0
 11
-12.7721
 21
256.202
 31
0.0
  0
LINE
  5
3DF
  8
0
 62
     7
 10
-12.972200000000001
 20
265.38099999999997
 30
0.0
 11
-12.972200000000001
 21
256.00200000000001
 31
0.0
  0
LINE
  5
3E0
  8
0
 62
     7
 10
-15.571899999999999
 20
265.38099999999997
 30
0.0
 11
-15.571899999999999
 21
256.00200000000001
 31
0.0
  0
LINE
  5
3E1
  8
0
 62
     7
 10
-15.891999999999999
 20
265.291
 30
0.0
 11
-15.891999999999999
 21
256.09199999999998
 31
0.0
  0
LINE
  5
3E2
  8
0
 62
     7
 10
-15.991899999999999
 20
265.39100000000002
 30
0.0
 11
-15.991899999999999
 21
255.99199999999999
 31
0.0
  0
LINE
  5
3E3
  8
0
 62
     7
 10
-29.190799999999999
 20
260.69200000000001
 30
0.0
 11
-29.190799999999999
 21
215.70099999999999
 31
0.0
  0
LINE
  5
3E4
  8
0
 62
     7
 10
-15.891999999999999
 20
256.36500000000001
 30
0.0
 11
-15.571899999999999
 21
256.66199999999998
 31
0.0
  0
LINE
  5
3E5
  8
0
 62
     7
 10
-33.990600000000001
 20
260.69200000000001
 30
0.0
 11
-33.990600000000001
 21
215.70099999999999
 31
0.0
  0
LINE
  5
3E6
  8
0
 62
     7
 10
-36.989899999999999
 20
255.99199999999999
 30
0.0
 11
-36.989899999999999
 21
265.39100000000002
 31
0.0
  0
LINE
  5
3E7
  8
0
 62
     7
 10
-37.190399999999997
 20
256.19200000000001
 30
0.0
 11
-37.190399999999997
 21
265.19099999999997
 31
0.0
  0
LINE
  5
3E8
  8
0
 62
     7
 10
71.569199999999995
 20
254.00899999999999
 30
0.0
 11
65.233999999999995
 21
254.00899999999999
 31
0.0
  0
LINE
  5
3E9
  8
0
 62
     7
 10
74.632599999999996
 20
256.23500000000001
 30
0.0
 11
75.776700000000005
 21
258.21699999999998
 31
0.0
  0
LINE
  5
3EA
  8
0
 62
     7
 10
75.776700000000005
 20
258.21699999999998
 30
0.0
 11
73.794799999999995
 21
257.072
 31
0.0
  0
LINE
  5
3EB
  8
0
 62
     7
 10
73.794799999999995
 20
257.072
 30
0.0
 11
74.632599999999996
 21
256.23500000000001
 31
0.0
  0
LINE
  5
3EC
  8
0
 62
     7
 10
71.569199999999995
 20
254.00899999999999
 30
0.0
 11
75.776700000000005
 21
258.21699999999998
 31
0.0
  0
LINE
  5
3ED
  8
0
 62
     7
 10
75.776700000000005
 20
258.21699999999998
 30
0.0
 11
80.726699999999994
 21
263.166
 31
0.0
  0
LINE
  5
3EE
  8
0
 62
     7
 10
81.870799999999988
 20
265.14800000000002
 30
0.0
 11
80.726699999999994
 21
263.166
 31
0.0
  0
LINE
  5
3EF
  8
0
 62
     7
 10
80.726699999999994
 20
263.166
 30
0.0
 11
82.708699999999993
 21
264.31099999999998
 31
0.0
  0
LINE
  5
3F0
  8
0
 62
     7
 10
82.708699999999993
 20
264.31099999999998
 30
0.0
 11
81.870799999999988
 21
265.14800000000002
 31
0.0
  0
LINE
  5
3F1
  8
0
 62
     7
 10
80.726699999999994
 20
263.166
 30
0.0
 11
83.681600000000003
 21
266.12099999999998
 31
0.0
  0
LINE
  5
3F2
  8
0
  6
AIGENLINE001
 62
     7
 10
72.289900000000003
 20
260.69200000000001
 30
0.0
 11
84.144199999999984
 21
260.69200000000001
 31
0.0
  0
LINE
  5
3F3
  8
0
  6
AIGENLINE001
 62
     7
 10
-39.345999999999997
 20
260.69200000000001
 30
0.0
 11
-11.547000000000001
 21
260.69200000000001
 31
0.0
  0
LINE
  5
3F4
  8
0
 62
     7
 10
-29.190799999999999
 20
255.99199999999999
 30
0.0
 11
-15.991899999999999
 21
255.99199999999999
 31
0.0
  0
LINE
  5
3F5
  8
0
 62
     7
 10
-36.989899999999999
 20
255.99199999999999
 30
0.0
 11
-33.990600000000001
 21
255.99199999999999
 31
0.0
  0
LINE
  5
3F6
  8
0
 62
     7
 10
-15.571899999999999
 20
256.00200000000001
 30
0.0
 11
-12.972200000000001
 21
256.00200000000001
 31
0.0
  0
LINE
  5
3F7
  8
0
 62
     7
 10
-15.891999999999999
 20
265.01799999999997
 30
0.0
 11
-15.571899999999999
 21
264.721
 31
0.0
  0
LINE
  5
3F8
  8
0
 62
     7
 10
-15.571899999999999
 20
265.38099999999997
 30
0.0
 11
-12.972200000000001
 21
265.38099999999997
 31
0.0
  0
LINE
  5
3F9
  8
0
 62
     7
 10
-36.989899999999999
 20
265.39100000000002
 30
0.0
 11
-15.991899999999999
 21
265.39100000000002
 31
0.0
  0
LINE
  5
3FA
  8
0
 62
     7
 10
68.252600000000001
 20
187.84100000000001
 30
0.0
 11
43.71609999999999
 21
187.84100000000001
 31
0.0
  0
LINE
  5
3FB
  8
0
 62
     7
 10
33.048699999999997
 20
170.608
 30
0.0
 11
32.25350000000001
 21
164.13300000000001
 31
0.0
  0
LINE
  5
3FC
  8
0
  6
AIGENLINE001
 62
     7
 10
33.920299999999997
 20
177.708
 30
0.0
 11
33.125100000000003
 21
171.232
 31
0.0
  0
LINE
  5
3FD
  8
0
 62
     7
 10
31.409800000000001
 20
176.953
 30
0.0
 11
30.8796
 21
172.63499999999999
 31
0.0
  0
LINE
  5
3FE
  8
0
 62
     7
 10
68.252600000000001
 20
183.041
 30
0.0
 11
43.71609999999999
 21
183.041
 31
0.0
  0
LINE
  5
3FF
  8
0
 62
     7
 10
36.173699999999997
 20
176.36799999999999
 30
0.0
 11
35.64350000000001
 21
172.05000000000001
 31
0.0
  0
LINE
  5
400
  8
0
 62
     7
 10
30.8796
 20
172.63499999999999
 30
0.0
 11
35.64350000000001
 21
172.05000000000001
 31
0.0
  0
LINE
  5
401
  8
0
 62
     7
 10
30.923400000000001
 20
172.58000000000001
 30
0.0
 11
35.587699999999998
 21
172.00700000000001
 31
0.0
  0
LINE
  5
402
  8
0
 62
     7
 10
73.851900000000001
 20
123.04000000000001
 30
0.0
 11
73.851900000000001
 21
141.38399999999999
 31
0.0
  0
LINE
  5
403
  8
0
 62
     7
 10
75.851799999999997
 20
155.09
 30
0.0
 11
75.851799999999997
 21
175.44200000000001
 31
0.0
  0
LINE
  5
404
  8
0
 62
     7
 10
75.851799999999997
 20
148.90799999999999
 30
0.0
 11
75.851799999999997
 21
147.083
 31
0.0
  0
LINE
  5
405
  8
0
 62
     7
 10
80.651600000000002
 20
152.47999999999999
 30
0.0
 11
80.651600000000002
 21
175.44200000000001
 31
0.0
  0
LINE
  5
406
  8
0
 62
     7
 10
80.651600000000002
 20
149.19
 30
0.0
 11
80.651600000000002
 21
151.22
 31
0.0
  0
LINE
  5
407
  8
0
 62
     7
 10
80.651600000000002
 20
149.13999999999999
 30
0.0
 11
80.651600000000002
 21
147.083
 31
0.0
  0
LINE
  5
408
  8
0
 62
     7
 10
82.651499999999999
 20
123.04000000000001
 30
0.0
 11
82.651499999999999
 21
141.38399999999999
 31
0.0
  0
LINE
  5
409
  8
0
 62
     7
 10
82.651499999999999
 20
123.04000000000001
 30
0.0
 11
73.851900000000001
 21
123.04000000000001
 31
0.0
  0
LINE
  5
40A
  8
0
 62
     7
 10
-15.891999999999999
 20
138.714
 30
0.0
 11
-15.571899999999999
 21
139.00999999999999
 31
0.0
  0
LINE
  5
40B
  8
0
 62
     7
 10
-37.290300000000002
 20
137.376
 30
0.0
 11
-37.290300000000002
 21
128.45500000000001
 31
0.0
  0
LINE
  5
40C
  8
0
 62
     7
 10
-12.7721
 20
137.49299999999999
 30
0.0
 11
-12.7721
 21
128.45500000000001
 31
0.0
  0
LINE
  5
40D
  8
0
 62
     7
 10
-12.972200000000001
 20
147.751
 30
0.0
 11
-12.972200000000001
 21
138.351
 31
0.0
  0
LINE
  5
40E
  8
0
 62
     7
 10
-15.891999999999999
 20
147.63999999999999
 30
0.0
 11
-15.891999999999999
 21
138.441
 31
0.0
  0
LINE
  5
40F
  8
0
 62
     7
 10
-15.991899999999999
 20
147.74000000000001
 30
0.0
 11
-15.991899999999999
 21
138.34
 31
0.0
  0
LINE
  5
410
  8
0
 62
     7
 10
19.765699999999999
 20
185.63
 30
0.0
 11
19.173100000000002
 21
187.84200000000001
 31
0.0
  0
LINE
  5
411
  8
0
 62
     7
 10
19.173100000000002
 20
187.84200000000001
 30
0.0
 11
18.5806
 21
185.63
 31
0.0
  0
LINE
  5
412
  8
0
 62
     7
 10
18.5806
 20
185.63
 30
0.0
 11
19.765699999999999
 21
185.63
 31
0.0
  0
LINE
  5
413
  8
0
 62
     7
 10
18.594999999999999
 20
125.251
 30
0.0
 11
19.1876
 21
123.039
 31
0.0
  0
LINE
  5
414
  8
0
 62
     7
 10
19.1876
 20
123.039
 30
0.0
 11
19.780100000000001
 21
125.251
 31
0.0
  0
LINE
  5
415
  8
0
 62
     7
 10
19.780100000000001
 20
125.251
 30
0.0
 11
18.594999999999999
 21
125.251
 31
0.0
  0
LINE
  5
416
  8
0
 62
     7
 10
19.180299999999999
 20
187.84200000000001
 30
0.0
 11
19.180299999999999
 21
123.039
 31
0.0
  0
LINE
  5
417
  8
0
 62
     7
 10
27.545100000000001
 20
170.083
 30
0.0
 11
26.952500000000001
 21
172.29400000000001
 31
0.0
  0
LINE
  5
418
  8
0
 62
     7
 10
26.952500000000001
 20
172.29400000000001
 30
0.0
 11
26.359999999999999
 21
170.083
 31
0.0
  0
LINE
  5
419
  8
0
 62
     7
 10
26.359999999999999
 20
170.083
 30
0.0
 11
27.545100000000001
 21
170.083
 31
0.0
  0
LINE
  5
41A
  8
0
 62
     7
 10
26.374400000000001
 20
125.251
 30
0.0
 11
26.966999999999999
 21
123.039
 31
0.0
  0
LINE
  5
41B
  8
0
 62
     7
 10
26.966999999999999
 20
123.039
 30
0.0
 11
27.5596
 21
125.251
 31
0.0
  0
LINE
  5
41C
  8
0
 62
     7
 10
27.5596
 20
125.251
 30
0.0
 11
26.374400000000001
 21
125.251
 31
0.0
  0
LINE
  5
41D
  8
0
 62
     7
 10
26.959800000000001
 20
172.29400000000001
 30
0.0
 11
26.959800000000001
 21
123.039
 31
0.0
  0
LINE
  5
41E
  8
0
 62
     7
 10
-43.072600000000001
 20
140.55199999999999
 30
0.0
 11
-43.665100000000002
 21
138.34
 31
0.0
  0
LINE
  5
41F
  8
0
 62
     7
 10
-43.665100000000002
 20
138.34
 30
0.0
 11
-44.257699999999993
 21
140.55199999999999
 31
0.0
  0
LINE
  5
420
  8
0
 62
     7
 10
-44.257699999999993
 20
140.55199999999999
 30
0.0
 11
-43.072600000000001
 21
140.55199999999999
 31
0.0
  0
LINE
  5
421
  8
0
 62
     7
 10
-44.243200000000002
 20
145.52799999999999
 30
0.0
 11
-43.650700000000001
 21
147.74000000000001
 31
0.0
  0
LINE
  5
422
  8
0
 62
     7
 10
-43.650700000000001
 20
147.74000000000001
 30
0.0
 11
-43.058100000000003
 21
145.52799999999999
 31
0.0
  0
LINE
  5
423
  8
0
 62
     7
 10
-43.058100000000003
 20
145.52799999999999
 30
0.0
 11
-44.243200000000002
 21
145.52799999999999
 31
0.0
  0
LINE
  5
424
  8
0
 62
     7
 10
-43.658200000000001
 20
138.34
 30
0.0
 11
-43.658200000000001
 21
147.739
 31
0.0
  0
LINE
  5
425
  8
0
 62
     7
 10
-38.297600000000003
 20
147.74000000000001
 30
0.0
 11
-44.3583
 21
147.74000000000001
 31
0.0
  0
LINE
  5
426
  8
0
 62
     7
 10
-38.297600000000003
 20
138.34
 30
0.0
 11
-44.3583
 21
138.34
 31
0.0
  0
LINE
  5
427
  8
0
 62
     7
 10
3.9746299999999999
 20
158.328
 30
0.0
 11
3.3820699999999988
 21
160.53999999999999
 31
0.0
  0
LINE
  5
428
  8
0
 62
     7
 10
3.3820699999999988
 20
160.53999999999999
 30
0.0
 11
2.789509999999999
 21
158.328
 31
0.0
  0
LINE
  5
429
  8
0
 62
     7
 10
2.789509999999999
 20
158.328
 30
0.0
 11
3.9746299999999999
 21
158.328
 31
0.0
  0
LINE
  5
42A
  8
0
 62
     7
 10
3.38931
 20
123.039
 30
0.0
 11
3.38931
 21
160.53899999999999
 31
0.0
  0
LINE
  5
42B
  8
0
 62
     7
 10
-4.3766800000000003
 20
125.251
 30
0.0
 11
-3.7841199999999988
 21
123.039
 31
0.0
  0
LINE
  5
42C
  8
0
 62
     7
 10
-3.7841199999999988
 20
123.039
 30
0.0
 11
-3.1915599999999991
 21
125.251
 31
0.0
  0
LINE
  5
42D
  8
0
 62
     7
 10
-3.1915599999999991
 20
125.251
 30
0.0
 11
-4.3766800000000003
 21
125.251
 31
0.0
  0
LINE
  5
42E
  8
0
 62
     7
 10
-3.2060299999999988
 20
140.828
 30
0.0
 11
-3.7985899999999999
 21
143.03999999999999
 31
0.0
  0
LINE
  5
42F
  8
0
 62
     7
 10
-3.7985899999999999
 20
143.03999999999999
 30
0.0
 11
-4.3911499999999988
 21
140.828
 31
0.0
  0
LINE
  5
430
  8
0
 62
     7
 10
-4.3911499999999988
 20
140.828
 30
0.0
 11
-3.2060299999999988
 21
140.828
 31
0.0
  0
LINE
  5
431
  8
0
 62
     7
 10
-3.7913499999999991
 20
123.039
 30
0.0
 11
-3.7913499999999991
 21
143.041
 31
0.0
  0
LINE
  5
432
  8
0
 62
     7
 10
2.8039800000000001
 20
125.251
 30
0.0
 11
3.3965399999999999
 21
123.039
 31
0.0
  0
LINE
  5
433
  8
0
 62
     7
 10
3.3965399999999999
 20
123.039
 30
0.0
 11
3.9891000000000001
 21
125.251
 31
0.0
  0
LINE
  5
434
  8
0
 62
     7
 10
3.9891000000000001
 20
125.251
 30
0.0
 11
2.8039800000000001
 21
125.251
 31
0.0
  0
LINE
  5
435
  8
0
 62
     7
 10
76.062700000000007
 20
127.28100000000001
 30
0.0
 11
73.850899999999996
 21
126.688
 31
0.0
  0
LINE
  5
436
  8
0
 62
     7
 10
73.850899999999996
 20
126.688
 30
0.0
 11
76.062700000000007
 21
126.096
 31
0.0
  0
LINE
  5
437
  8
0
 62
     7
 10
76.062700000000007
 20
126.096
 30
0.0
 11
76.062700000000007
 21
127.28100000000001
 31
0.0
  0
LINE
  5
438
  8
0
 62
     7
 10
80.440700000000007
 20
126.11
 30
0.0
 11
82.652499999999989
 21
126.703
 31
0.0
  0
LINE
  5
439
  8
0
 62
     7
 10
82.652499999999989
 20
126.703
 30
0.0
 11
80.440700000000007
 21
127.295
 31
0.0
  0
LINE
  5
43A
  8
0
 62
     7
 10
80.440700000000007
 20
127.295
 30
0.0
 11
80.440700000000007
 21
126.11
 31
0.0
  0
LINE
  5
43B
  8
0
 62
     7
 10
73.851900000000001
 20
126.696
 30
0.0
 11
82.651499999999999
 21
126.696
 31
0.0
  0
LINE
  5
43C
  8
0
 62
     7
 10
73.641400000000004
 20
168.41099999999989
 30
0.0
 11
75.853200000000001
 21
169.00299999999999
 31
0.0
  0
LINE
  5
43D
  8
0
 62
     7
 10
75.853200000000001
 20
169.00299999999999
 30
0.0
 11
73.641400000000004
 21
169.59599999999989
 31
0.0
  0
LINE
  5
43E
  8
0
 62
     7
 10
73.641400000000004
 20
169.59599999999989
 30
0.0
 11
73.641400000000004
 21
168.41099999999989
 31
0.0
  0
LINE
  5
43F
  8
0
 62
     7
 10
70.411699999999996
 20
168.99600000000001
 30
0.0
 11
75.851799999999997
 21
168.99600000000001
 31
0.0
  0
LINE
  5
440
  8
0
 62
     7
 10
75.851799999999997
 20
168.99600000000001
 30
0.0
 11
80.651600000000002
 21
168.99600000000001
 31
0.0
  0
LINE
  5
441
  8
0
 62
     7
 10
82.861999999999995
 20
169.5809999999999
 30
0.0
 11
80.650199999999998
 21
168.989
 31
0.0
  0
LINE
  5
442
  8
0
 62
     7
 10
80.650199999999998
 20
168.989
 30
0.0
 11
82.861999999999995
 21
168.39599999999999
 31
0.0
  0
LINE
  5
443
  8
0
 62
     7
 10
82.861999999999995
 20
168.39599999999999
 30
0.0
 11
82.861999999999995
 21
169.5809999999999
 31
0.0
  0
LINE
  5
444
  8
0
 62
     7
 10
80.651600000000002
 20
168.99600000000001
 30
0.0
 11
88.677700000000002
 21
168.99600000000001
 31
0.0
  0
LINE
  5
445
  8
0
 62
     7
 10
35.466099999999997
 20
195.512
 30
0.0
 11
33.254300000000001
 21
194.91999999999999
 31
0.0
  0
LINE
  5
446
  8
0
 62
     7
 10
33.254300000000001
 20
194.91999999999999
 30
0.0
 11
35.466099999999997
 21
194.327
 31
0.0
  0
LINE
  5
447
  8
0
 62
     7
 10
35.466099999999997
 20
194.327
 30
0.0
 11
35.466099999999997
 21
195.512
 31
0.0
  0
LINE
  5
448
  8
0
 62
     7
 10
76.041300000000007
 20
194.34200000000001
 30
0.0
 11
78.253100000000003
 21
194.934
 31
0.0
  0
LINE
  5
449
  8
0
 62
     7
 10
78.253100000000003
 20
194.934
 30
0.0
 11
76.041300000000007
 21
195.52699999999999
 31
0.0
  0
LINE
  5
44A
  8
0
 62
     7
 10
76.041300000000007
 20
195.52699999999999
 30
0.0
 11
76.041300000000007
 21
194.34200000000001
 31
0.0
  0
LINE
  5
44B
  8
0
 62
     7
 10
33.254300000000001
 20
194.92699999999999
 30
0.0
 11
78.253100000000003
 21
194.92699999999999
 31
0.0
  0
LINE
  5
44C
  8
0
 62
     7
 10
105.108
 20
123.04000000000001
 30
0.0
 11
18.4803
 21
123.04000000000001
 31
0.0
  0
LINE
  5
44D
  8
0
 62
     7
 10
39.823099999999997
 20
187.84100000000001
 30
0.0
 11
18.4803
 21
187.84100000000001
 31
0.0
  0
LINE
  5
44E
  8
0
 62
     7
 10
32.555300000000003
 20
172.29300000000001
 30
0.0
 11
26.259699999999999
 21
172.29300000000001
 31
0.0
  0
LINE
  5
44F
  8
0
 62
     7
 10
-29.379999999999999
 20
169.828
 30
0.0
 11
-31.591699999999999
 21
169.23599999999999
 31
0.0
  0
LINE
  5
450
  8
0
 62
     7
 10
-31.591699999999999
 20
169.23599999999999
 30
0.0
 11
-29.379999999999999
 21
168.643
 31
0.0
  0
LINE
  5
451
  8
0
 62
     7
 10
-29.379999999999999
 20
168.643
 30
0.0
 11
-29.379999999999999
 21
169.828
 31
0.0
  0
LINE
  5
452
  8
0
 62
     7
 10
-8.3705999999999996
 20
168.65700000000001
 30
0.0
 11
-6.1588399999999996
 21
169.25
 31
0.0
  0
LINE
  5
453
  8
0
 62
     7
 10
-6.1588399999999996
 20
169.25
 30
0.0
 11
-8.3705999999999996
 21
169.84299999999999
 31
0.0
  0
LINE
  5
454
  8
0
 62
     7
 10
-8.3705999999999996
 20
169.84299999999999
 30
0.0
 11
-8.3705999999999996
 21
168.65700000000001
 31
0.0
  0
LINE
  5
455
  8
0
 62
     7
 10
-31.591699999999999
 20
169.24299999999999
 30
0.0
 11
-6.1588399999999996
 21
169.24299999999999
 31
0.0
  0
LINE
  5
456
  8
0
 62
     7
 10
-11.850199999999999
 20
160.53999999999999
 30
0.0
 11
4.0893499999999987
 21
160.53999999999999
 31
0.0
  0
LINE
  5
457
  8
0
 62
     7
 10
-15.891999999999999
 20
147.36699999999999
 30
0.0
 11
-15.571899999999999
 21
147.06999999999999
 31
0.0
  0
LINE
  5
458
  8
0
 62
     7
 10
78.251699999999985
 20
178.02000000000001
 30
0.0
 11
78.251699999999985
 21
195.62700000000001
 31
0.0
  0
LINE
  5
459
  8
0
  6
AIGENLINE001
 62
     7
 10
78.251699999999985
 20
255.12899999999999
 30
0.0
 11
78.251699999999985
 21
266.13600000000002
 31
0.0
  0
LINE
  5
45A
  8
0
  6
AIGENLINE001
 62
     7
 10
78.251699999999985
 20
104.071
 30
0.0
 11
78.251699999999985
 21
125.836
 31
0.0
  0
LINE
  5
45B
  8
0
  6
AIGENLINE001
 62
     7
 10
78.251699999999985
 20
131.435
 30
0.0
 11
78.251699999999985
 21
177.31999999999999
 31
0.0
  0
LINE
  5
45C
  8
0
  6
AIGENLINE001
 62
     7
 10
-31.6906
 20
41.7879
 30
0.0
 11
-31.6906
 21
143.23599999999999
 31
0.0
  0
LINE
  5
45D
  8
0
 62
     7
 10
-27.2912
 20
123.04000000000001
 30
0.0
 11
-27.2912
 21
138.34
 31
0.0
  0
LINE
  5
45E
  8
0
  6
AIGENLINE001
 62
     7
 10
-31.590699999999998
 20
212.202
 30
0.0
 11
-31.590699999999998
 21
267.678
 31
0.0
  0
LINE
  5
45F
  8
0
 62
     7
 10
33.255400000000002
 20
176.33699999999999
 30
0.0
 11
33.255400000000002
 21
195.62700000000001
 31
0.0
  0
LINE
  5
460
  8
0
 62
     7
 10
33.255400000000002
 20
163.999
 30
0.0
 11
33.255400000000002
 21
171.607
 31
0.0
  0
LINE
  5
461
  8
0
 62
     7
 10
-6.1588399999999996
 20
158.59700000000001
 30
0.0
 11
-6.1588399999999996
 21
169.9429999999999
 31
0.0
  0
LINE
  5
462
  8
0
  6
AIGENLINE001
 62
     7
 10
-31.590699999999998
 20
146.494
 30
0.0
 11
-31.590699999999998
 21
189.006
 31
0.0
  0
LINE
  5
463
  8
0
 62
     7
 10
-29.190799999999999
 20
149.19
 30
0.0
 11
-29.190799999999999
 21
185.44099999999989
 31
0.0
  0
LINE
  5
464
  8
0
 62
     7
 10
-29.190799999999999
 20
149.13999999999999
 30
0.0
 11
-29.190799999999999
 21
147.74000000000001
 31
0.0
  0
LINE
  5
465
  8
0
 62
     7
 10
-33.990600000000001
 20
149.19
 30
0.0
 11
-29.190799999999999
 21
149.19
 31
0.0
  0
LINE
  5
466
  8
0
 62
     7
 10
-33.990600000000001
 20
149.13999999999999
 30
0.0
 11
-29.190799999999999
 21
149.13999999999999
 31
0.0
  0
LINE
  5
467
  8
0
 62
     7
 10
-29.7806
 20
149.19
 30
0.0
 11
-29.7806
 21
149.13999999999999
 31
0.0
  0
LINE
  5
468
  8
0
  6
AIGENLINE001
 62
     7
 10
-11.2593
 20
143.03999999999999
 30
0.0
 11
-38.342399999999998
 21
143.03999999999999
 31
0.0
  0
LINE
  5
469
  8
0
 62
     7
 10
-35.078499999999998
 20
129.74799999999999
 30
0.0
 11
-37.290300000000002
 21
129.155
 31
0.0
  0
LINE
  5
46A
  8
0
 62
     7
 10
-37.290300000000002
 20
129.155
 30
0.0
 11
-35.078499999999998
 21
128.56200000000001
 31
0.0
  0
LINE
  5
46B
  8
0
 62
     7
 10
-35.078499999999998
 20
128.56200000000001
 30
0.0
 11
-35.078499999999998
 21
129.74799999999999
 31
0.0
  0
LINE
  5
46C
  8
0
 62
     7
 10
-29.479900000000001
 20
129.74000000000001
 30
0.0
 11
-31.691600000000001
 21
129.148
 31
0.0
  0
LINE
  5
46D
  8
0
 62
     7
 10
-31.691600000000001
 20
129.148
 30
0.0
 11
-29.479900000000001
 21
128.55500000000001
 31
0.0
  0
LINE
  5
46E
  8
0
 62
     7
 10
-29.479900000000001
 20
128.55500000000001
 30
0.0
 11
-29.479900000000001
 21
129.74000000000001
 31
0.0
  0
LINE
  5
46F
  8
0
 62
     7
 10
-33.903399999999998
 20
128.56999999999999
 30
0.0
 11
-31.691600000000001
 21
129.16200000000001
 31
0.0
  0
LINE
  5
470
  8
0
 62
     7
 10
-31.691600000000001
 20
129.16200000000001
 30
0.0
 11
-33.903399999999998
 21
129.755
 31
0.0
  0
LINE
  5
471
  8
0
 62
     7
 10
-33.903399999999998
 20
129.755
 30
0.0
 11
-33.903399999999998
 21
128.56999999999999
 31
0.0
  0
LINE
  5
472
  8
0
 62
     7
 10
-14.982799999999999
 20
128.56999999999999
 30
0.0
 11
-12.771000000000001
 21
129.16200000000001
 31
0.0
  0
LINE
  5
473
  8
0
 62
     7
 10
-12.771000000000001
 20
129.16200000000001
 30
0.0
 11
-14.982799999999999
 21
129.755
 31
0.0
  0
LINE
  5
474
  8
0
 62
     7
 10
-14.982799999999999
 20
129.755
 30
0.0
 11
-14.982799999999999
 21
128.56999999999999
 31
0.0
  0
LINE
  5
475
  8
0
 62
     7
 10
-41.909499999999987
 20
129.155
 30
0.0
 11
-12.7704
 21
129.155
 31
0.0
  0
LINE
  5
476
  8
0
 62
     7
 10
-10.5593
 20
143.03999999999999
 30
0.0
 11
-3.0985399999999998
 21
143.03999999999999
 31
0.0
  0
LINE
  5
477
  8
0
 62
     7
 10
-26.591100000000001
 20
123.04000000000001
 30
0.0
 11
4.0893499999999987
 21
123.04000000000001
 31
0.0
  0
LINE
  5
478
  8
0
  6
AIGENLINE001
 62
     7
 10
71.587800000000001
 20
143.03999999999999
 30
0.0
 11
84.498699999999999
 21
143.03999999999999
 31
0.0
  0
LINE
  5
479
  8
0
 62
     7
 10
-29.190799999999999
 20
147.74000000000001
 30
0.0
 11
-15.991899999999999
 21
147.74000000000001
 31
0.0
  0
LINE
  5
47A
  8
0
 62
     7
 10
-37.089799999999997
 20
147.74000000000001
 30
0.0
 11
-33.990600000000001
 21
147.74000000000001
 31
0.0
  0
LINE
  5
47B
  8
0
 62
     7
 10
-33.400399999999998
 20
149.19
 30
0.0
 11
-33.400399999999998
 21
149.13999999999999
 31
0.0
  0
LINE
  5
47C
  8
0
 62
     7
 10
-33.990600000000001
 20
149.19
 30
0.0
 11
-33.990600000000001
 21
185.44099999999989
 31
0.0
  0
LINE
  5
47D
  8
0
 62
     7
 10
-33.990600000000001
 20
149.13999999999999
 30
0.0
 11
-33.990600000000001
 21
147.74000000000001
 31
0.0
  0
LINE
  5
47E
  8
0
 62
     7
 10
-36.090400000000002
 20
123.04000000000001
 30
0.0
 11
-36.090400000000002
 21
138.34
 31
0.0
  0
LINE
  5
47F
  8
0
 62
     7
 10
-37.089799999999997
 20
138.34
 30
0.0
 11
-37.089799999999997
 21
147.74000000000001
 31
0.0
  0
LINE
  5
480
  8
0
 62
     7
 10
-37.290300000000002
 20
147.53999999999999
 30
0.0
 11
-37.290300000000002
 21
138.541
 31
0.0
  0
LINE
  5
481
  8
0
 62
     7
 10
-27.2912
 20
138.34
 30
0.0
 11
-15.991899999999999
 21
138.34
 31
0.0
  0
LINE
  5
482
  8
0
 62
     7
 10
-37.089799999999997
 20
138.34
 30
0.0
 11
-36.090400000000002
 21
138.34
 31
0.0
  0
LINE
  5
483
  8
0
 62
     7
 10
-36.090400000000002
 20
123.04000000000001
 30
0.0
 11
-27.2912
 21
123.04000000000001
 31
0.0
  0
TEXT
  5
484
  8
_________2
 62
     7
 10
200.4570586666666
 20
34.465299999999999
 30
0.0
 40
3.6545800000000002
  1
1 ： 5
 41
0.5
 72
     1
 11
203.86799999999999
 21
34.465299999999999
 31
0.0
  0
TEXT
  5
485
  8
_________2
 62
     7
 10
240.99494999999999
 20
30.3553
 30
0.0
 40
3.9357000000000002
  1
KW0231013T-700
 41
0.5
 72
     1
 11
253.458
 21
30.3553
 31
0.0
  0
TEXT
  5
486
  8
_________2
 62
     7
 10
149.3328003333333
 20
34.850499999999997
 30
0.0
 40
3.6545800000000002
  1
井田
 41
0.5
 72
     1
 11
151.221
 21
34.850499999999997
 31
0.0
  0
TEXT
  5
487
  8
_________2
 62
     7
 10
130.69789066666669
 20
34.850499999999997
 30
0.0
 40
3.6545800000000002
  1
恋塚
 41
0.5
 72
     1
 11
132.64699999999999
 21
34.850499999999997
 31
0.0
  0
TEXT
  5
488
  8
_________2
 62
     7
 10
177.69399999999999
 20
34.465299999999999
 30
0.0
 40
3.6545800000000002
  1
19.01.18
 41
0.5
  0
TEXT
  5
489
  8
_________2
 62
     7
 10
290.64778333333328
 20
12.808299999999999
 30
0.0
 40
3.3734599999999988
  1
A3
 41
0.5
 72
     2
 11
293.459
 21
12.808299999999999
 31
0.0
  0
TEXT
  5
48A
  8
_________2
 62
     7
 10
134.495
 20
21.954699999999999
 30
0.0
 40
3.9357000000000002
  1
（社）日本水道協会認証品
 41
0.5
  0
LINE
  5
48B
  8
_________2
 62
     7
 10
315.209
 20
148.65899999999999
 30
0.0
 11
293.459
 21
148.65899999999999
 31
0.0
  0
LINE
  5
48C
  8
_________2
 62
     7
 10
105.20699999999999
 20
17.156300000000002
 30
0.0
 11
105.20699999999999
 21
0.176045
 31
0.0
  0
LINE
  5
48D
  8
_________2
 62
     7
 10
105.20699999999999
 20
297.178
 30
0.0
 11
105.20699999999999
 21
280.15800000000002
 31
0.0
  0
LINE
  5
48E
  8
_________2
 62
     7
 10
-83.043899999999994
 20
148.65899999999999
 30
0.0
 11
-104.794
 21
148.65899999999999
 31
0.0
  0
LINE
  5
48F
  8
_________2
 62
     7
 10
186.649
 20
51.052199999999999
 30
0.0
 11
184.46299999999999
 21
51.052199999999999
 31
0.0
  0
LINE
  5
490
  8
_________2
 62
     7
 10
187.142
 20
51.052199999999999
 30
0.0
 11
186.88900000000001
 21
51.052199999999999
 31
0.0
  0
LINE
  5
491
  8
_________2
 62
     7
 10
187.63399999999999
 20
51.052199999999999
 30
0.0
 11
190.559
 21
51.052199999999999
 31
0.0
  0
LINE
  5
492
  8
_________2
 62
     7
 10
187.142
 20
51.052199999999999
 30
0.0
 11
187.39400000000001
 21
51.052199999999999
 31
0.0
  0
LINE
  5
493
  8
_________2
 62
     7
 10
180.745
 20
51.052199999999999
 30
0.0
 11
178.55799999999999
 21
51.052199999999999
 31
0.0
  0
LINE
  5
494
  8
_________2
 62
     7
 10
181.23699999999999
 20
51.052199999999999
 30
0.0
 11
180.98599999999999
 21
51.052199999999999
 31
0.0
  0
LINE
  5
495
  8
_________2
 62
     7
 10
181.23699999999999
 20
51.544800000000002
 30
0.0
 11
181.23699999999999
 21
53.7318
 31
0.0
  0
LINE
  5
496
  8
_________2
 62
     7
 10
181.23699999999999
 20
51.052199999999999
 30
0.0
 11
181.23699999999999
 21
51.304299999999998
 31
0.0
  0
LINE
  5
497
  8
_________2
 62
     7
 10
181.72999999999999
 20
51.052199999999999
 30
0.0
 11
183.917
 21
51.052199999999999
 31
0.0
  0
LINE
  5
498
  8
_________2
 62
     7
 10
181.23699999999999
 20
51.052199999999999
 30
0.0
 11
181.489
 21
51.052199999999999
 31
0.0
  0
LINE
  5
499
  8
_________2
 62
     7
 10
181.23699999999999
 20
50.560200000000002
 30
0.0
 11
181.23699999999999
 21
48.373199999999997
 31
0.0
  0
LINE
  5
49A
  8
_________2
 62
     7
 10
181.23699999999999
 20
51.052199999999999
 30
0.0
 11
181.23699999999999
 21
50.800699999999999
 31
0.0
  0
LINE
  5
49B
  8
_________2
 62
     7
 10
184.94799999999989
 20
49.832599999999999
 30
0.0
 11
190.12599999999989
 21
48.9679
 31
0.0
  0
LINE
  5
49C
  8
_________2
 62
     7
 10
184.94799999999989
 20
52.271700000000003
 30
0.0
 11
190.12599999999989
 21
53.137099999999997
 31
0.0
  0
LINE
  5
49D
  8
_________2
 62
     7
 10
190.12599999999989
 20
48.9679
 30
0.0
 11
190.12599999999989
 21
53.137099999999997
 31
0.0
  0
LINE
  5
49E
  8
_________2
 62
     7
 10
184.94799999999989
 20
49.832599999999999
 30
0.0
 11
184.94799999999989
 21
52.271700000000003
 31
0.0
  0
ARC
  5
49F
  8
_________2
 62
     7
 10
181.190651
 20
51.004810999999989
 30
0.0
 40
1.2677780000000001
 50
2.1403449999999991
 51
87.892005999999995
  0
ARC
  5
4A0
  8
_________2
 62
     7
 10
181.28420199999999
 20
51.005241999999988
 30
0.0
 40
1.2673579999999991
 50
92.121564999999975
 51
177.87840600000001
  0
ARC
  5
4A1
  8
_________2
 62
     7
 10
181.28381400000001
 20
51.098689
 30
0.0
 40
1.2669559999999991
 50
182.10473099999999
 51
267.89529900000002
  0
ARC
  5
4A2
  8
_________2
 62
     7
 10
181.19038399999999
 20
51.099775000000001
 30
0.0
 40
1.268054
 50
272.11960599999998
 51
357.84804300000002
  0
ARC
  5
4A3
  8
_________2
 62
     7
 10
181.23728399999999
 20
51.05215900000001
 30
0.0
 40
2.0849849999999992
 50
0.00001
 51
89.999980000000008
  0
ARC
  5
4A4
  8
_________2
 62
     7
 10
181.317331
 20
50.972827000000002
 30
0.0
 40
2.1657969999999991
 50
92.118111999999996
 51
177.90079600000001
  0
ARC
  5
4A5
  8
_________2
 62
     7
 10
181.31728799999999
 20
51.132162999999998
 30
0.0
 40
2.1657779999999991
 50
182.11700400000001
 51
267.88302499999998
  0
ARC
  5
4A6
  8
_________2
 62
     7
 10
181.15730300000001
 20
51.132855999999997
 30
0.0
 40
2.166469999999999
 50
272.115725
 51
357.86534699999999
  0
TEXT
  5
4A7
  8
_________2
 62
     7
 10
214.51300000000001
 20
22.9269
 30
0.0
 40
3.0923400000000001
  1
図番
 41
0.5
  0
LINE
  5
4A8
  8
_________2
 62
     7
 10
213.458
 20
27.156099999999999
 30
0.0
 11
293.459
 21
27.156099999999999
 31
0.0
  0
TEXT
  5
4A9
  8
_________2
 62
     7
 10
214.51300000000001
 20
32.926699999999997
 30
0.0
 40
3.0923400000000001
  1
品番
 41
0.5
  0
TEXT
  5
4AA
  8
_________2
 62
     7
 10
214.51300000000001
 20
53.0655
 30
0.0
 40
3.0923400000000001
  1
名称
 41
0.5
  0
TEXT
  5
4AB
  8
_________2
 62
     7
 10
201.75325833333329
 20
48.069400000000002
 30
0.0
 40
3.6545800000000002
  1
mm
 41
0.5
 72
     1
 11
203.27600000000001
 21
48.069400000000002
 31
0.0
  0
TEXT
  5
4AC
  8
_________2
 62
     7
 10
195.55099999999999
 20
53.0655
 30
0.0
 40
3.0923400000000001
  1
単位
 41
0.5
  0
TEXT
  5
4AD
  8
_________2
 62
     7
 10
195.55099999999999
 20
40.658200000000001
 30
0.0
 40
3.0923400000000001
  1
尺度
 41
0.5
  0
TEXT
  5
4AE
  8
_________2
 62
     7
 10
240.99494999999999
 20
20.354800000000001
 30
0.0
 40
3.9357000000000002
  1
KW0231013T-700
 41
0.5
 72
     1
 11
253.458
 21
20.354800000000001
 31
0.0
  0
TEXT
  5
4AF
  8
_________2
 62
     7
 10
129.49600000000001
 20
132.15600000000001
 30
0.0
 40
3.9357000000000002
  1
給水圧力
 41
0.5
  0
TEXT
  5
4B0
  8
_________2
 62
     7
 10
129.49600000000001
 20
139.91900000000001
 30
0.0
 40
3.9357000000000002
  1
用途
 41
0.5
  0
TEXT
  5
4B1
  8
_________2
 62
     7
 10
169.50999999999999
 20
139.91900000000001
 30
0.0
 40
3.9357000000000002
  1
一般住宅用（屋内用）
 41
0.5
  0
LINE
  5
4B2
  8
_________2
 62
     7
 10
145.64099999999999
 20
137.81100000000001
 30
0.0
 11
145.64099999999999
 21
116.474
 31
0.0
  0
LINE
  5
4B3
  8
_________2
 62
     7
 10
166.97200000000001
 20
145.57299999999989
 30
0.0
 11
166.97200000000001
 21
61.980800000000002
 31
0.0
  0
LINE
  5
4B4
  8
_________2
 62
     7
 10
290.16199999999998
 20
145.57299999999989
 30
0.0
 11
126.95699999999999
 21
145.57299999999989
 31
0.0
  0
LINE
  5
4B5
  8
_________2
 62
     7
 10
126.95699999999999
 20
145.57299999999989
 30
0.0
 11
126.95699999999999
 21
61.980800000000002
 31
0.0
  0
LINE
  5
4B6
  8
_________2
 62
     7
 10
126.95699999999999
 20
61.980800000000002
 30
0.0
 11
290.16199999999998
 21
61.980800000000002
 31
0.0
  0
LINE
  5
4B7
  8
_________2
 62
     7
 10
290.16199999999998
 20
61.980800000000002
 30
0.0
 11
290.16199999999998
 21
145.57299999999989
 31
0.0
  0
TEXT
  5
4B8
  8
_________2
 62
     7
 10
147.41499999999999
 20
132.15600000000001
 30
0.0
 40
3.9357000000000002
  1
最低必要水圧
 41
0.5
  0
TEXT
  5
4B9
  8
_________2
 62
     7
 10
169.50999999999999
 20
132.15600000000001
 30
0.0
 40
3.9357000000000002
  1
0.1MPa（流動圧）
 41
0.5
  0
LINE
  5
4BA
  8
_________2
 62
     7
 10
126.95699999999999
 20
137.81100000000001
 30
0.0
 11
290.16199999999998
 21
137.81100000000001
 31
0.0
  0
TEXT
  5
4BB
  8
_________2
 62
     7
 10
129.49600000000001
 20
110.819
 30
0.0
 40
3.9357000000000002
  1
使用可能水質
 41
0.5
  0
TEXT
  5
4BC
  8
_________2
 62
     7
 10
169.50999999999999
 20
110.819
 30
0.0
 40
3.9357000000000002
  1
水道水
 41
0.5
  0
LINE
  5
4BD
  8
_________2
 62
     7
 10
126.95699999999999
 20
116.474
 30
0.0
 11
290.16199999999998
 21
116.474
 31
0.0
  0
TEXT
  5
4BE
  8
_________2
 62
     7
 10
147.41499999999999
 20
124.53400000000001
 30
0.0
 40
3.9357000000000002
  1
最高水圧
 41
0.5
  0
TEXT
  5
4BF
  8
_________2
 62
     7
 10
169.50999999999999
 20
118.602
 30
0.0
 40
3.9357000000000002
  1
※快適にお使いいただくためには、0.3MPa程度の圧力をおすすめします。
 41
0.5
  0
TEXT
  5
4C0
  8
_________2
 62
     7
 10
169.50999999999999
 20
124.53400000000001
 30
0.0
 40
3.9357000000000002
  1
0.5MPa（流動圧）
 41
0.5
  0
LINE
  5
4C1
  8
_________2
 62
     7
 10
145.64099999999999
 20
130.048
 30
0.0
 11
290.16199999999998
 21
130.048
 31
0.0
  0
TEXT
  5
4C2
  8
_________2
 62
     7
 10
129.49600000000001
 20
103.197
 30
0.0
 40
3.9357000000000002
  1
使用環境温度
 41
0.5
  0
TEXT
  5
4C3
  8
_________2
 62
     7
 10
129.49600000000001
 20
89.623299999999986
 30
0.0
 40
3.9357000000000002
  1
最高給湯温度
 41
0.5
  0
TEXT
  5
4C4
  8
_________2
 62
     7
 10
129.49600000000001
 20
75.920699999999997
 30
0.0
 40
3.9357000000000002
  1
特記事項
 41
0.5
  0
TEXT
  5
4C5
  8
_________2
 62
     7
 10
169.50999999999999
 20
103.197
 30
0.0
 40
3.9357000000000002
  1
1～40℃
 41
0.5
  0
TEXT
  5
4C6
  8
_________2
 62
     7
 10
169.50999999999999
 20
98.277799999999999
 30
0.0
 40
3.9357000000000002
  1
※寒冷地仕様ではありません、凍結が予想される場合は凍結予防をしてください。
 41
0.5
  0
LINE
  5
4C7
  8
_________2
 62
     7
 10
126.95699999999999
 20
108.711
 30
0.0
 11
290.16199999999998
 21
108.711
 31
0.0
  0
TEXT
  5
4C8
  8
_________2
 62
     7
 10
169.50999999999999
 20
89.623299999999986
 30
0.0
 40
3.9357000000000002
  1
70℃
 41
0.5
  0
TEXT
  5
4C9
  8
_________2
 62
     7
 10
169.50999999999999
 20
84.703699999999998
 30
0.0
 40
3.9357000000000002
  1
※安全のため給湯温度は60℃以下でのご使用をおすすめします。
 41
0.5
  0
TEXT
  5
4CA
  8
_________2
 62
     7
 10
169.50999999999999
 20
75.920699999999997
 30
0.0
 40
3.9357000000000002
  1
（1）水圧は湯水ほぼ同圧、且つ湯圧が水圧より高くならないように設定してください。
 41
0.5
  0
TEXT
  5
4CB
  8
_________2
 62
     7
 10
169.50999999999999
 20
71.001099999999994
 30
0.0
 40
3.9357000000000002
  1
（2）湯水を逆に配管しないでください。
 41
0.5
  0
TEXT
  5
4CC
  8
_________2
 62
     7
 10
169.50999999999999
 20
66.081500000000005
 30
0.0
 40
3.9357000000000002
  1
（3）フレキホース寸法公差\U+00B120。
 41
0.5
  0
TEXT
  5
4CD
  8
_________2
 62
     7
 10
219.08699999999999
 20
45.473100000000002
 30
0.0
 40
3.9357000000000002
  1
リベロ キッチン用湯水混合水栓
 41
0.5
  0
TEXT
  5
4CE
  8
_________2
 62
     7
 10
176.501
 20
40.658200000000001
 30
0.0
 40
3.0923400000000001
  1
日付
 41
0.5
  0
TEXT
  5
4CF
  8
_________2
 62
     7
 10
139.547
 20
40.658200000000001
 30
0.0
 40
3.0923400000000001
  1
検図
 41
0.5
  0
TEXT
  5
4D0
  8
_________2
 62
     7
 10
127.929
 20
26.4588
 30
0.0
 40
3.0923400000000001
  1
備考
 41
0.5
  0
TEXT
  5
4D1
  8
_________2
 62
     7
 10
127.929
 20
40.658200000000001
 30
0.0
 40
3.0923400000000001
  1
製図
 41
0.5
  0
TEXT
  5
4D2
  8
_________2
 62
     7
 10
133.69596533333331
 20
49.184199999999997
 30
0.0
 40
4.4979399999999989
  1
セラトレーディング株式会社
 41
0.5
 72
     1
 11
151.08799999999999
 21
49.184199999999997
 31
0.0
  0
LINE
  5
4D3
  8
_________2
 62
     7
 10
293.459
 20
17.156300000000002
 30
0.0
 11
-83.043899999999994
 21
17.156300000000002
 31
0.0
  0
LINE
  5
4D4
  8
_________2
 62
     7
 10
-83.043899999999994
 20
17.156300000000002
 30
0.0
 11
-83.043899999999994
 21
280.15800000000002
 31
0.0
  0
LINE
  5
4D5
  8
_________2
 62
     7
 10
-83.043899999999994
 20
280.15800000000002
 30
0.0
 11
293.459
 21
280.15800000000002
 31
0.0
  0
LINE
  5
4D6
  8
_________2
 62
     7
 10
293.459
 20
280.15800000000002
 30
0.0
 11
293.459
 21
17.156300000000002
 31
0.0
  0
LINE
  5
4D7
  8
_________2
 62
     7
 10
175.458
 20
30.656400000000001
 30
0.0
 11
175.458
 21
57.156199999999998
 31
0.0
  0
LINE
  5
4D8
  8
_________2
 62
     7
 10
194.458
 20
30.656400000000001
 30
0.0
 11
194.458
 21
57.156199999999998
 31
0.0
  0
LINE
  5
4D9
  8
_________2
 62
     7
 10
126.95699999999999
 20
17.156300000000002
 30
0.0
 11
126.95699999999999
 21
57.156199999999998
 31
0.0
  0
LINE
  5
4DA
  8
_________2
 62
     7
 10
213.458
 20
17.156300000000002
 30
0.0
 11
213.458
 21
57.156199999999998
 31
0.0
  0
LINE
  5
4DB
  8
_________2
 62
     7
 10
138.45699999999999
 20
30.656400000000001
 30
0.0
 11
138.45699999999999
 21
44.65659999999999
 31
0.0
  0
LINE
  5
4DC
  8
_________2
 62
     7
 10
126.95699999999999
 20
30.656400000000001
 30
0.0
 11
213.458
 21
30.656400000000001
 31
0.0
  0
LINE
  5
4DD
  8
_________2
 62
     7
 10
126.95699999999999
 20
44.65659999999999
 30
0.0
 11
213.458
 21
44.65659999999999
 31
0.0
  0
LINE
  5
4DE
  8
_________2
 62
     7
 10
213.458
 20
37.15590000000001
 30
0.0
 11
293.459
 21
37.15590000000001
 31
0.0
  0
LINE
  5
4DF
  8
_________2
 62
     7
 10
126.95699999999999
 20
95.137299999999996
 30
0.0
 11
290.16199999999998
 21
95.137299999999996
 31
0.0
  0
LINE
  5
4E0
  8
_________2
 62
     7
 10
126.95699999999999
 20
81.563199999999995
 30
0.0
 11
290.16199999999998
 21
81.563199999999995
 31
0.0
  0
LINE
  5
4E1
  8
_________2
 62
     7
 10
126.95699999999999
 20
57.156199999999998
 30
0.0
 11
293.459
 21
57.156199999999998
 31
0.0
  0
ENDSEC
  0
EOF
