  0
SECTION
  2
HEADER
  9
$ACADVER
  1
AC1009
  9
$INSBASE
 10
0.0
 20
0.0
 30
0.0
  9
$EXTMIN
 10
-4.7012099999999988
 20
-21.071000000000002
 30
0.0
  9
$EXTMAX
 10
205.30099999999999
 20
275.93099999999998
 30
0.0
  9
$LIMMIN
 10
0.0
 20
0.0
  9
$LIMMAX
 10
12.0
 20
9.0
  9
$ORTHOMODE
 70
     0
  9
$REGENMODE
 70
     1
  9
$FILLMODE
 70
     1
  9
$QTEXTMODE
 70
     0
  9
$MIRRTEXT
 70
     1
  9
$DRAGMODE
 70
     2
  9
$LTSCALE
 40
1.0
  9
$OSMODE
 70
    37
  9
$ATTMODE
 70
     1
  9
$TEXTSIZE
 40
0.0
  9
$TRACEWID
 40
0.05
  9
$TEXTSTYLE
  7
STANDARD
  9
$CLAYER
  8
0
  9
$CELTYPE
  6
CONTINUOUS
  9
$CECOLOR
 62
   256
  9
$DIMSCALE
 40
1.0
  9
$DIMASZ
 40
0.18
  9
$DIMEXO
 40
0.0625
  9
$DIMDLI
 40
0.38
  9
$DIMRND
 40
0.0
  9
$DIMDLE
 40
0.0
  9
$DIMEXE
 40
0.18
  9
$DIMTP
 40
0.0
  9
$DIMTM
 40
0.0
  9
$DIMTXT
 40
0.18
  9
$DIMCEN
 40
0.09
  9
$DIMTSZ
 40
0.0
  9
$DIMTOL
 70
     0
  9
$DIMLIM
 70
     0
  9
$DIMTIH
 70
     1
  9
$DIMTOH
 70
     1
  9
$DIMSE1
 70
     0
  9
$DIMSE2
 70
     0
  9
$DIMTAD
 70
     0
  9
$DIMZIN
 70
     0
  9
$DIMBLK
  1

  9
$DIMASO
 70
     1
  9
$DIMSHO
 70
     1
  9
$DIMPOST
  1

  9
$DIMAPOST
  1

  9
$DIMALT
 70
     0
  9
$DIMALTD
 70
     2
  9
$DIMALTF
 40
25.399999999999999
  9
$DIMLFAC
 40
1.0
  9
$DIMTOFL
 70
     0
  9
$DIMTVP
 40
0.0
  9
$DIMTIX
 70
     0
  9
$DIMSOXD
 70
     0
  9
$DIMSAH
 70
     0
  9
$DIMBLK1
  1

  9
$DIMBLK2
  1

  9
$DIMSTYLE
  2
STANDARD
  9
$DIMCLRD
 70
     0
  9
$DIMCLRE
 70
     0
  9
$DIMCLRT
 70
     0
  9
$DIMTFAC
 40
1.0
  9
$DIMGAP
 40
0.09
  9
$LUNITS
 70
     2
  9
$LUPREC
 70
     4
  9
$SKETCHINC
 40
0.1
  9
$FILLETRAD
 40
0.0
  9
$AUNITS
 70
     0
  9
$AUPREC
 70
     0
  9
$MENU
  1
.
  9
$ELEVATION
 40
0.0
  9
$PELEVATION
 40
0.0
  9
$THICKNESS
 40
0.0
  9
$LIMCHECK
 70
     0
  9
$BLIPMODE
 70
     0
  9
$CHAMFERA
 40
0.0
  9
$CHAMFERB
 40
0.0
  9
$SKPOLY
 70
     0
  9
$TDCREATE
 40
2444972.375
  9
$TDUPDATE
 40
2457850.255178669
  9
$TDINDWG
 40
0.0000338426
  9
$TDUSRTIMER
 40
0.0000338426
  9
$USRTIMER
 70
     1
  9
$ANGBASE
 50
0.0
  9
$ANGDIR
 70
     0
  9
$PDMODE
 70
     0
  9
$PDSIZE
 40
0.0
  9
$PLINEWID
 40
0.0
  9
$COORDS
 70
     1
  9
$SPLFRAME
 70
     0
  9
$SPLINETYPE
 70
     6
  9
$SPLINESEGS
 70
     8
  9
$ATTDIA
 70
     1
  9
$ATTREQ
 70
     1
  9
$HANDLING
 70
     1
  9
$HANDSEED
  5
9E4
  9
$SURFTAB1
 70
     6
  9
$SURFTAB2
 70
     6
  9
$SURFTYPE
 70
     6
  9
$SURFU
 70
     6
  9
$SURFV
 70
     6
  9
$UCSNAME
  2

  9
$UCSORG
 10
0.0
 20
0.0
 30
0.0
  9
$UCSXDIR
 10
1.0
 20
0.0
 30
0.0
  9
$UCSYDIR
 10
0.0
 20
1.0
 30
0.0
  9
$PUCSNAME
  2

  9
$PUCSORG
 10
0.0
 20
0.0
 30
0.0
  9
$PUCSXDIR
 10
1.0
 20
0.0
 30
0.0
  9
$PUCSYDIR
 10
0.0
 20
1.0
 30
0.0
  9
$USERI1
 70
     0
  9
$USERI2
 70
     0
  9
$USERI3
 70
     0
  9
$USERI4
 70
     0
  9
$USERI5
 70
     0
  9
$USERR1
 40
0.0
  9
$USERR2
 40
0.0
  9
$USERR3
 40
0.0
  9
$USERR4
 40
0.0
  9
$USERR5
 40
0.0
  9
$WORLDVIEW
 70
     1
  9
$SHADEDGE
 70
     3
  9
$SHADEDIF
 70
    70
  9
$TILEMODE
 70
     1
  9
$MAXACTVP
 70
    48
  9
$PLIMCHECK
 70
     0
  9
$PEXTMIN
 10
1.0000000000000000E+020
 20
1.0000000000000000E+020
 30
1.0000000000000000E+020
  9
$PEXTMAX
 10
-1.0000000000000000E+020
 20
-1.0000000000000000E+020
 30
-1.0000000000000000E+020
  9
$PLIMMIN
 10
0.0
 20
0.0
  9
$PLIMMAX
 10
12.0
 20
9.0
  9
$UNITMODE
 70
     0
  9
$VISRETAIN
 70
     1
  9
$PLINEGEN
 70
     0
  9
$PSLTSCALE
 70
     1
  0
ENDSEC
  0
SECTION
  2
TABLES
  0
TABLE
  2
VPORT
 70
     1
  0
VPORT
  2
*ACTIVE
 70
     0
 10
0.0
 20
0.0
 11
1.0
 21
1.0
 12
173.05850873675899
 22
127.42999999999989
 13
0.0
 23
0.0
 14
1.0
 24
1.0
 15
0.0
 25
0.0
 16
0.0
 26
0.0
 36
1.0
 17
0.0
 27
0.0
 37
0.0
 40
289.64129411868203
 41
2.1063583815028899
 42
50.0
 43
0.0
 44
0.0
 50
0.0
 51
0.0
 71
     0
 72
   100
 73
     1
 74
     1
 75
     0
 76
     0
 77
     0
 78
     0
  0
ENDTAB
  0
TABLE
  2
LTYPE
 70
     3
  0
LTYPE
  2
CONTINUOUS
 70
     0
  3
Solid line
 72
    65
 73
     0
 40
0.0
  0
LTYPE
  2
AIGENLINE001
 70
     0
  3
generate AI->DXF Converter
 72
    65
 73
     4
 40
5.8561449999999988
 49
3.5278
 49
-0.776115
 49
0.776115
 49
-0.776115
  0
LTYPE
  2
AIGENLINE002
 70
     0
  3
generate AI->DXF Converter
 72
    65
 73
     6
 40
7.4083750000000004
 49
3.5278
 49
-0.776115
 49
0.776115
 49
-0.776115
 49
0.776115
 49
-0.776115
  0
ENDTAB
  0
TABLE
  2
LAYER
 70
     4
  0
LAYER
  2
0
 70
     0
 62
     7
  6
CONTINUOUS
  0
LAYER
  2
____
 70
     0
 62
     7
  6
CONTINUOUS
  0
LAYER
  2
_________1
 70
     0
 62
     7
  6
CONTINUOUS
  0
LAYER
  2
_________2
 70
     0
 62
     7
  6
CONTINUOUS
  0
ENDTAB
  0
TABLE
  2
STYLE
 70
     1
  0
STYLE
  2
STANDARD
 70
     0
 40
0.0
 41
0.0
 50
0.0
 71
     0
 42
0.0
  3
TXT
  4
EXTFONT.SHX
  0
ENDTAB
  0
TABLE
  2
VIEW
 70
     0
  0
ENDTAB
  0
TABLE
  2
UCS
 70
     0
  0
ENDTAB
  0
TABLE
  2
APPID
 70
     3
  0
APPID
  2
ACAD
 70
     0
  0
APPID
  2
ACAD_NAV_VCDISPLAY
 70
     0
  0
APPID
  2
ACAD_MLEADERVER
 70
     0
  0
ENDTAB
  0
TABLE
  2
DIMSTYLE
 70
     1
  0
DIMSTYLE
  2
STANDARD
 70
     0
  3

  4

  5

  6

  7

 40
1.0
 41
0.18
 42
0.0625
 43
0.38
 44
0.18
 45
0.0
 46
0.0
 47
0.0
 48
0.0
140
0.18
141
0.09
142
0.0
143
25.399999999999999
144
1.0
145
0.0
146
1.0
147
0.09
 71
     0
 72
     0
 73
     1
 74
     1
 75
     0
 76
     0
 77
     0
 78
     0
170
     0
171
     2
172
     0
173
     0
174
     0
175
     0
176
     0
177
     0
178
     0
  0
ENDTAB
  0
ENDSEC
  0
SECTION
  2
BLOCKS
  0
BLOCK
  8
0
  2
$MODEL_SPACE
 70
     0
 10
0.0
 20
0.0
 30
0.0
  3
$MODEL_SPACE
  1

  0
ENDBLK
  5
1A
  8
0
  0
BLOCK
 67
     1
  8
0
  2
$PAPER_SPACE
 70
     0
 10
0.0
 20
0.0
 30
0.0
  3
$PAPER_SPACE
  1

  0
ENDBLK
  5
17
 67
     1
  8
0
  0
BLOCK
  8
_________1
  2
AIGNBL02020005
 70
     0
 10
0.0
 20
0.0
 30
0.0
  3
AIGNBL02020005
  1

  0
LINE
  5
27
  8
_________1
 62
     7
 10
152.79900000000001
 20
176.99799999999999
 30
0.0
 11
155.00999999999999
 21
177.59
 31
0.0
  0
LINE
  5
28
  8
_________1
 62
     7
 10
155.00999999999999
 20
177.59
 30
0.0
 11
152.79900000000001
 21
178.18299999999999
 31
0.0
  0
LINE
  5
29
  8
_________1
 62
     7
 10
152.79900000000001
 20
178.18299999999999
 30
0.0
 11
152.79900000000001
 21
176.99799999999999
 31
0.0
  0
LINE
  5
2A
  8
_________1
 62
     7
 10
162.02199999999999
 20
178.18299999999999
 30
0.0
 11
159.81
 21
177.59
 31
0.0
  0
LINE
  5
2B
  8
_________1
 62
     7
 10
159.81
 20
177.59
 30
0.0
 11
162.02199999999999
 21
176.99799999999999
 31
0.0
  0
LINE
  5
2C
  8
_________1
 62
     7
 10
162.02199999999999
 20
176.99799999999999
 30
0.0
 11
162.02199999999999
 21
178.18299999999999
 31
0.0
  0
LINE
  5
2D
  8
_________1
 62
     7
 10
167.63900000000001
 20
177.59
 30
0.0
 11
150.95400000000001
 21
177.59
 31
0.0
  0
ENDBLK
  5
2E
  8
_________1
  0
BLOCK
  8
_________1
  2
AIGNBL02020007
 70
     0
 10
0.0
 20
0.0
 30
0.0
  3
AIGNBL02020007
  1

  0
LINE
  5
31
  8
_________1
 62
     7
 10
159.59800000000001
 20
134.517
 30
0.0
 11
161.81
 21
135.10900000000001
 31
0.0
  0
LINE
  5
32
  8
_________1
 62
     7
 10
161.81
 20
135.10900000000001
 30
0.0
 11
159.59800000000001
 21
135.702
 31
0.0
  0
LINE
  5
33
  8
_________1
 62
     7
 10
159.59800000000001
 20
135.702
 30
0.0
 11
159.59800000000001
 21
134.517
 31
0.0
  0
LINE
  5
34
  8
_________1
 62
     7
 10
155.21799999999999
 20
135.68700000000001
 30
0.0
 11
153.00700000000001
 21
135.095
 31
0.0
  0
LINE
  5
35
  8
_________1
 62
     7
 10
153.00700000000001
 20
135.095
 30
0.0
 11
155.21799999999999
 21
134.50200000000001
 31
0.0
  0
LINE
  5
36
  8
_________1
 62
     7
 10
155.21799999999999
 20
134.50200000000001
 30
0.0
 11
155.21799999999999
 21
135.68700000000001
 31
0.0
  0
LINE
  5
37
  8
_________1
 62
     7
 10
161.80799999999999
 20
135.102
 30
0.0
 11
153.00800000000001
 21
135.102
 31
0.0
  0
ENDBLK
  5
38
  8
_________1
  0
BLOCK
  8
_________1
  2
AIGNBL02020009
 70
     0
 10
0.0
 20
0.0
 30
0.0
  3
AIGNBL02020009
  1

  0
LINE
  5
3B
  8
_________1
 62
     7
 10
143.10900000000001
 20
129.23500000000001
 30
0.0
 11
142.51599999999999
 21
131.447
 31
0.0
  0
LINE
  5
3C
  8
_________1
 62
     7
 10
142.51599999999999
 20
131.447
 30
0.0
 11
141.92400000000001
 21
129.23500000000001
 31
0.0
  0
LINE
  5
3D
  8
_________1
 62
     7
 10
141.92400000000001
 20
129.23500000000001
 30
0.0
 11
143.10900000000001
 21
129.23500000000001
 31
0.0
  0
LINE
  5
3E
  8
_________1
 62
     7
 10
141.93799999999999
 20
119.459
 30
0.0
 11
142.53100000000001
 21
117.247
 31
0.0
  0
LINE
  5
3F
  8
_________1
 62
     7
 10
142.53100000000001
 20
117.247
 30
0.0
 11
143.12299999999999
 21
119.459
 31
0.0
  0
LINE
  5
40
  8
_________1
 62
     7
 10
143.12299999999999
 20
119.459
 30
0.0
 11
141.93799999999999
 21
119.459
 31
0.0
  0
LINE
  5
41
  8
_________1
 62
     7
 10
142.51599999999999
 20
131.447
 30
0.0
 11
142.51599999999999
 21
117.247
 31
0.0
  0
ENDBLK
  5
42
  8
_________1
  0
BLOCK
  8
_________1
  2
AIGNBL02020017
 70
     0
 10
0.0
 20
0.0
 30
0.0
  3
AIGNBL02020017
  1

  0
LINE
  5
45
  8
_________1
 62
     7
 10
38.148000000000003
 20
57.117600000000003
 30
0.0
 11
35.937600000000003
 21
56.525399999999998
 31
0.0
  0
LINE
  5
46
  8
_________1
 62
     7
 10
35.937600000000003
 20
56.525399999999998
 30
0.0
 11
38.148000000000003
 21
55.933199999999999
 31
0.0
  0
LINE
  5
47
  8
_________1
 62
     7
 10
38.148000000000003
 20
55.933199999999999
 30
0.0
 11
38.148000000000003
 21
57.117600000000003
 31
0.0
  0
LINE
  5
48
  8
_________1
 62
     7
 10
30.379200000000001
 20
55.933199999999999
 30
0.0
 11
32.589599999999997
 21
56.525399999999998
 31
0.0
  0
LINE
  5
49
  8
_________1
 62
     7
 10
32.589599999999997
 20
56.525399999999998
 30
0.0
 11
30.379200000000001
 21
57.117600000000003
 31
0.0
  0
LINE
  5
4A
  8
_________1
 62
     7
 10
30.379200000000001
 20
57.117600000000003
 30
0.0
 11
30.379200000000001
 21
55.933199999999999
 31
0.0
  0
LINE
  5
4B
  8
_________1
 62
     7
 10
23.592300000000002
 20
56.525399999999998
 30
0.0
 11
38.854199999999999
 21
56.525399999999998
 31
0.0
  0
ENDBLK
  5
4C
  8
_________1
  0
BLOCK
  8
_________1
  2
AIGNBL02020035
 70
     0
 10
0.0
 20
0.0
 30
0.0
  3
AIGNBL02020035
  1

  0
LINE
  5
4F
  8
_________1
 62
     7
 10
111.983
 20
200.06
 30
0.0
 11
109.76000000000001
 21
199.506
 31
0.0
  0
LINE
  5
50
  8
_________1
 62
     7
 10
109.76000000000001
 20
199.506
 30
0.0
 11
111.962
 21
198.875
 31
0.0
  0
LINE
  5
51
  8
_________1
 62
     7
 10
111.962
 20
198.875
 30
0.0
 11
111.983
 21
200.06
 31
0.0
  0
LINE
  5
52
  8
_________1
 62
     7
 10
109.76000000000001
 20
199.506
 30
0.0
 11
123.693
 21
199.26300000000001
 31
0.0
  0
ENDBLK
  5
53
  8
_________1
  0
BLOCK
  8
____
  2
AIGNBL01010002
 70
     0
 10
0.0
 20
0.0
 30
0.0
  3
AIGNBL01010002
  1

  0
TEXT
  5
56
  8
____
 62
     7
 10
57.346207499999998
 20
226.05500000000001
 30
0.0
 40
3.0923400000000001
  1
スパウト回転360%%d
 41
0.5
 72
     1
 11
65.463599999999985
 21
226.05500000000001
 31
0.0
  0
ENDBLK
  5
57
  8
____
  0
BLOCK
  8
_________1
  2
AIGNBL02010002
 70
     0
 10
0.0
 20
0.0
 30
0.0
  3
AIGNBL02010002
  1

  0
LINE
  5
5A
  8
_________1
 62
     7
 10
168.09
 20
166.477
 30
0.0
 11
170.172
 21
165.52500000000001
 31
0.0
  0
LINE
  5
5B
  8
_________1
 62
     7
 10
170.172
 20
165.52500000000001
 30
0.0
 11
168.84399999999999
 21
167.38999999999999
 31
0.0
  0
LINE
  5
5C
  8
_________1
 62
     7
 10
168.84399999999999
 20
167.38999999999999
 30
0.0
 11
168.09
 21
166.477
 31
0.0
  0
LINE
  5
5D
  8
_________1
 62
     7
 10
154.63399999999999
 20
170.88200000000001
 30
0.0
 11
152.59899999999999
 21
169.834
 31
0.0
  0
LINE
  5
5E
  8
_________1
 62
     7
 10
152.59899999999999
 20
169.834
 30
0.0
 11
154.886
 21
169.72399999999999
 31
0.0
  0
LINE
  5
5F
  8
_________1
 62
     7
 10
154.886
 20
169.72399999999999
 30
0.0
 11
154.63399999999999
 21
170.88200000000001
 31
0.0
  0
ENDBLK
  5
60
  8
_________1
  0
BLOCK
  8
_________1
  2
AIGNBL02010003
 70
     0
 10
0.0
 20
0.0
 30
0.0
  3
AIGNBL02010003
  1

  0
LINE
  5
63
  8
_________1
 62
     7
 10
150.66800000000001
 20
168.602
 30
0.0
 11
152.59899999999999
 21
169.834
 31
0.0
  0
LINE
  5
64
  8
_________1
 62
     7
 10
152.59899999999999
 20
169.834
 30
0.0
 11
150.31100000000001
 21
169.732
 31
0.0
  0
LINE
  5
65
  8
_________1
 62
     7
 10
150.31100000000001
 20
169.732
 30
0.0
 11
150.66800000000001
 21
168.602
 31
0.0
  0
LINE
  5
66
  8
_________1
 62
     7
 10
139.631
 20
159.74799999999999
 30
0.0
 11
139.38399999999999
 21
157.47200000000001
 31
0.0
  0
LINE
  5
67
  8
_________1
 62
     7
 10
139.38399999999999
 20
157.47200000000001
 30
0.0
 11
140.73500000000001
 21
159.31999999999999
 31
0.0
  0
LINE
  5
68
  8
_________1
 62
     7
 10
140.73500000000001
 20
159.31999999999999
 30
0.0
 11
139.631
 21
159.74799999999999
 31
0.0
  0
ENDBLK
  5
69
  8
_________1
  0
BLOCK
  8
_________1
  2
AIGNBL02010004
 70
     0
 10
0.0
 20
0.0
 30
0.0
  3
AIGNBL02010004
  1

  0
INSERT
  5
6C
  8
_________1
 62
     7
  2
AIGNBL02020005
 10
0.0
 20
0.0
 30
0.0
  0
ENDBLK
  5
6D
  8
_________1
  0
BLOCK
  8
_________1
  2
AIGNBL02010006
 70
     0
 10
0.0
 20
0.0
 30
0.0
  3
AIGNBL02010006
  1

  0
INSERT
  5
70
  8
_________1
 62
     7
  2
AIGNBL02020007
 10
0.0
 20
0.0
 30
0.0
  0
ENDBLK
  5
71
  8
_________1
  0
BLOCK
  8
_________1
  2
AIGNBL02010008
 70
     0
 10
0.0
 20
0.0
 30
0.0
  3
AIGNBL02010008
  1

  0
INSERT
  5
74
  8
_________1
 62
     7
  2
AIGNBL02020009
 10
0.0
 20
0.0
 30
0.0
  0
ENDBLK
  5
75
  8
_________1
  0
BLOCK
  8
_________1
  2
AIGNBL0201000A
 70
     0
 10
0.0
 20
0.0
 30
0.0
  3
AIGNBL0201000A
  1

  0
LINE
  5
78
  8
_________1
 62
     7
 10
155.19900000000001
 20
206.428
 30
0.0
 11
157.40899999999999
 21
207.02000000000001
 31
0.0
  0
LINE
  5
79
  8
_________1
 62
     7
 10
157.40899999999999
 20
207.02000000000001
 30
0.0
 11
155.19900000000001
 21
207.61199999999999
 31
0.0
  0
LINE
  5
7A
  8
_________1
 62
     7
 10
155.19900000000001
 20
207.61199999999999
 30
0.0
 11
155.19900000000001
 21
206.428
 31
0.0
  0
LINE
  5
7B
  8
_________1
 62
     7
 10
110.913
 20
207.59800000000001
 30
0.0
 11
108.702
 21
207.006
 31
0.0
  0
LINE
  5
7C
  8
_________1
 62
     7
 10
108.702
 20
207.006
 30
0.0
 11
110.913
 21
206.41300000000001
 31
0.0
  0
LINE
  5
7D
  8
_________1
 62
     7
 10
110.913
 20
206.41300000000001
 30
0.0
 11
110.913
 21
207.59800000000001
 31
0.0
  0
LINE
  5
7E
  8
_________1
 62
     7
 10
157.40899999999999
 20
207.01300000000001
 30
0.0
 11
108.702
 21
207.01300000000001
 31
0.0
  0
ENDBLK
  5
7F
  8
_________1
  0
BLOCK
  8
_________1
  2
AIGNBL0201000B
 70
     0
 10
0.0
 20
0.0
 30
0.0
  3
AIGNBL0201000B
  1

  0
LINE
  5
82
  8
_________1
 62
     7
 10
155.19800000000001
 20
181.05600000000001
 30
0.0
 11
157.40899999999999
 21
181.648
 31
0.0
  0
LINE
  5
83
  8
_________1
 62
     7
 10
157.40899999999999
 20
181.648
 30
0.0
 11
155.19800000000001
 21
182.2409999999999
 31
0.0
  0
LINE
  5
84
  8
_________1
 62
     7
 10
155.19800000000001
 20
182.2409999999999
 30
0.0
 11
155.19800000000001
 21
181.05600000000001
 31
0.0
  0
LINE
  5
85
  8
_________1
 62
     7
 10
114.21899999999999
 20
182.226
 30
0.0
 11
112.008
 21
181.63399999999999
 31
0.0
  0
LINE
  5
86
  8
_________1
 62
     7
 10
112.008
 20
181.63399999999999
 30
0.0
 11
114.21899999999999
 21
181.041
 31
0.0
  0
LINE
  5
87
  8
_________1
 62
     7
 10
114.21899999999999
 20
181.041
 30
0.0
 11
114.21899999999999
 21
182.226
 31
0.0
  0
LINE
  5
88
  8
_________1
 62
     7
 10
157.40899999999999
 20
181.64099999999999
 30
0.0
 11
112.008
 21
181.64099999999999
 31
0.0
  0
ENDBLK
  5
89
  8
_________1
  0
BLOCK
  8
_________1
  2
AIGNBL0201000C
 70
     0
 10
0.0
 20
0.0
 30
0.0
  3
AIGNBL0201000C
  1

  0
LINE
  5
8C
  8
_________1
 62
     7
 10
96.138900000000007
 20
133.65799999999999
 30
0.0
 11
96.731499999999997
 21
131.447
 31
0.0
  0
LINE
  5
8D
  8
_________1
 62
     7
 10
96.731499999999997
 20
131.447
 30
0.0
 11
97.323400000000007
 21
133.65799999999999
 31
0.0
  0
LINE
  5
8E
  8
_________1
 62
     7
 10
97.323400000000007
 20
133.65799999999999
 30
0.0
 11
96.138900000000007
 21
133.65799999999999
 31
0.0
  0
LINE
  5
8F
  8
_________1
 62
     7
 10
97.308899999999994
 20
194.44399999999999
 30
0.0
 11
96.717000000000013
 21
196.655
 31
0.0
  0
LINE
  5
90
  8
_________1
 62
     7
 10
96.717000000000013
 20
196.655
 30
0.0
 11
96.124499999999998
 21
194.44399999999999
 31
0.0
  0
LINE
  5
91
  8
_________1
 62
     7
 10
96.124499999999998
 20
194.44399999999999
 30
0.0
 11
97.308899999999994
 21
194.44399999999999
 31
0.0
  0
LINE
  5
92
  8
_________1
 62
     7
 10
96.7239
 20
131.447
 30
0.0
 11
96.7239
 21
196.648
 31
0.0
  0
ENDBLK
  5
93
  8
_________1
  0
BLOCK
  8
_________1
  2
AIGNBL0201000D
 70
     0
 10
0.0
 20
0.0
 30
0.0
  3
AIGNBL0201000D
  1

  0
LINE
  5
96
  8
_________1
 62
     7
 10
103.114
 20
133.65799999999999
 30
0.0
 11
103.706
 21
131.447
 31
0.0
  0
LINE
  5
97
  8
_________1
 62
     7
 10
103.706
 20
131.447
 30
0.0
 11
104.29900000000001
 21
133.65799999999999
 31
0.0
  0
LINE
  5
98
  8
_________1
 62
     7
 10
104.29900000000001
 20
133.65799999999999
 30
0.0
 11
103.114
 21
133.65799999999999
 31
0.0
  0
LINE
  5
99
  8
_________1
 62
     7
 10
104.28400000000001
 20
189.244
 30
0.0
 11
103.69199999999999
 21
191.45400000000001
 31
0.0
  0
LINE
  5
9A
  8
_________1
 62
     7
 10
103.69199999999999
 20
191.45400000000001
 30
0.0
 11
103.09999999999999
 21
189.244
 31
0.0
  0
LINE
  5
9B
  8
_________1
 62
     7
 10
103.09999999999999
 20
189.244
 30
0.0
 11
104.28400000000001
 21
189.244
 31
0.0
  0
LINE
  5
9C
  8
_________1
 62
     7
 10
103.699
 20
131.447
 30
0.0
 11
103.699
 21
191.447
 31
0.0
  0
ENDBLK
  5
9D
  8
_________1
  0
BLOCK
  8
_________1
  2
AIGNBL0201000E
 70
     0
 10
0.0
 20
0.0
 30
0.0
  3
AIGNBL0201000E
  1

  0
LINE
  5
A0
  8
_________1
 62
     7
 10
108.074
 20
196.648
 30
0.0
 11
96.023899999999983
 21
196.648
 31
0.0
  0
ENDBLK
  5
A1
  8
_________1
  0
BLOCK
  8
_________1
  2
AIGNBL0201000F
 70
     0
 10
0.0
 20
0.0
 30
0.0
  3
AIGNBL0201000F
  1

  0
LINE
  5
A4
  8
_________1
 62
     7
 10
111.203
 20
191.447
 30
0.0
 11
102.999
 21
191.447
 31
0.0
  0
ENDBLK
  5
A5
  8
_________1
  0
BLOCK
  8
_________1
  2
AIGNBL02010010
 70
     0
 10
0.0
 20
0.0
 30
0.0
  3
AIGNBL02010010
  1

  0
LINE
  5
A8
  8
_________1
 62
     7
 10
141.56
 20
156.447
 30
0.0
 11
121.62
 21
156.447
 31
0.0
  0
ENDBLK
  5
A9
  8
_________1
  0
BLOCK
  8
_________1
  2
AIGNBL02010011
 70
     0
 10
0.0
 20
0.0
 30
0.0
  3
AIGNBL02010011
  1

  0
LINE
  5
AC
  8
_________1
 62
     7
 10
152.31
 20
131.447
 30
0.0
 11
96.023899999999983
 21
131.447
 31
0.0
  0
ENDBLK
  5
AD
  8
_________1
  0
BLOCK
  8
_________1
  2
AIGNBL02010012
 70
     0
 10
0.0
 20
0.0
 30
0.0
  3
AIGNBL02010012
  1

  0
TEXT
  5
B0
  8
_________1
 62
     7
 10
54.558734999999999
 20
185.97399999999999
 30
0.0
 40
3.0923400000000001
  1
125
 41
0.5
 72
     1
 11
56.3626
 21
185.97399999999999
 31
0.0
  0
ENDBLK
  5
B1
  8
_________1
  0
BLOCK
  8
_________1
  2
AIGNBL02010013
 70
     0
 10
0.0
 20
0.0
 30
0.0
  3
AIGNBL02010013
  1

  0
LINE
  5
B4
  8
_________1
 62
     7
 10
162.92099999999999
 20
126.785
 30
0.0
 11
160.71000000000001
 21
126.193
 31
0.0
  0
LINE
  5
B5
  8
_________1
 62
     7
 10
160.71000000000001
 20
126.193
 30
0.0
 11
162.92099999999999
 21
125.601
 31
0.0
  0
LINE
  5
B6
  8
_________1
 62
     7
 10
162.92099999999999
 20
125.601
 30
0.0
 11
162.92099999999999
 21
126.785
 31
0.0
  0
LINE
  5
B7
  8
_________1
 62
     7
 10
151.90000000000001
 20
125.607
 30
0.0
 11
154.11000000000001
 21
126.2
 31
0.0
  0
LINE
  5
B8
  8
_________1
 62
     7
 10
154.11000000000001
 20
126.2
 30
0.0
 11
151.90000000000001
 21
126.792
 31
0.0
  0
LINE
  5
B9
  8
_________1
 62
     7
 10
151.90000000000001
 20
126.792
 30
0.0
 11
151.90000000000001
 21
125.607
 31
0.0
  0
LINE
  5
BA
  8
_________1
 62
     7
 10
145.94900000000001
 20
126.193
 30
0.0
 11
164.495
 21
126.193
 31
0.0
  0
ENDBLK
  5
BB
  8
_________1
  0
BLOCK
  8
_________1
  2
AIGNBL02010014
 70
     0
 10
0.0
 20
0.0
 30
0.0
  3
AIGNBL02010014
  1

  0
LINE
  5
BE
  8
_________1
 62
     7
 10
169.864
 20
129.23500000000001
 30
0.0
 11
169.27199999999999
 21
131.447
 31
0.0
  0
LINE
  5
BF
  8
_________1
 62
     7
 10
169.27199999999999
 20
131.447
 30
0.0
 11
168.679
 21
129.23500000000001
 31
0.0
  0
LINE
  5
C0
  8
_________1
 62
     7
 10
168.679
 20
129.23500000000001
 30
0.0
 11
169.864
 21
129.23500000000001
 31
0.0
  0
LINE
  5
C1
  8
_________1
 62
     7
 10
168.69399999999999
 20
95.658500000000004
 30
0.0
 11
169.286
 21
93.446700000000007
 31
0.0
  0
LINE
  5
C2
  8
_________1
 62
     7
 10
169.286
 20
93.446700000000007
 30
0.0
 11
169.87899999999999
 21
95.658500000000004
 31
0.0
  0
LINE
  5
C3
  8
_________1
 62
     7
 10
169.87899999999999
 20
95.658500000000004
 30
0.0
 11
168.69399999999999
 21
95.658500000000004
 31
0.0
  0
LINE
  5
C4
  8
_________1
 62
     7
 10
169.27199999999999
 20
131.446
 30
0.0
 11
169.27199999999999
 21
93.447100000000006
 31
0.0
  0
ENDBLK
  5
C5
  8
_________1
  0
BLOCK
  8
_________1
  2
AIGNBL02010015
 70
     0
 10
0.0
 20
0.0
 30
0.0
  3
AIGNBL02010015
  1

  0
LINE
  5
C8
  8
_________1
 62
     7
 10
177.506
 20
161.035
 30
0.0
 11
176.91399999999999
 21
163.24700000000001
 31
0.0
  0
LINE
  5
C9
  8
_________1
 62
     7
 10
176.91399999999999
 20
163.24700000000001
 30
0.0
 11
176.321
 21
161.035
 31
0.0
  0
LINE
  5
CA
  8
_________1
 62
     7
 10
176.321
 20
161.035
 30
0.0
 11
177.506
 21
161.035
 31
0.0
  0
LINE
  5
CB
  8
_________1
 62
     7
 10
177.506
 20
129.23500000000001
 30
0.0
 11
176.91399999999999
 21
131.447
 31
0.0
  0
LINE
  5
CC
  8
_________1
 62
     7
 10
176.91399999999999
 20
131.447
 30
0.0
 11
176.321
 21
129.23500000000001
 31
0.0
  0
LINE
  5
CD
  8
_________1
 62
     7
 10
176.321
 20
129.23500000000001
 30
0.0
 11
177.506
 21
129.23500000000001
 31
0.0
  0
LINE
  5
CE
  8
_________1
 62
     7
 10
176.33600000000001
 20
63.664400000000001
 30
0.0
 11
176.928
 21
61.452599999999997
 31
0.0
  0
LINE
  5
CF
  8
_________1
 62
     7
 10
176.928
 20
61.452599999999997
 30
0.0
 11
177.52099999999999
 21
63.664400000000001
 31
0.0
  0
LINE
  5
D0
  8
_________1
 62
     7
 10
177.52099999999999
 20
63.664400000000001
 30
0.0
 11
176.33600000000001
 21
63.664400000000001
 31
0.0
  0
LINE
  5
D1
  8
_________1
 62
     7
 10
176.91399999999999
 20
163.24700000000001
 30
0.0
 11
176.91399999999999
 21
61.453000000000003
 31
0.0
  0
ENDBLK
  5
D2
  8
_________1
  0
BLOCK
  8
_________1
  2
AIGNBL02010016
 70
     0
 10
0.0
 20
0.0
 30
0.0
  3
AIGNBL02010016
  1

  0
INSERT
  5
D5
  8
_________1
 62
     7
  2
AIGNBL02020017
 10
0.0
 20
0.0
 30
0.0
  0
ENDBLK
  5
D6
  8
_________1
  0
BLOCK
  8
_________1
  2
AIGNBL02010018
 70
     0
 10
0.0
 20
0.0
 30
0.0
  3
AIGNBL02010018
  1

  0
LINE
  5
D9
  8
_________1
  6
AIGENLINE001
 62
     7
 10
158.608
 20
125.48399999999999
 30
0.0
 11
158.608
 21
67.719599999999986
 31
0.0
  0
ENDBLK
  5
DA
  8
_________1
  0
BLOCK
  8
_________1
  2
AIGNBL02010019
 70
     0
 10
0.0
 20
0.0
 30
0.0
  3
AIGNBL02010019
  1

  0
LINE
  5
DD
  8
_________1
  6
AIGENLINE001
 62
     7
 10
156.21000000000001
 20
125.672
 30
0.0
 11
156.21000000000001
 21
112.334
 31
0.0
  0
ENDBLK
  5
DE
  8
_________1
  0
BLOCK
  8
_________1
  2
AIGNBL0201001A
 70
     0
 10
0.0
 20
0.0
 30
0.0
  3
AIGNBL0201001A
  1

  0
LINE
  5
E1
  8
_________1
  6
AIGENLINE001
 62
     7
 10
45.570799999999998
 20
107.78100000000001
 30
0.0
 11
45.570799999999998
 21
132.965
 31
0.0
  0
ENDBLK
  5
E2
  8
_________1
  0
BLOCK
  8
_________1
  2
AIGNBL0201001B
 70
     0
 10
0.0
 20
0.0
 30
0.0
  3
AIGNBL0201001B
  1

  0
LINE
  5
E5
  8
_________1
  6
AIGENLINE001
 62
     7
 10
53.254100000000001
 20
96.207700000000003
 30
0.0
 11
53.254100000000001
 21
60.482500000000002
 31
0.0
  0
ENDBLK
  5
E6
  8
_________1
  0
BLOCK
  8
_________1
  2
AIGNBL0201001C
 70
     0
 10
0.0
 20
0.0
 30
0.0
  3
AIGNBL0201001C
  1

  0
LINE
  5
E9
  8
_________1
  6
AIGENLINE001
 62
     7
 10
46.603700000000003
 20
105.098
 30
0.0
 11
52.2209
 21
98.890699999999995
 31
0.0
  0
ENDBLK
  5
EA
  8
_________1
  0
BLOCK
  8
_________1
  2
AIGNBL0201001D
 70
     0
 10
0.0
 20
0.0
 30
0.0
  3
AIGNBL0201001D
  1

  0
ARC
  5
ED
  8
_________1
  6
AIGENLINE001
 62
     7
 10
49.170183999999999
 20
96.175871000000015
 30
0.0
 40
4.0840449999999988
 50
0.445912
 51
41.662624999999998
  0
ENDBLK
  5
EE
  8
_________1
  0
BLOCK
  8
_________1
  2
AIGNBL0201001E
 70
     0
 10
0.0
 20
0.0
 30
0.0
  3
AIGNBL0201001E
  1

  0
ARC
  5
F1
  8
_________1
  6
AIGENLINE001
 62
     7
 10
49.654727000000001
 20
107.812967
 30
0.0
 40
4.0840449999999988
 50
180.445931
 51
221.66264500000011
  0
ENDBLK
  5
F2
  8
_________1
  0
BLOCK
  8
_________1
  2
AIGNBL0201001F
 70
     0
 10
0.0
 20
0.0
 30
0.0
  3
AIGNBL0201001F
  1

  0
LINE
  5
F5
  8
_________1
  6
AIGENLINE001
 62
     7
 10
41.970700000000001
 20
107.78100000000001
 30
0.0
 11
41.970700000000001
 21
132.965
 31
0.0
  0
ENDBLK
  5
F6
  8
_________1
  0
BLOCK
  8
_________1
  2
AIGNBL02010020
 70
     0
 10
0.0
 20
0.0
 30
0.0
  3
AIGNBL02010020
  1

  0
LINE
  5
F9
  8
_________1
  6
AIGENLINE001
 62
     7
 10
34.287700000000001
 20
96.207700000000003
 30
0.0
 11
34.287700000000001
 21
60.482500000000002
 31
0.0
  0
ENDBLK
  5
FA
  8
_________1
  0
BLOCK
  8
_________1
  2
AIGNBL02010021
 70
     0
 10
0.0
 20
0.0
 30
0.0
  3
AIGNBL02010021
  1

  0
LINE
  5
FD
  8
_________1
  6
AIGENLINE001
 62
     7
 10
40.937800000000003
 20
105.098
 30
0.0
 11
35.320500000000003
 21
98.890699999999995
 31
0.0
  0
ENDBLK
  5
FE
  8
_________1
  0
BLOCK
  8
_________1
  2
AIGNBL02010022
 70
     0
 10
0.0
 20
0.0
 30
0.0
  3
AIGNBL02010022
  1

  0
ARC
  5
101
  8
_________1
  6
AIGENLINE001
 62
     7
 10
38.370660999999998
 20
96.176242000000016
 30
0.0
 40
4.0830799999999998
 50
138.33226099999999
 51
179.55916300000001
  0
ENDBLK
  5
102
  8
_________1
  0
BLOCK
  8
_________1
  2
AIGNBL02010023
 70
     0
 10
0.0
 20
0.0
 30
0.0
  3
AIGNBL02010023
  1

  0
ARC
  5
105
  8
_________1
  6
AIGENLINE001
 62
     7
 10
37.887698999999998
 20
107.812596
 30
0.0
 40
4.0830799999999998
 50
318.33228100000002
 51
359.55918200000002
  0
ENDBLK
  5
106
  8
_________1
  0
BLOCK
  8
_________1
  2
AIGNBL02010024
 70
     0
 10
0.0
 20
0.0
 30
0.0
  3
AIGNBL02010024
  1

  0
LINE
  5
109
  8
_________1
  6
AIGENLINE001
 62
     7
 10
36.3658
 20
151.44800000000001
 30
0.0
 11
65.055000000000007
 21
151.44800000000001
 31
0.0
  0
ENDBLK
  5
10A
  8
_________1
  0
BLOCK
  8
_________1
  2
AIGNBL02010025
 70
     0
 10
0.0
 20
0.0
 30
0.0
  3
AIGNBL02010025
  1

  0
LINE
  5
10D
  8
_________1
  6
AIGENLINE001
 62
     7
 10
150.71100000000001
 20
151.44800000000001
 30
0.0
 11
164.36600000000001
 21
151.44800000000001
 31
0.0
  0
ENDBLK
  5
10E
  8
_________1
  0
BLOCK
  8
_________1
  2
AIGNBL02010026
 70
     0
 10
0.0
 20
0.0
 30
0.0
  3
AIGNBL02010026
  1

  0
LINE
  5
111
  8
_________1
  6
AIGENLINE001
 62
     7
 10
43.871000000000002
 20
152.79499999999999
 30
0.0
 11
43.871000000000002
 21
198.34700000000001
 31
0.0
  0
ENDBLK
  5
112
  8
_________1
  0
BLOCK
  8
_________1
  2
AIGNBL02010027
 70
     0
 10
0.0
 20
0.0
 30
0.0
  3
AIGNBL02010027
  1

  0
LINE
  5
115
  8
_________1
  6
AIGENLINE001
 62
     7
 10
43.770699999999991
 20
37.462200000000003
 30
0.0
 11
43.770699999999991
 21
151.08000000000001
 31
0.0
  0
ENDBLK
  5
116
  8
_________1
  0
BLOCK
  8
_________1
  2
AIGNBL02010028
 70
     0
 10
0.0
 20
0.0
 30
0.0
  3
AIGNBL02010028
  1

  0
LINE
  5
119
  8
_________1
  6
AIGENLINE001
 62
     7
 10
157.40899999999999
 20
140.09700000000001
 30
0.0
 11
157.40899999999999
 21
183.57499999999999
 31
0.0
  0
ENDBLK
  5
11A
  8
_________1
  0
BLOCK
  8
_________1
  2
AIGNBL02010029
 70
     0
 10
0.0
 20
0.0
 30
0.0
  3
AIGNBL02010029
  1

  0
LINE
  5
11D
  8
_________1
  6
AIGENLINE001
 62
     7
 10
157.40899999999999
 20
59.320399999999999
 30
0.0
 11
157.40899999999999
 21
133.911
 31
0.0
  0
ENDBLK
  5
11E
  8
_________1
  0
BLOCK
  8
_________1
  2
AIGNBL0201002A
 70
     0
 10
0.0
 20
0.0
 30
0.0
  3
AIGNBL0201002A
  1

  0
LINE
  5
121
  8
_________1
  6
AIGENLINE001
 62
     7
 10
35.941000000000003
 20
250.066
 30
0.0
 11
63.8568
 21
250.066
 31
0.0
  0
ENDBLK
  5
122
  8
_________1
  0
BLOCK
  8
_________1
  2
AIGNBL0201002B
 70
     0
 10
0.0
 20
0.0
 30
0.0
  3
AIGNBL0201002B
  1

  0
LINE
  5
125
  8
_________1
  6
AIGENLINE001
 62
     7
 10
43.871000000000002
 20
200.35499999999999
 30
0.0
 11
43.871000000000002
 21
255.97200000000001
 31
0.0
  0
ENDBLK
  5
126
  8
_________1
  0
BLOCK
  8
_________1
  2
AIGNBL0201002C
 70
     0
 10
0.0
 20
0.0
 30
0.0
  3
AIGNBL0201002C
  1

  0
LINE
  5
129
  8
_________1
  6
AIGENLINE001
 62
     7
 10
157.40899999999999
 20
151.44800000000001
 30
0.0
 11
141.405
 21
156.79599999999999
 31
0.0
  0
ENDBLK
  5
12A
  8
_________1
  0
BLOCK
  8
_________1
  2
AIGNBL0201002D
 70
     0
 10
0.0
 20
0.0
 30
0.0
  3
AIGNBL0201002D
  1

  0
LINE
  5
12D
  8
_________1
 62
     7
 10
153.042
 20
168.14099999999999
 30
0.0
 11
152.398
 21
170.59999999999999
 31
0.0
  0
ENDBLK
  5
12E
  8
_________1
  0
BLOCK
  8
_________1
  2
AIGNBL0201002E
 70
     0
 10
0.0
 20
0.0
 30
0.0
  3
AIGNBL0201002E
  1

  0
LINE
  5
131
  8
_________1
  6
AIGENLINE001
 62
     7
 10
157.40899999999999
 20
151.44800000000001
 30
0.0
 11
153.13800000000001
 21
167.773
 31
0.0
  0
ENDBLK
  5
132
  8
_________1
  0
BLOCK
  8
_________1
  2
AIGNBL0201002F
 70
     0
 10
0.0
 20
0.0
 30
0.0
  3
AIGNBL0201002F
  1

  0
LINE
  5
135
  8
_________1
  6
AIGENLINE001
 62
     7
 10
157.40899999999999
 20
151.44800000000001
 30
0.0
 11
168.744
 21
163.94999999999999
 31
0.0
  0
ENDBLK
  5
136
  8
_________1
  0
BLOCK
  8
_________1
  2
AIGNBL02010030
 70
     0
 10
0.0
 20
0.0
 30
0.0
  3
AIGNBL02010030
  1

  0
LINE
  5
139
  8
_________1
 62
     7
 10
25.180900000000001
 20
223.16200000000001
 30
0.0
 11
23.818300000000001
 21
225.001
 31
0.0
  0
LINE
  5
13A
  8
_________1
 62
     7
 10
23.818300000000001
 20
225.001
 30
0.0
 11
25.918500000000002
 21
224.089
 31
0.0
  0
LINE
  5
13B
  8
_________1
 62
     7
 10
25.918500000000002
 20
224.089
 30
0.0
 11
25.180900000000001
 21
223.16200000000001
 31
0.0
  0
LINE
  5
13C
  8
_________1
 62
     7
 10
62.560400000000001
 20
223.16200000000001
 30
0.0
 11
63.922899999999998
 21
225.00200000000001
 31
0.0
  0
LINE
  5
13D
  8
_________1
 62
     7
 10
63.922899999999998
 20
225.00200000000001
 30
0.0
 11
61.822800000000001
 21
224.09
 31
0.0
  0
LINE
  5
13E
  8
_________1
 62
     7
 10
61.822800000000001
 20
224.09
 30
0.0
 11
62.560400000000001
 21
223.16200000000001
 31
0.0
  0
ENDBLK
  5
13F
  8
_________1
  0
BLOCK
  8
_________1
  2
AIGNBL02010031
 70
     0
 10
0.0
 20
0.0
 30
0.0
  3
AIGNBL02010031
  1

  0
TEXT
  5
142
  8
_________1
 62
     7
 10
51.982525000000003
 20
173.23699999999999
 30
0.0
 40
3.0923400000000001
  1
94
 41
0.5
 72
     1
 11
53.271000000000001
 21
173.23699999999999
 31
0.0
  0
ENDBLK
  5
143
  8
_________1
  0
BLOCK
  8
_________1
  2
AIGNBL02010032
 70
     0
 10
0.0
 20
0.0
 30
0.0
  3
AIGNBL02010032
  1

  0
TEXT
  5
146
  8
_________1
 62
     7
 10
48.566634999999991
 20
179.47499999999999
 30
0.0
 40
3.0923400000000001
  1
125
 41
0.5
 72
     1
 11
50.3705
 21
179.47499999999999
 31
0.0
  0
ENDBLK
  5
147
  8
_________1
  0
BLOCK
  8
_________1
  2
AIGNBL02010033
 70
     0
 10
0.0
 20
0.0
 30
0.0
  3
AIGNBL02010033
  1

  0
LINE
  5
14A
  8
_________1
 62
     7
 10
32.460799999999999
 20
148.96000000000001
 30
0.0
 11
31.868200000000002
 21
146.74799999999999
 31
0.0
  0
LINE
  5
14B
  8
_________1
 62
     7
 10
31.868200000000002
 20
146.74799999999999
 30
0.0
 11
31.275600000000001
 21
148.96000000000001
 31
0.0
  0
LINE
  5
14C
  8
_________1
 62
     7
 10
31.275600000000001
 20
148.96000000000001
 30
0.0
 11
32.460799999999999
 21
148.96000000000001
 31
0.0
  0
LINE
  5
14D
  8
_________1
 62
     7
 10
31.290099999999999
 20
153.93600000000001
 30
0.0
 11
31.8827
 21
156.148
 31
0.0
  0
LINE
  5
14E
  8
_________1
 62
     7
 10
31.8827
 20
156.148
 30
0.0
 11
32.475200000000001
 21
153.93600000000001
 31
0.0
  0
LINE
  5
14F
  8
_________1
 62
     7
 10
32.475200000000001
 20
153.93600000000001
 30
0.0
 11
31.290099999999999
 21
153.93600000000001
 31
0.0
  0
LINE
  5
150
  8
_________1
 62
     7
 10
31.875399999999999
 20
146.74799999999999
 30
0.0
 11
31.875399999999999
 21
156.14699999999999
 31
0.0
  0
ENDBLK
  5
151
  8
_________1
  0
BLOCK
  8
_________1
  2
AIGNBL02010034
 70
     0
 10
0.0
 20
0.0
 30
0.0
  3
AIGNBL02010034
  1

  0
INSERT
  5
154
  8
_________1
 62
     7
  2
AIGNBL02020035
 10
0.0
 20
0.0
 30
0.0
  0
ENDBLK
  5
155
  8
_________1
  0
BLOCK
  8
_________1
  2
AIGNBL02010036
 70
     0
 10
0.0
 20
0.0
 30
0.0
  3
AIGNBL02010036
  1

  0
LINE
  5
158
  8
_________1
 62
     7
 10
85.948599999999999
 20
133.65799999999999
 30
0.0
 11
86.540800000000004
 21
131.447
 31
0.0
  0
LINE
  5
159
  8
_________1
 62
     7
 10
86.540800000000004
 20
131.447
 30
0.0
 11
87.132999999999996
 21
133.65799999999999
 31
0.0
  0
LINE
  5
15A
  8
_________1
 62
     7
 10
87.132999999999996
 20
133.65799999999999
 30
0.0
 11
85.948599999999999
 21
133.65799999999999
 31
0.0
  0
LINE
  5
15B
  8
_________1
 62
     7
 10
87.118599999999986
 20
165.238
 30
0.0
 11
86.526399999999995
 21
167.44900000000001
 31
0.0
  0
LINE
  5
15C
  8
_________1
 62
     7
 10
86.526399999999995
 20
167.44900000000001
 30
0.0
 11
85.934100000000001
 21
165.238
 31
0.0
  0
LINE
  5
15D
  8
_________1
 62
     7
 10
85.934100000000001
 20
165.238
 30
0.0
 11
87.118599999999986
 21
165.238
 31
0.0
  0
LINE
  5
15E
  8
_________1
 62
     7
 10
86.533600000000007
 20
131.447
 30
0.0
 11
86.533600000000007
 21
167.44099999999989
 31
0.0
  0
ENDBLK
  5
15F
  8
_________1
  0
BLOCK
  8
_________1
  2
AIGNBL02010037
 70
     0
 10
0.0
 20
0.0
 30
0.0
  3
AIGNBL02010037
  1

  0
LINE
  5
162
  8
_________1
 62
     7
 10
78.086299999999994
 20
133.65799999999999
 30
0.0
 11
78.678600000000003
 21
131.447
 31
0.0
  0
LINE
  5
163
  8
_________1
 62
     7
 10
78.678600000000003
 20
131.447
 30
0.0
 11
79.270799999999994
 21
133.65799999999999
 31
0.0
  0
LINE
  5
164
  8
_________1
 62
     7
 10
79.270799999999994
 20
133.65799999999999
 30
0.0
 11
78.086299999999994
 21
133.65799999999999
 31
0.0
  0
LINE
  5
165
  8
_________1
 62
     7
 10
79.256299999999996
 20
163.739
 30
0.0
 11
78.664100000000005
 21
165.94900000000001
 31
0.0
  0
LINE
  5
166
  8
_________1
 62
     7
 10
78.664100000000005
 20
165.94900000000001
 30
0.0
 11
78.071899999999999
 21
163.739
 31
0.0
  0
LINE
  5
167
  8
_________1
 62
     7
 10
78.071899999999999
 20
163.739
 30
0.0
 11
79.256299999999996
 21
163.739
 31
0.0
  0
LINE
  5
168
  8
_________1
 62
     7
 10
78.671300000000002
 20
131.447
 30
0.0
 11
78.671300000000002
 21
165.94300000000001
 31
0.0
  0
ENDBLK
  5
169
  8
_________1
  0
BLOCK
  8
_________1
  2
AIGNBL02010038
 70
     0
 10
0.0
 20
0.0
 30
0.0
  3
AIGNBL02010038
  1

  0
LINE
  5
16C
  8
_________1
 62
     7
 10
70.226799999999997
 20
133.65799999999999
 30
0.0
 11
70.819000000000003
 21
131.447
 31
0.0
  0
LINE
  5
16D
  8
_________1
 62
     7
 10
70.819000000000003
 20
131.447
 30
0.0
 11
71.411299999999997
 21
133.65799999999999
 31
0.0
  0
LINE
  5
16E
  8
_________1
 62
     7
 10
71.411299999999997
 20
133.65799999999999
 30
0.0
 11
70.226799999999997
 21
133.65799999999999
 31
0.0
  0
LINE
  5
16F
  8
_________1
 62
     7
 10
71.396799999999999
 20
149.245
 30
0.0
 11
70.804599999999994
 21
151.45500000000001
 31
0.0
  0
LINE
  5
170
  8
_________1
 62
     7
 10
70.804599999999994
 20
151.45500000000001
 30
0.0
 11
70.212400000000002
 21
149.245
 31
0.0
  0
LINE
  5
171
  8
_________1
 62
     7
 10
70.212400000000002
 20
149.245
 30
0.0
 11
71.396799999999999
 21
149.245
 31
0.0
  0
LINE
  5
172
  8
_________1
 62
     7
 10
70.811800000000005
 20
131.447
 30
0.0
 11
70.811800000000005
 21
151.44800000000001
 31
0.0
  0
ENDBLK
  5
173
  8
_________1
  0
BLOCK
  8
_________1
  2
AIGNBL02010039
 70
     0
 10
0.0
 20
0.0
 30
0.0
  3
AIGNBL02010039
  1

  0
LINE
  5
176
  8
_________1
 62
     7
 10
79.364099999999993
 20
165.94900000000001
 30
0.0
 11
67.451400000000007
 21
165.94900000000001
 31
0.0
  0
ENDBLK
  5
177
  8
_________1
  0
BLOCK
  8
_________1
  2
AIGNBL0201003A
 70
     0
 10
0.0
 20
0.0
 30
0.0
  3
AIGNBL0201003A
  1

  0
LINE
  5
17A
  8
_________1
 62
     7
 10
87.233599999999996
 20
167.44900000000001
 30
0.0
 11
63.422400000000003
 21
167.44900000000001
 31
0.0
  0
ENDBLK
  5
17B
  8
_________1
  0
BLOCK
  8
_________1
  2
AIGNBL0201003B
 70
     0
 10
0.0
 20
0.0
 30
0.0
  3
AIGNBL0201003B
  1

  0
LINE
  5
17E
  8
_________1
 62
     7
 10
71.511799999999994
 20
151.44800000000001
 30
0.0
 11
65.755099999999999
 21
151.44800000000001
 31
0.0
  0
ENDBLK
  5
17F
  8
_________1
  0
BLOCK
  8
_________1
  2
AIGNBL0201003C
 70
     0
 10
0.0
 20
0.0
 30
0.0
  3
AIGNBL0201003C
  1

  0
LINE
  5
182
  8
_________1
 62
     7
 10
87.233599999999996
 20
131.447
 30
0.0
 11
48.871200000000002
 21
131.447
 31
0.0
  0
ENDBLK
  5
183
  8
_________1
  0
BLOCK
  8
_________1
  2
AIGNBL0201003D
 70
     0
 10
0.0
 20
0.0
 30
0.0
  3
AIGNBL0201003D
  1

  0
LINE
  5
186
  8
_________1
 62
     7
 10
153.78999999999999
 20
245.608
 30
0.0
 11
154.935
 21
247.59100000000001
 31
0.0
  0
LINE
  5
187
  8
_________1
 62
     7
 10
154.935
 20
247.59100000000001
 30
0.0
 11
152.95099999999999
 21
246.446
 31
0.0
  0
LINE
  5
188
  8
_________1
 62
     7
 10
152.95099999999999
 20
246.446
 30
0.0
 11
153.78999999999999
 21
245.608
 31
0.0
  0
LINE
  5
189
  8
_________1
 62
     7
 10
161.03
 20
254.523
 30
0.0
 11
159.88399999999999
 21
252.541
 31
0.0
  0
LINE
  5
18A
  8
_________1
 62
     7
 10
159.88399999999999
 20
252.541
 30
0.0
 11
161.86699999999999
 21
253.685
 31
0.0
  0
LINE
  5
18B
  8
_________1
 62
     7
 10
161.86699999999999
 20
253.685
 30
0.0
 11
161.03
 21
254.523
 31
0.0
  0
LINE
  5
18C
  8
_________1
 62
     7
 10
162.79599999999999
 20
255.452
 30
0.0
 11
151.297
 21
243.953
 31
0.0
  0
ENDBLK
  5
18D
  8
_________1
  0
BLOCK
  8
_________1
  2
AIGNBL0201003E
 70
     0
 10
0.0
 20
0.0
 30
0.0
  3
AIGNBL0201003E
  1

  0
LINE
  5
190
  8
_________1
 62
     7
 10
168.40899999999999
 20
140.79599999999999
 30
0.0
 11
142.209
 21
140.79599999999999
 31
0.0
  0
ENDBLK
  5
191
  8
_________1
  0
BLOCK
  8
_________2
  2
AIGNBL03010002
 70
     0
 10
0.0
 20
0.0
 30
0.0
  3
AIGNBL03010002
  1

  0
LINE
  5
194
  8
_________2
 62
     7
 10
76.740700000000004
 20
29.8047
 30
0.0
 11
74.554400000000001
 21
29.8047
 31
0.0
  0
LINE
  5
195
  8
_________2
 62
     7
 10
77.2333
 20
29.8047
 30
0.0
 11
76.981099999999984
 21
29.8047
 31
0.0
  0
LINE
  5
196
  8
_________2
 62
     7
 10
77.725999999999999
 20
29.8047
 30
0.0
 11
80.650899999999993
 21
29.8047
 31
0.0
  0
LINE
  5
197
  8
_________2
 62
     7
 10
77.2333
 20
29.8047
 30
0.0
 11
77.485500000000002
 21
29.8047
 31
0.0
  0
LINE
  5
198
  8
_________2
 62
     7
 10
70.837100000000007
 20
29.8047
 30
0.0
 11
68.650199999999998
 21
29.8047
 31
0.0
  0
LINE
  5
199
  8
_________2
 62
     7
 10
71.329099999999997
 20
29.8047
 30
0.0
 11
71.077600000000004
 21
29.8047
 31
0.0
  0
LINE
  5
19A
  8
_________2
 62
     7
 10
71.329099999999997
 20
30.2974
 30
0.0
 11
71.329099999999997
 21
32.484400000000001
 31
0.0
  0
LINE
  5
19B
  8
_________2
 62
     7
 10
71.329099999999997
 20
29.8047
 30
0.0
 11
71.329099999999997
 21
30.057300000000001
 31
0.0
  0
LINE
  5
19C
  8
_________2
 62
     7
 10
71.821700000000007
 20
29.8047
 30
0.0
 11
74.008700000000005
 21
29.8047
 31
0.0
  0
LINE
  5
19D
  8
_________2
 62
     7
 10
71.329099999999997
 20
29.8047
 30
0.0
 11
71.581299999999985
 21
29.8047
 31
0.0
  0
LINE
  5
19E
  8
_________2
 62
     7
 10
71.329099999999997
 20
29.312799999999999
 30
0.0
 11
71.329099999999997
 21
27.126200000000001
 31
0.0
  0
LINE
  5
19F
  8
_________2
 62
     7
 10
71.329099999999997
 20
29.8047
 30
0.0
 11
71.329099999999997
 21
29.5532
 31
0.0
  0
LINE
  5
1A0
  8
_________2
 62
     7
 10
75.040199999999999
 20
28.5852
 30
0.0
 11
80.218199999999996
 21
27.720400000000001
 31
0.0
  0
LINE
  5
1A1
  8
_________2
 62
     7
 10
75.040199999999999
 20
31.024699999999999
 30
0.0
 11
80.218199999999996
 21
31.8901
 31
0.0
  0
LINE
  5
1A2
  8
_________2
 62
     7
 10
80.218199999999996
 20
27.720400000000001
 30
0.0
 11
80.218199999999996
 21
31.8901
 31
0.0
  0
LINE
  5
1A3
  8
_________2
 62
     7
 10
75.040199999999999
 20
28.5852
 30
0.0
 11
75.040199999999999
 21
31.024699999999999
 31
0.0
  0
ARC
  5
1A4
  8
_________2
 62
     7
 10
71.282501999999994
 20
29.757801000000001
 30
0.0
 40
1.267714
 50
2.1220840000000001
 51
87.894083999999992
  0
ARC
  5
1A5
  8
_________2
 62
     7
 10
71.375640000000004
 20
29.758545999999999
 30
0.0
 40
1.2669680000000001
 50
92.105782999999988
 51
177.91037
  0
ARC
  5
1A6
  8
_________2
 62
     7
 10
71.376013999999998
 20
29.851671
 30
0.0
 40
1.2673680000000001
 50
182.12203600000001
 51
267.877993
  0
ARC
  5
1A7
  8
_________2
 62
     7
 10
71.282195999999999
 20
29.852347999999999
 30
0.0
 40
1.2680439999999991
 50
272.11916400000001
 51
357.84848499999998
  0
ARC
  5
1A8
  8
_________2
 62
     7
 10
71.248716999999985
 20
29.724731999999999
 30
0.0
 40
2.1668310000000002
 50
2.1161439999999989
 51
87.874379000000005
  0
ARC
  5
1A9
  8
_________2
 62
     7
 10
71.408756000000011
 20
29.726146
 30
0.0
 40
2.165392999999999
 50
92.108508999999998
 51
177.91986499999999
  0
ARC
  5
1AA
  8
_________2
 62
     7
 10
71.409094999999994
 20
29.884751999999999
 30
0.0
 40
2.1657829999999998
 50
182.117133
 51
267.88289700000001
  0
ARC
  5
1AB
  8
_________2
 62
     7
 10
71.249115000000003
 20
29.885429999999999
 30
0.0
 40
2.1664590000000001
 50
272.11546800000002
 51
357.86560400000002
  0
ENDBLK
  5
1AC
  8
_________2
  0
ENDSEC
  0
SECTION
  2
ENTITIES
  0
TEXT
  5
1AD
  8
____
 62
     7
 10
169.27000000000001
 20
158.48500000000001
 30
0.0
 40
3.0923400000000001
  1
湯
 41
0.5
  0
TEXT
  5
1AE
  8
____
 62
     7
 10
139.86590799999999
 20
152.33199999999999
 30
0.0
 40
3.0923400000000001
  1
水
 41
0.5
 72
     2
 11
141.309
 21
152.33199999999999
 31
0.0
  0
TEXT
  5
1AF
  8
____
 62
     7
 10
57.237986000000006
 20
165.54499999999999
 30
0.0
 40
3.0923400000000001
  1
閉
 41
0.5
 72
     2
 11
58.57800000000001
 21
165.54499999999999
 31
0.0
  0
TEXT
  5
1B0
  8
____
 62
     7
 10
163.51588000000001
 20
178.28999999999999
 30
0.0
 40
3.0923400000000001
  1
%%c24
 41
0.5
 72
     2
 11
167.63900000000001
 21
178.28999999999999
 31
0.0
  0
TEXT
  5
1B1
  8
____
 62
     7
 10
155.34644
 20
136.113
 30
0.0
 40
3.0923400000000001
  1
%%c44
 41
0.5
 72
     1
 11
157.40799999999999
 21
136.113
 31
0.0
  0
TEXT
  5
1B2
  8
____
 62
     7
 10
141.816
 20
120.48157500000001
 30
0.0
 40
3.0923400000000001
  1
max.45
 50
90.0
 41
0.5
 72
     1
 11
141.816
 21
124.34699999999999
 31
0.0
  0
TEXT
  5
1B3
  8
____
 62
     7
 10
130.99444
 20
207.71299999999999
 30
0.0
 40
3.0923400000000001
  1
242
 41
0.5
 72
     1
 11
133.05600000000001
 21
207.71299999999999
 31
0.0
  0
TEXT
  5
1B4
  8
____
 62
     7
 10
132.81644
 20
182.34099999999989
 30
0.0
 40
3.0923400000000001
  1
225
 41
0.5
 72
     1
 11
134.87799999999999
 21
182.34099999999989
 31
0.0
  0
TEXT
  5
1B5
  8
____
 62
     7
 10
96.023899999999983
 20
161.98544000000001
 30
0.0
 40
3.0923400000000001
  1
326
 50
90.0
 41
0.5
 72
     1
 11
96.023899999999983
 21
164.047
 31
0.0
  0
TEXT
  5
1B6
  8
____
 62
     7
 10
102.999
 20
159.38543999999999
 30
0.0
 40
3.0923400000000001
  1
298
 50
90.0
 41
0.5
 72
     1
 11
102.999
 21
161.447
 31
0.0
  0
TEXT
  5
1B7
  8
____
 62
     7
 10
146.10300000000001
 20
126.893
 30
0.0
 40
3.0923400000000001
  1
%%c33
 41
0.5
  0
TEXT
  5
1B8
  8
____
 62
     7
 10
139.72900000000001
 20
106.869
 30
0.0
 40
3.0923400000000001
  1
（t＝25）
 41
0.5
  0
TEXT
  5
1B9
  8
____
 62
     7
 10
139.72900000000001
 20
111.26000000000001
 30
0.0
 40
3.0923400000000001
  1
スペーサー
 41
0.5
  0
TEXT
  5
1BA
  8
____
 62
     7
 10
168.572
 20
110.77198249999999
 30
0.0
 40
3.0923400000000001
  1
190
 50
90.0
 41
0.5
 72
     1
 11
168.572
 21
112.447
 31
0.0
  0
TEXT
  5
1BB
  8
____
 62
     7
 10
176.214
 20
145.54313500000001
 30
0.0
 40
3.0923400000000001
  1
159
 50
90.0
 41
0.5
 72
     1
 11
176.214
 21
147.34700000000001
 31
0.0
  0
TEXT
  5
1BC
  8
____
 62
     7
 10
176.214
 20
94.513987499999999
 30
0.0
 40
3.0923400000000001
  1
450
 50
90.0
 41
0.5
 72
     1
 11
176.214
 21
96.446700000000007
 31
0.0
  0
TEXT
  5
1BD
  8
____
 62
     7
 10
121.62
 20
142.143135
 30
0.0
 40
3.0923400000000001
  1
125
 50
90.0
 41
0.5
 72
     1
 11
121.62
 21
143.947
 31
0.0
  0
TEXT
  5
1BE
  8
____
 62
     7
 10
121.62
 20
83.0135875
 30
0.0
 40
3.0923400000000001
  1
680
 50
90.0
 41
0.5
 72
     1
 11
121.62
 21
84.946299999999994
 31
0.0
  0
TEXT
  5
1BF
  8
____
 62
     7
 10
23.7136
 20
57.33979999999999
 30
0.0
 40
3.0923400000000001
  1
G 3/8
 41
0.5
  0
INSERT
  5
1C0
  8
____
 62
     7
  2
AIGNBL01010002
 10
0.0
 20
0.0
 30
0.0
  0
TEXT
  5
1C1
  8
____
 62
     7
 10
31.1754
 20
149.16444000000001
 30
0.0
 40
3.0923400000000001
  1
%%c47
 50
90.0
 41
0.5
 72
     1
 11
31.1754
 21
151.226
 31
0.0
  0
TEXT
  5
1C2
  8
____
 62
     7
 10
85.833500000000015
 20
148.52298250000001
 30
0.0
 40
3.0923400000000001
  1
180
 50
90.0
 41
0.5
 72
     1
 11
85.833500000000015
 21
150.19800000000001
 31
0.0
  0
TEXT
  5
1C3
  8
____
 62
     7
 10
77.971299999999999
 20
146.61335500000001
 30
0.0
 40
3.0923400000000001
  1
172.5
 50
90.0
 41
0.5
 72
     1
 11
77.971299999999999
 21
149.44800000000001
 31
0.0
  0
TEXT
  5
1C4
  8
____
 62
     7
 10
70.111800000000002
 20
139.90182999999999
 30
0.0
 40
3.0923400000000001
  1
100
 50
90.0
 41
0.5
 72
     1
 11
70.111800000000002
 21
141.44800000000001
 31
0.0
  0
TEXT
  5
1C5
  8
____
 62
     7
 10
69.885800000000003
 20
160.90100000000001
 30
0.0
 40
3.0923400000000001
  1
開
 41
0.5
  0
TEXT
  5
1C6
  8
____
 62
     7
 10
124.029
 20
197.90100000000001
 30
0.0
 40
3.0923400000000001
  1
ホース引出し長さmax480
 41
0.5
  0
TEXT
  5
1C7
  8
____
 62
     7
 10
145.23599999999999
 20
244.65299999999999
 30
0.0
 40
3.0923400000000001
  1
%%c35
 41
0.5
  0
TEXT
  5
1C8
  8
____
 62
     7
 10
152.97664599999999
 20
235.72
 30
0.0
 40
3.0923400000000001
  1
水栓取付穴
 41
0.5
 72
     1
 11
157.40899999999999
 21
235.72
 31
0.0
  0
TEXT
  5
1C9
  8
____
 62
     7
 10
162.98252500000001
 20
141.49600000000001
 30
0.0
 40
3.0923400000000001
  1
55
 41
0.5
 72
     1
 11
164.27099999999999
 21
141.49600000000001
 31
0.0
  0
TEXT
  5
1CA
  8
____
 62
     7
 10
148.52052499999999
 20
141.49600000000001
 30
0.0
 40
3.0923400000000001
  1
76
 41
0.5
 72
     1
 11
149.809
 21
141.49600000000001
 31
0.0
  0
TEXT
  5
1CB
  8
____
 62
     7
 10
142.07913500000001
 20
165.86799999999999
 30
0.0
 40
3.0923400000000001
  1
57%%d
 41
0.5
 72
     1
 11
143.88300000000001
 21
165.86799999999999
 31
0.0
  0
TEXT
  5
1CC
  8
____
 62
     7
 10
162.833135
 20
170.60599999999999
 30
0.0
 40
3.0923400000000001
  1
57%%d
 41
0.5
 72
     1
 11
164.637
 21
170.60599999999999
 31
0.0
  0
ARC
  5
1CD
  8
_________1
 62
     7
 10
167.55461500000001
 20
63.916125999999998
 30
0.0
 40
38.420504000000001
 50
205.6996429999999
 51
206.31130200000001
  0
ARC
  5
1CE
  8
_________1
 62
     7
 10
162.155452
 20
61.500289000000002
 30
0.0
 40
32.507268000000003
 50
201.85824299999999
 51
204.12351000000001
  0
ARC
  5
1CF
  8
_________1
 62
     7
 10
152.24292800000001
 20
57.647036
 30
0.0
 40
21.870383
 50
193.46466899999999
 51
200.00142500000001
  0
ARC
  5
1D0
  8
_________1
 62
     7
 10
146.34001000000001
 20
56.134078000000002
 30
0.0
 40
15.777725999999999
 50
184.51783999999989
 51
193.11276100000001
  0
ARC
  5
1D1
  8
_________1
 62
     7
 10
143.451921
 20
55.828499000000001
 30
0.0
 40
12.874771000000001
 50
161.046862
 51
184.17456200000001
  0
ARC
  5
1D2
  8
_________1
 62
     7
 10
147.62045900000001
 20
54.306860999999991
 30
0.0
 40
17.316089000000002
 50
153.27353299999999
 51
156.882892
  0
ARC
  5
1D3
  8
_________1
 62
     7
 10
153.42823200000001
 20
51.217768999999997
 30
0.0
 40
23.896045999999998
 50
145.49815599999999
 51
150.70214999999999
  0
ARC
  5
1D4
  8
_________1
 62
     7
 10
160.036779
 20
46.845863999999992
 30
0.0
 40
31.818901
 50
143.92177899999999
 51
145.750924
  0
ARC
  5
1D5
  8
_________1
 62
     7
 10
225.35190800000001
 20
-5.528103999999999
 30
0.0
 40
115.514663
 50
140.38708600000001
 51
142.003861
  0
ARC
  5
1D6
  8
_________1
 62
     7
 10
284.059349
 20
-54.184805000000011
 30
0.0
 40
191.76587799999999
 50
139.68448699999999
 51
140.03336100000001
  0
ARC
  5
1D7
  8
_________1
 62
     7
 10
207.49910700000001
 20
11.725982999999999
 30
0.0
 40
90.743374000000003
 50
139.424487
 51
139.538659
  0
ARC
  5
1D8
  8
_________1
 62
     7
 10
163.38052400000001
 20
51.903308000000003
 30
0.0
 40
31.152999999999999
 50
140.66059300000001
 51
142.773248
  0
ARC
  5
1D9
  8
_________1
 62
     7
 10
-419.57943799999993
 20
529.760986
 30
0.0
 40
722.63097199999993
 50
320.65811000000002
 51
320.845641
  0
ARC
  5
1DA
  8
_________1
 62
     7
 10
116.776957
 20
92.512460000000004
 30
0.0
 40
30.633392000000001
 50
321.59673199999997
 51
324.49288200000001
  0
ARC
  5
1DB
  8
_________1
 62
     7
 10
41.615188999999987
 20
143.123423
 30
0.0
 40
121.238238
 50
325.65304700000002
 51
326.225143
  0
ARC
  5
1DC
  8
_________1
 62
     7
 10
37.808340000000001
 20
145.50856999999999
 30
0.0
 40
125.729516
 50
326.75222300000001
 51
327.271252
  0
ARC
  5
1DD
  8
_________1
 62
     7
 10
62.041685000000001
 20
130.01228
 30
0.0
 40
96.964516000000003
 50
327.84049599999997
 51
332.47294699999998
  0
ARC
  5
1DE
  8
_________1
 62
     7
 10
68.297312000000005
 20
126.257756
 30
0.0
 40
89.684279000000004
 50
333.44989600000002
 51
334.098365
  0
ARC
  5
1DF
  8
_________1
 62
     7
 10
80.454218000000012
 20
120.380916
 30
0.0
 40
76.181214999999995
 50
334.80316099999999
 51
341.024809
  0
ARC
  5
1E0
  8
_________1
 62
     7
 10
84.925553000000008
 20
118.678842
 30
0.0
 40
71.399512999999985
 50
342.00817000000001
 51
342.95414299999999
  0
ARC
  5
1E1
  8
_________1
 62
     7
 10
87.264181000000008
 20
117.970493
 30
0.0
 40
68.955709999999996
 50
343.78192000000001
 51
348.90791400000001
  0
ARC
  5
1E2
  8
_________1
 62
     7
 10
84.68996700000001
 20
118.379509
 30
0.0
 40
71.561773000000002
 50
350.01786199999998
 51
351.01037500000001
  0
ARC
  5
1E3
  8
_________1
 62
     7
 10
86.876583999999994
 20
118.02493699999999
 30
0.0
 40
69.346140000000005
 50
352.00338599999998
 51
356.053651
  0
ARC
  5
1E4
  8
_________1
 62
     7
 10
149.57986
 20
54.900939000000001
 30
0.0
 40
10.612685000000001
 50
5.3621439999999989
 51
13.121601
  0
ARC
  5
1E5
  8
_________1
 62
     7
 10
145.94859199999999
 20
54.473393999999992
 30
0.0
 40
14.268278
 50
357.27269000000001
 51
5.7088130000000001
  0
ARC
  5
1E6
  8
_________1
 62
     7
 10
144.38170099999999
 20
54.467255000000002
 30
0.0
 40
15.832762000000001
 50
349.62823900000001
 51
353.96235000000001
  0
ARC
  5
1E7
  8
_________1
 62
     7
 10
146.50381899999999
 20
53.970106999999992
 30
0.0
 40
13.652844
 50
335.64326800000009
 51
345.83372400000002
  0
ARC
  5
1E8
  8
_________1
 62
     7
 10
149.20566299999999
 20
52.836344999999987
 30
0.0
 40
10.724204
 50
329.02273500000001
 51
335.20819599999999
  0
ARC
  5
1E9
  8
_________1
 62
     7
 10
142.248571
 20
56.838017000000001
 30
0.0
 40
18.749269000000002
 50
323.78565300000002
 51
329.48075899999998
  0
ARC
  5
1EA
  8
_________1
 62
     7
 10
144.30956599999999
 20
55.363867000000013
 30
0.0
 40
16.215869999999999
 50
315.758466
 51
319.83461299999999
  0
ARC
  5
1EB
  8
_________1
 62
     7
 10
145.666549
 20
54.01636400000001
 30
0.0
 40
14.302599000000001
 50
285.32128399999999
 51
310.94342499999999
  0
ARC
  5
1EC
  8
_________1
 62
     7
 10
145.233296
 20
55.658880000000011
 30
0.0
 40
16.002873000000001
 50
277.00914899999998
 51
280.97870699999999
  0
ARC
  5
1ED
  8
_________1
 62
     7
 10
145.05928299999999
 20
57.270684000000003
 30
0.0
 40
17.624638000000001
 50
269.91533300000009
 51
274.37482299999999
  0
ARC
  5
1EE
  8
_________1
 62
     7
 10
145.046817
 20
53.046388999999998
 30
0.0
 40
13.400331
 50
243.18049999999999
 51
269.94194099999999
  0
ARC
  5
1EF
  8
_________1
 62
     7
 10
145.097239
 20
52.906838
 30
0.0
 40
13.298909999999999
 50
231.172404
 51
236.22582800000001
  0
ARC
  5
1F0
  8
_________1
 62
     7
 10
146.240521
 20
54.170943000000008
 30
0.0
 40
15.00577
 50
211.836738
 51
225.492468
  0
ARC
  5
1F1
  8
_________1
 62
     7
 10
147.79343499999999
 20
55.247223999999989
 30
0.0
 40
16.893062
 50
209.66521800000001
 51
212.159617
  0
ARC
  5
1F2
  8
_________1
  6
AIGENLINE001
 62
     7
 10
147.15091200000001
 20
183.429757
 30
0.0
 40
10.151706000000001
 50
44.384177000000001
 51
87.642492000000004
  0
ARC
  5
1F3
  8
_________1
  6
AIGENLINE001
 62
     7
 10
146.77492100000001
 20
183.011359
 30
0.0
 40
10.713129
 50
14.463975
 51
44.576827000000002
  0
ARC
  5
1F4
  8
_________1
  6
AIGENLINE001
 62
     7
 10
148.348051
 20
183.527614
 30
0.0
 40
9.0615459999999999
 50
0.29724
 51
13.787595
  0
ARC
  5
1F5
  8
_________1
  6
AIGENLINE001
 62
     7
 10
198.38295500000001
 20
67.721226000000001
 30
0.0
 40
39.773202000000012
 50
180.00230999999999
 51
188.15684099999999
  0
ARC
  5
1F6
  8
_________1
  6
AIGENLINE001
 62
     7
 10
208.58815100000001
 20
69.001361000000003
 30
0.0
 40
50.057110999999999
 50
187.94994199999999
 51
193.5065469999999
  0
INSERT
  5
1F7
  8
_________1
 62
     7
  2
AIGNBL02010002
 10
0.0
 20
0.0
 30
0.0
  0
INSERT
  5
1F8
  8
_________1
 62
     7
  2
AIGNBL02010003
 10
0.0
 20
0.0
 30
0.0
  0
ARC
  5
1F9
  8
_________1
 62
     7
 10
157.774269
 20
150.934382
 30
0.0
 40
19.517755000000001
 50
91.070932999999997
 51
160.430553
  0
ARC
  5
1FA
  8
_________1
 62
     7
 10
157.331796
 20
151.24632099999999
 30
0.0
 40
19.202563000000001
 50
48.035744999999999
 51
89.768214
  0
INSERT
  5
1FB
  8
_________1
 62
     7
  2
AIGNBL02010004
 10
0.0
 20
0.0
 30
0.0
  0
INSERT
  5
1FC
  8
_________1
 62
     7
  2
AIGNBL02010006
 10
0.0
 20
0.0
 30
0.0
  0
INSERT
  5
1FD
  8
_________1
 62
     7
  2
AIGNBL02010008
 10
0.0
 20
0.0
 30
0.0
  0
LINE
  5
1FE
  8
_________1
 62
     7
 10
151.89099999999999
 20
117.247
 30
0.0
 11
141.95599999999999
 21
117.247
 31
0.0
  0
INSERT
  5
1FF
  8
_________1
 62
     7
  2
AIGNBL0201000A
 10
0.0
 20
0.0
 30
0.0
  0
INSERT
  5
200
  8
_________1
 62
     7
  2
AIGNBL0201000B
 10
0.0
 20
0.0
 30
0.0
  0
LINE
  5
201
  8
_________1
 62
     7
 10
112.008
 20
180.94099999999989
 30
0.0
 11
112.008
 21
190.75399999999999
 31
0.0
  0
INSERT
  5
202
  8
_________1
 62
     7
  2
AIGNBL0201000C
 10
0.0
 20
0.0
 30
0.0
  0
INSERT
  5
203
  8
_________1
 62
     7
  2
AIGNBL0201000D
 10
0.0
 20
0.0
 30
0.0
  0
INSERT
  5
204
  8
_________1
 62
     7
  2
AIGNBL0201000E
 10
0.0
 20
0.0
 30
0.0
  0
INSERT
  5
205
  8
_________1
 62
     7
  2
AIGNBL0201000F
 10
0.0
 20
0.0
 30
0.0
  0
INSERT
  5
206
  8
_________1
 62
     7
  2
AIGNBL02010010
 10
0.0
 20
0.0
 30
0.0
  0
INSERT
  5
207
  8
_________1
 62
     7
  2
AIGNBL02010011
 10
0.0
 20
0.0
 30
0.0
  0
LINE
  5
208
  8
_________1
 62
     7
 10
60.459200000000003
 20
171.94399999999999
 30
0.0
 11
62.671000000000006
 21
172.536
 31
0.0
  0
LINE
  5
209
  8
_________1
 62
     7
 10
62.671000000000006
 20
172.536
 30
0.0
 11
60.459200000000003
 21
173.12899999999999
 31
0.0
  0
LINE
  5
20A
  8
_________1
 62
     7
 10
60.459200000000003
 20
173.12899999999999
 30
0.0
 11
60.459200000000003
 21
171.94399999999999
 31
0.0
  0
LINE
  5
20B
  8
_________1
 62
     7
 10
46.08209999999999
 20
173.12899999999999
 30
0.0
 11
43.871000000000002
 21
172.536
 31
0.0
  0
LINE
  5
20C
  8
_________1
 62
     7
 10
43.871000000000002
 20
172.536
 30
0.0
 11
46.08209999999999
 21
171.94399999999999
 31
0.0
  0
LINE
  5
20D
  8
_________1
 62
     7
 10
46.08209999999999
 20
171.94399999999999
 30
0.0
 11
46.08209999999999
 21
173.12899999999999
 31
0.0
  0
LINE
  5
20E
  8
_________1
 62
     7
 10
66.642499999999998
 20
184.6809999999999
 30
0.0
 11
68.854299999999995
 21
185.274
 31
0.0
  0
LINE
  5
20F
  8
_________1
 62
     7
 10
68.854299999999995
 20
185.274
 30
0.0
 11
66.642499999999998
 21
185.86600000000001
 31
0.0
  0
LINE
  5
210
  8
_________1
 62
     7
 10
66.642499999999998
 20
185.86600000000001
 30
0.0
 11
66.642499999999998
 21
184.6809999999999
 31
0.0
  0
LINE
  5
211
  8
_________1
 62
     7
 10
46.08209999999999
 20
185.86600000000001
 30
0.0
 11
43.871000000000002
 21
185.274
 31
0.0
  0
LINE
  5
212
  8
_________1
 62
     7
 10
43.871000000000002
 20
185.274
 30
0.0
 11
46.08209999999999
 21
184.6809999999999
 31
0.0
  0
LINE
  5
213
  8
_________1
 62
     7
 10
46.08209999999999
 20
184.6809999999999
 30
0.0
 11
46.08209999999999
 21
185.86600000000001
 31
0.0
  0
LINE
  5
214
  8
_________1
 62
     7
 10
68.854299999999995
 20
185.274
 30
0.0
 11
43.871000000000002
 21
185.274
 31
0.0
  0
LINE
  5
215
  8
_________1
 62
     7
 10
68.854299999999995
 20
165.55000000000001
 30
0.0
 11
68.854299999999995
 21
185.97399999999999
 31
0.0
  0
INSERT
  5
216
  8
_________1
 62
     7
  2
AIGNBL02010012
 10
0.0
 20
0.0
 30
0.0
  0
LINE
  5
217
  8
_________1
 62
     7
 10
60.459200000000003
 20
178.18299999999999
 30
0.0
 11
62.671000000000006
 21
178.77500000000001
 31
0.0
  0
LINE
  5
218
  8
_________1
 62
     7
 10
62.671000000000006
 20
178.77500000000001
 30
0.0
 11
60.459200000000003
 21
179.36799999999999
 31
0.0
  0
LINE
  5
219
  8
_________1
 62
     7
 10
60.459200000000003
 20
179.36799999999999
 30
0.0
 11
60.459200000000003
 21
178.18299999999999
 31
0.0
  0
LINE
  5
21A
  8
_________1
 62
     7
 10
40.281500000000001
 20
179.36799999999999
 30
0.0
 11
38.070399999999999
 21
178.77500000000001
 31
0.0
  0
LINE
  5
21B
  8
_________1
 62
     7
 10
38.070399999999999
 20
178.77500000000001
 30
0.0
 11
40.281500000000001
 21
178.18299999999999
 31
0.0
  0
LINE
  5
21C
  8
_________1
 62
     7
 10
40.281500000000001
 20
178.18299999999999
 30
0.0
 11
40.281500000000001
 21
179.36799999999999
 31
0.0
  0
INSERT
  5
21D
  8
_________1
 62
     7
  2
AIGNBL02010013
 10
0.0
 20
0.0
 30
0.0
  0
LINE
  5
21E
  8
_________1
 62
     7
 10
151.62200000000001
 20
110.56
 30
0.0
 11
139.72900000000001
 21
110.56
 31
0.0
  0
LINE
  5
21F
  8
_________1
 62
     7
 10
177.62799999999999
 20
61.452599999999997
 30
0.0
 11
160.179
 21
61.452599999999997
 31
0.0
  0
INSERT
  5
220
  8
_________1
 62
     7
  2
AIGNBL02010014
 10
0.0
 20
0.0
 30
0.0
  0
INSERT
  5
221
  8
_________1
 62
     7
  2
AIGNBL02010015
 10
0.0
 20
0.0
 30
0.0
  0
LINE
  5
222
  8
_________1
 62
     7
 10
169.97200000000001
 20
93.446700000000007
 30
0.0
 11
161.38
 21
93.446700000000007
 31
0.0
  0
LINE
  5
223
  8
_________1
 62
     7
 10
177.614
 20
163.24700000000001
 30
0.0
 11
169.27699999999999
 21
163.24700000000001
 31
0.0
  0
LINE
  5
224
  8
_________1
 62
     7
 10
177.614
 20
131.447
 30
0.0
 11
162.93600000000001
 21
131.447
 31
0.0
  0
LINE
  5
225
  8
_________1
 62
     7
 10
122.91200000000001
 20
154.23599999999999
 30
0.0
 11
122.31999999999999
 21
156.447
 31
0.0
  0
LINE
  5
226
  8
_________1
 62
     7
 10
122.31999999999999
 20
156.447
 30
0.0
 11
121.727
 21
154.23599999999999
 31
0.0
  0
LINE
  5
227
  8
_________1
 62
     7
 10
121.727
 20
154.23599999999999
 30
0.0
 11
122.91200000000001
 21
154.23599999999999
 31
0.0
  0
LINE
  5
228
  8
_________1
 62
     7
 10
122.91200000000001
 20
129.23500000000001
 30
0.0
 11
122.31999999999999
 21
131.447
 31
0.0
  0
LINE
  5
229
  8
_________1
 62
     7
 10
122.31999999999999
 20
131.447
 30
0.0
 11
121.727
 21
129.23500000000001
 31
0.0
  0
LINE
  5
22A
  8
_________1
 62
     7
 10
121.727
 20
129.23500000000001
 30
0.0
 11
122.91200000000001
 21
129.23500000000001
 31
0.0
  0
LINE
  5
22B
  8
_________1
 62
     7
 10
176.321
 20
133.65899999999999
 30
0.0
 11
176.91399999999999
 21
131.447
 31
0.0
  0
LINE
  5
22C
  8
_________1
 62
     7
 10
176.91399999999999
 20
131.447
 30
0.0
 11
177.506
 21
133.65899999999999
 31
0.0
  0
LINE
  5
22D
  8
_________1
 62
     7
 10
177.506
 20
133.65899999999999
 30
0.0
 11
176.321
 21
133.65899999999999
 31
0.0
  0
LINE
  5
22E
  8
_________1
 62
     7
 10
121.727
 20
133.65799999999999
 30
0.0
 11
122.31999999999999
 21
131.447
 31
0.0
  0
LINE
  5
22F
  8
_________1
 62
     7
 10
122.31999999999999
 20
131.447
 30
0.0
 11
122.91200000000001
 21
133.65799999999999
 31
0.0
  0
LINE
  5
230
  8
_________1
 62
     7
 10
122.91200000000001
 20
133.65799999999999
 30
0.0
 11
121.727
 21
133.65799999999999
 31
0.0
  0
LINE
  5
231
  8
_________1
 62
     7
 10
121.727
 20
40.657899999999991
 30
0.0
 11
122.31999999999999
 21
38.446100000000001
 31
0.0
  0
LINE
  5
232
  8
_________1
 62
     7
 10
122.31999999999999
 20
38.446100000000001
 30
0.0
 11
122.91200000000001
 21
40.657899999999991
 31
0.0
  0
LINE
  5
233
  8
_________1
 62
     7
 10
122.91200000000001
 20
40.657899999999991
 30
0.0
 11
121.727
 21
40.657899999999991
 31
0.0
  0
LINE
  5
234
  8
_________1
 62
     7
 10
122.31999999999999
 20
156.447
 30
0.0
 11
122.31999999999999
 21
38.446100000000001
 31
0.0
  0
LINE
  5
235
  8
_________1
 62
     7
 10
140.84899999999999
 20
38.446100000000001
 30
0.0
 11
121.62
 21
38.446100000000001
 31
0.0
  0
LINE
  5
236
  8
_________1
 62
     7
 10
32.637099999999997
 20
56.073399999999999
 30
0.0
 11
32.637099999999997
 21
61.100499999999997
 31
0.0
  0
LINE
  5
237
  8
_________1
 62
     7
 10
35.937600000000003
 20
56.073399999999999
 30
0.0
 11
35.937600000000003
 21
61.100499999999997
 31
0.0
  0
INSERT
  5
238
  8
_________1
 62
     7
  2
AIGNBL02010016
 10
0.0
 20
0.0
 30
0.0
  0
LINE
  5
239
  8
_________1
 62
     7
 10
162.21000000000001
 20
118.447
 30
0.0
 11
162.21000000000001
 21
118.047
 31
0.0
  0
LINE
  5
23A
  8
_________1
 62
     7
 10
152.608
 20
118.447
 30
0.0
 11
162.21000000000001
 21
118.447
 31
0.0
  0
LINE
  5
23B
  8
_________1
 62
     7
 10
152.608
 20
118.047
 30
0.0
 11
152.608
 21
118.447
 31
0.0
  0
LINE
  5
23C
  8
_________1
 62
     7
 10
162.21000000000001
 20
118.047
 30
0.0
 11
152.608
 21
118.047
 31
0.0
  0
LINE
  5
23D
  8
_________1
 62
     7
 10
162.21000000000001
 20
118.047
 30
0.0
 11
162.21000000000001
 21
117.747
 31
0.0
  0
LINE
  5
23E
  8
_________1
 62
     7
 10
152.608
 20
118.047
 30
0.0
 11
162.21000000000001
 21
118.047
 31
0.0
  0
LINE
  5
23F
  8
_________1
 62
     7
 10
152.608
 20
117.747
 30
0.0
 11
152.608
 21
118.047
 31
0.0
  0
LINE
  5
240
  8
_________1
 62
     7
 10
162.21000000000001
 20
117.747
 30
0.0
 11
152.608
 21
117.747
 31
0.0
  0
LINE
  5
241
  8
_________1
 62
     7
 10
161.81
 20
117.747
 30
0.0
 11
161.81
 21
117.247
 31
0.0
  0
LINE
  5
242
  8
_________1
 62
     7
 10
153.00899999999999
 20
117.747
 30
0.0
 11
161.81
 21
117.747
 31
0.0
  0
LINE
  5
243
  8
_________1
 62
     7
 10
153.00899999999999
 20
117.247
 30
0.0
 11
153.00899999999999
 21
117.747
 31
0.0
  0
LINE
  5
244
  8
_________1
 62
     7
 10
161.81
 20
117.247
 30
0.0
 11
153.00899999999999
 21
117.247
 31
0.0
  0
LINE
  5
245
  8
_________1
 62
     7
 10
160.71000000000001
 20
131.447
 30
0.0
 11
160.71000000000001
 21
123.44799999999999
 31
0.0
  0
LINE
  5
246
  8
_________1
 62
     7
 10
154.11000000000001
 20
131.447
 30
0.0
 11
160.71000000000001
 21
131.447
 31
0.0
  0
LINE
  5
247
  8
_________1
 62
     7
 10
154.11000000000001
 20
123.44799999999999
 30
0.0
 11
154.11000000000001
 21
131.447
 31
0.0
  0
LINE
  5
248
  8
_________1
 62
     7
 10
160.71000000000001
 20
123.44799999999999
 30
0.0
 11
154.11000000000001
 21
123.44799999999999
 31
0.0
  0
LINE
  5
249
  8
_________1
 62
     7
 10
154.31
 20
131.447
 30
0.0
 11
154.31
 21
123.44799999999999
 31
0.0
  0
LINE
  5
24A
  8
_________1
 62
     7
 10
160.50899999999999
 20
131.447
 30
0.0
 11
160.50899999999999
 21
123.44799999999999
 31
0.0
  0
LINE
  5
24B
  8
_________1
 62
     7
 10
160.71000000000001
 20
115.84699999999999
 30
0.0
 11
160.71000000000001
 21
113.64700000000001
 31
0.0
  0
LINE
  5
24C
  8
_________1
 62
     7
 10
154.11000000000001
 20
115.84699999999999
 30
0.0
 11
160.71000000000001
 21
115.84699999999999
 31
0.0
  0
LINE
  5
24D
  8
_________1
 62
     7
 10
154.11000000000001
 20
113.64700000000001
 30
0.0
 11
154.11000000000001
 21
115.84699999999999
 31
0.0
  0
LINE
  5
24E
  8
_________1
 62
     7
 10
154.31
 20
113.447
 30
0.0
 11
154.11000000000001
 21
113.64700000000001
 31
0.0
  0
LINE
  5
24F
  8
_________1
 62
     7
 10
160.50899999999999
 20
113.447
 30
0.0
 11
154.31
 21
113.447
 31
0.0
  0
LINE
  5
250
  8
_________1
 62
     7
 10
160.71000000000001
 20
113.64700000000001
 30
0.0
 11
160.50899999999999
 21
113.447
 31
0.0
  0
LINE
  5
251
  8
_________1
 62
     7
 10
160.71000000000001
 20
113.64700000000001
 30
0.0
 11
154.11000000000001
 21
113.64700000000001
 31
0.0
  0
LINE
  5
252
  8
_________1
 62
     7
 10
154.31
 20
115.84699999999999
 30
0.0
 11
154.31
 21
113.447
 31
0.0
  0
LINE
  5
253
  8
_________1
 62
     7
 10
160.50899999999999
 20
115.84699999999999
 30
0.0
 11
160.50899999999999
 21
113.447
 31
0.0
  0
ARC
  5
254
  8
_________1
 62
     7
 10
160.72966600000001
 20
118.220189
 30
0.0
 40
2.383497999999999
 50
241.96857600000001
 51
264.69736799999998
  0
LINE
  5
255
  8
_________1
 62
     7
 10
159.61000000000001
 20
117.247
 30
0.0
 11
159.61000000000001
 21
116.116
 31
0.0
  0
ARC
  5
256
  8
_________1
 62
     7
 10
158.65566999999999
 20
116.565477
 30
0.0
 40
0.718857
 50
268.42695500000002
 51
310.19677300000001
  0
ARC
  5
257
  8
_________1
 62
     7
 10
158.84243499999999
 20
116.35502
 30
0.0
 40
0.437615
 50
309.30326400000001
 51
326.94100600000002
  0
LINE
  5
258
  8
_________1
 62
     7
 10
159.21000000000001
 20
117.247
 30
0.0
 11
159.21000000000001
 21
116.116
 31
0.0
  0
LINE
  5
259
  8
_________1
 62
     7
 10
160.768
 20
115.84699999999999
 30
0.0
 11
157.40899999999999
 21
115.84699999999999
 31
0.0
  0
ARC
  5
25A
  8
_________1
 62
     7
 10
160.78650999999999
 20
116.87948
 30
0.0
 40
1.0327589999999991
 50
268.96059400000001
 51
286.70371599999999
  0
ARC
  5
25B
  8
_________1
 62
     7
 10
160.959093
 20
116.35898
 30
0.0
 40
0.484871
 50
284.84844399999997
 51
327.77885900000001
  0
ARC
  5
25C
  8
_________1
 62
     7
 10
161.12135599999999
 20
116.25757299999999
 30
0.0
 40
0.293529
 50
327.63688200000001
 51
348.76030400000002
  0
LINE
  5
25D
  8
_________1
 62
     7
 10
161.41
 20
117.247
 30
0.0
 11
161.41
 21
116.2
 31
0.0
  0
LINE
  5
25E
  8
_________1
 62
     7
 10
157.40899999999999
 20
117.247
 30
0.0
 11
161.41
 21
117.247
 31
0.0
  0
LINE
  5
25F
  8
_________1
 62
     7
 10
159.21000000000001
 20
116.116
 30
0.0
 11
159.61000000000001
 21
116.116
 31
0.0
  0
ARC
  5
260
  8
_________1
 62
     7
 10
154.09526
 20
118.200227
 30
0.0
 40
2.3630729999999991
 50
275.20309600000002
 51
298.13099999999997
  0
LINE
  5
261
  8
_________1
 62
     7
 10
155.209
 20
117.247
 30
0.0
 11
155.209
 21
116.116
 31
0.0
  0
ARC
  5
262
  8
_________1
 62
     7
 10
156.16087899999999
 20
116.55871500000001
 30
0.0
 40
0.712147
 50
229.59964600000001
 51
271.72565400000002
  0
ARC
  5
263
  8
_________1
 62
     7
 10
155.974423
 20
116.355661
 30
0.0
 40
0.4367910000000001
 50
213.229962
 51
230.96243100000001
  0
LINE
  5
264
  8
_________1
 62
     7
 10
155.608
 20
117.247
 30
0.0
 11
155.608
 21
116.116
 31
0.0
  0
LINE
  5
265
  8
_________1
 62
     7
 10
154.054
 20
115.84699999999999
 30
0.0
 11
157.40899999999999
 21
115.84699999999999
 31
0.0
  0
ARC
  5
266
  8
_________1
 62
     7
 10
154.03518399999999
 20
116.87939
 30
0.0
 40
1.0326690000000001
 50
253.295525
 51
271.04020400000002
  0
ARC
  5
267
  8
_________1
 62
     7
 10
153.866299
 20
116.368077
 30
0.0
 40
0.494611
 50
212.75733500000001
 51
255.00884600000001
  0
ARC
  5
268
  8
_________1
 62
     7
 10
153.68267900000001
 20
116.253212
 30
0.0
 40
0.278054
 50
190.95730900000001
 51
213.32520199999999
  0
LINE
  5
269
  8
_________1
 62
     7
 10
153.41
 20
117.247
 30
0.0
 11
153.41
 21
116.2
 31
0.0
  0
LINE
  5
26A
  8
_________1
 62
     7
 10
157.40899999999999
 20
117.247
 30
0.0
 11
153.41
 21
117.247
 31
0.0
  0
LINE
  5
26B
  8
_________1
 62
     7
 10
155.608
 20
116.116
 30
0.0
 11
155.209
 21
116.116
 31
0.0
  0
INSERT
  5
26C
  8
_________1
 62
     7
  2
AIGNBL02010018
 10
0.0
 20
0.0
 30
0.0
  0
INSERT
  5
26D
  8
_________1
 62
     7
  2
AIGNBL02010019
 10
0.0
 20
0.0
 30
0.0
  0
LINE
  5
26E
  8
_________1
 62
     7
 10
151.62200000000001
 20
110.56
 30
0.0
 11
154.14099999999999
 21
120.307
 31
0.0
  0
INSERT
  5
26F
  8
_________1
 62
     7
  2
AIGNBL0201001A
 10
0.0
 20
0.0
 30
0.0
  0
LINE
  5
270
  8
_________1
 62
     7
 10
148.40899999999999
 20
123.44799999999999
 30
0.0
 11
166.40899999999999
 21
123.44799999999999
 31
0.0
  0
LINE
  5
271
  8
_________1
 62
     7
 10
148.40899999999999
 20
122.447
 30
0.0
 11
166.40899999999999
 21
122.447
 31
0.0
  0
LINE
  5
272
  8
_________1
 62
     7
 10
148.40899999999999
 20
122.447
 30
0.0
 11
148.40899999999999
 21
123.44799999999999
 31
0.0
  0
LINE
  5
273
  8
_________1
 62
     7
 10
152.41
 20
118.447
 30
0.0
 11
162.41
 21
118.447
 31
0.0
  0
LINE
  5
274
  8
_________1
 62
     7
 10
152.41
 20
118.447
 30
0.0
 11
152.41
 21
122.447
 31
0.0
  0
LINE
  5
275
  8
_________1
 62
     7
 10
152.41
 20
118.84699999999999
 30
0.0
 11
148.81
 21
122.447
 31
0.0
  0
LINE
  5
276
  8
_________1
 62
     7
 10
152.81
 20
118.447
 30
0.0
 11
152.81
 21
122.447
 31
0.0
  0
LINE
  5
277
  8
_________1
 62
     7
 10
154.81
 20
118.447
 30
0.0
 11
154.81
 21
122.447
 31
0.0
  0
LINE
  5
278
  8
_________1
 62
     7
 10
155.209
 20
118.447
 30
0.0
 11
155.209
 21
122.447
 31
0.0
  0
LINE
  5
279
  8
_________1
 62
     7
 10
157.21000000000001
 20
118.447
 30
0.0
 11
157.21000000000001
 21
122.447
 31
0.0
  0
LINE
  5
27A
  8
_________1
 62
     7
 10
166.40899999999999
 20
122.447
 30
0.0
 11
166.40899999999999
 21
123.44799999999999
 31
0.0
  0
LINE
  5
27B
  8
_________1
 62
     7
 10
162.41
 20
118.447
 30
0.0
 11
162.41
 21
122.447
 31
0.0
  0
LINE
  5
27C
  8
_________1
 62
     7
 10
162.41
 20
118.84699999999999
 30
0.0
 11
166.00999999999999
 21
122.447
 31
0.0
  0
LINE
  5
27D
  8
_________1
 62
     7
 10
162.00899999999999
 20
118.447
 30
0.0
 11
162.00899999999999
 21
122.447
 31
0.0
  0
LINE
  5
27E
  8
_________1
 62
     7
 10
160.00999999999999
 20
118.447
 30
0.0
 11
160.00999999999999
 21
122.447
 31
0.0
  0
LINE
  5
27F
  8
_________1
 62
     7
 10
159.61000000000001
 20
118.447
 30
0.0
 11
159.61000000000001
 21
122.447
 31
0.0
  0
LINE
  5
280
  8
_________1
 62
     7
 10
157.61000000000001
 20
118.447
 30
0.0
 11
157.61000000000001
 21
122.447
 31
0.0
  0
LINE
  5
281
  8
_________1
 62
     7
 10
48.570799999999991
 20
118.447
 30
0.0
 11
48.570799999999991
 21
118.047
 31
0.0
  0
LINE
  5
282
  8
_________1
 62
     7
 10
38.970599999999997
 20
118.447
 30
0.0
 11
48.570799999999991
 21
118.447
 31
0.0
  0
LINE
  5
283
  8
_________1
 62
     7
 10
38.970599999999997
 20
118.047
 30
0.0
 11
38.970599999999997
 21
118.447
 31
0.0
  0
LINE
  5
284
  8
_________1
 62
     7
 10
48.570799999999991
 20
118.047
 30
0.0
 11
38.970599999999997
 21
118.047
 31
0.0
  0
LINE
  5
285
  8
_________1
 62
     7
 10
48.570799999999991
 20
118.047
 30
0.0
 11
48.570799999999991
 21
117.747
 31
0.0
  0
LINE
  5
286
  8
_________1
 62
     7
 10
38.970599999999997
 20
118.047
 30
0.0
 11
48.570799999999991
 21
118.047
 31
0.0
  0
LINE
  5
287
  8
_________1
 62
     7
 10
38.970599999999997
 20
117.747
 30
0.0
 11
38.970599999999997
 21
118.047
 31
0.0
  0
LINE
  5
288
  8
_________1
 62
     7
 10
48.570799999999991
 20
117.747
 30
0.0
 11
38.970599999999997
 21
117.747
 31
0.0
  0
LINE
  5
289
  8
_________1
 62
     7
 10
48.171199999999999
 20
117.747
 30
0.0
 11
48.171199999999999
 21
117.247
 31
0.0
  0
LINE
  5
28A
  8
_________1
 62
     7
 10
39.37060000000001
 20
117.747
 30
0.0
 11
48.171199999999999
 21
117.747
 31
0.0
  0
LINE
  5
28B
  8
_________1
 62
     7
 10
39.37060000000001
 20
117.247
 30
0.0
 11
39.37060000000001
 21
117.747
 31
0.0
  0
LINE
  5
28C
  8
_________1
 62
     7
 10
48.171199999999999
 20
117.247
 30
0.0
 11
39.37060000000001
 21
117.247
 31
0.0
  0
LINE
  5
28D
  8
_________1
 62
     7
 10
47.070799999999998
 20
131.447
 30
0.0
 11
47.070799999999998
 21
123.44799999999999
 31
0.0
  0
LINE
  5
28E
  8
_________1
 62
     7
 10
40.470999999999989
 20
131.447
 30
0.0
 11
47.070799999999998
 21
131.447
 31
0.0
  0
LINE
  5
28F
  8
_________1
 62
     7
 10
40.470999999999989
 20
123.44799999999999
 30
0.0
 11
40.470999999999989
 21
131.447
 31
0.0
  0
LINE
  5
290
  8
_________1
 62
     7
 10
47.070799999999998
 20
123.44799999999999
 30
0.0
 11
40.470999999999989
 21
123.44799999999999
 31
0.0
  0
LINE
  5
291
  8
_________1
 62
     7
 10
40.670799999999993
 20
131.447
 30
0.0
 11
40.670799999999993
 21
123.44799999999999
 31
0.0
  0
LINE
  5
292
  8
_________1
 62
     7
 10
46.871000000000002
 20
131.447
 30
0.0
 11
46.871000000000002
 21
123.44799999999999
 31
0.0
  0
LINE
  5
293
  8
_________1
 62
     7
 10
47.070799999999998
 20
115.84699999999999
 30
0.0
 11
47.070799999999998
 21
113.64700000000001
 31
0.0
  0
LINE
  5
294
  8
_________1
 62
     7
 10
40.470999999999989
 20
115.84699999999999
 30
0.0
 11
47.070799999999998
 21
115.84699999999999
 31
0.0
  0
LINE
  5
295
  8
_________1
 62
     7
 10
40.470999999999989
 20
113.64700000000001
 30
0.0
 11
40.470999999999989
 21
115.84699999999999
 31
0.0
  0
LINE
  5
296
  8
_________1
 62
     7
 10
40.670799999999993
 20
113.447
 30
0.0
 11
40.470999999999989
 21
113.64700000000001
 31
0.0
  0
LINE
  5
297
  8
_________1
 62
     7
 10
46.871000000000002
 20
113.447
 30
0.0
 11
40.670799999999993
 21
113.447
 31
0.0
  0
LINE
  5
298
  8
_________1
 62
     7
 10
47.070799999999998
 20
113.64700000000001
 30
0.0
 11
46.871000000000002
 21
113.447
 31
0.0
  0
LINE
  5
299
  8
_________1
 62
     7
 10
42.510899999999999
 20
96.246900000000011
 30
0.0
 11
42.070899999999988
 21
96.246900000000011
 31
0.0
  0
LINE
  5
29A
  8
_________1
 62
     7
 10
45.470899999999993
 20
96.246900000000011
 30
0.0
 11
45.031300000000002
 21
96.246900000000011
 31
0.0
  0
LINE
  5
29B
  8
_________1
 62
     7
 10
42.510899999999999
 20
93.446700000000007
 30
0.0
 11
42.070899999999988
 21
93.446700000000007
 31
0.0
  0
LINE
  5
29C
  8
_________1
 62
     7
 10
45.470899999999993
 20
93.446700000000007
 30
0.0
 11
45.031300000000002
 21
93.446700000000007
 31
0.0
  0
LINE
  5
29D
  8
_________1
 62
     7
 10
42.510899999999999
 20
90.246899999999997
 30
0.0
 11
42.4709
 21
90.246899999999997
 31
0.0
  0
LINE
  5
29E
  8
_________1
 62
     7
 10
45.070900000000002
 20
90.246899999999997
 30
0.0
 11
45.031300000000002
 21
90.246899999999997
 31
0.0
  0
LINE
  5
29F
  8
_________1
 62
     7
 10
47.070799999999998
 20
113.64700000000001
 30
0.0
 11
40.470999999999989
 21
113.64700000000001
 31
0.0
  0
LINE
  5
2A0
  8
_________1
 62
     7
 10
40.670799999999993
 20
115.84699999999999
 30
0.0
 11
40.670799999999993
 21
113.447
 31
0.0
  0
LINE
  5
2A1
  8
_________1
 62
     7
 10
46.871000000000002
 20
115.84699999999999
 30
0.0
 11
46.871000000000002
 21
113.447
 31
0.0
  0
ARC
  5
2A2
  8
_________1
 62
     7
 10
47.091909000000001
 20
118.223767
 30
0.0
 40
2.387119999999999
 50
241.988032
 51
264.68996200000009
  0
LINE
  5
2A3
  8
_________1
 62
     7
 10
45.970799999999997
 20
117.247
 30
0.0
 11
45.970799999999997
 21
116.116
 31
0.0
  0
ARC
  5
2A4
  8
_________1
 62
     7
 10
45.017201999999997
 20
116.564734
 30
0.0
 40
0.718112
 50
268.43090599999999
 51
310.21831200000003
  0
ARC
  5
2A5
  8
_________1
 62
     7
 10
45.210295000000002
 20
116.350341
 30
0.0
 40
0.4298180000000001
 50
309.01708600000001
 51
327.00849799999997
  0
LINE
  5
2A6
  8
_________1
 62
     7
 10
45.570799999999998
 20
117.247
 30
0.0
 11
45.570799999999998
 21
116.116
 31
0.0
  0
LINE
  5
2A7
  8
_________1
 62
     7
 10
47.12939999999999
 20
115.84699999999999
 30
0.0
 11
43.770699999999991
 21
115.84699999999999
 31
0.0
  0
ARC
  5
2A8
  8
_________1
 62
     7
 10
47.148042999999987
 20
116.877618
 30
0.0
 40
1.0308959999999989
 50
268.96248200000002
 51
286.71873499999998
  0
ARC
  5
2A9
  8
_________1
 62
     7
 10
47.320450000000001
 20
116.359516
 30
0.0
 40
0.4853640000000001
 50
284.8208029999999
 51
327.74066900000003
  0
ARC
  5
2AA
  8
_________1
 62
     7
 10
47.485008999999998
 20
116.256753
 30
0.0
 40
0.291358
 50
327.55724199999997
 51
348.839944
  0
LINE
  5
2AB
  8
_________1
 62
     7
 10
47.770899999999997
 20
117.247
 30
0.0
 11
47.770899999999997
 21
116.2
 31
0.0
  0
LINE
  5
2AC
  8
_________1
 62
     7
 10
43.770699999999991
 20
117.247
 30
0.0
 11
47.770899999999997
 21
117.247
 31
0.0
  0
LINE
  5
2AD
  8
_________1
 62
     7
 10
45.570799999999998
 20
116.116
 30
0.0
 11
45.970799999999997
 21
116.116
 31
0.0
  0
ARC
  5
2AE
  8
_________1
 62
     7
 10
40.456789999999998
 20
118.20074099999999
 30
0.0
 40
2.3635599999999992
 50
275.19538399999999
 51
298.12666200000001
  0
LINE
  5
2AF
  8
_________1
 62
     7
 10
41.570999999999998
 20
117.247
 30
0.0
 11
41.570999999999998
 21
116.116
 31
0.0
  0
ARC
  5
2B0
  8
_________1
 62
     7
 10
42.523016999999989
 20
116.56024600000001
 30
0.0
 40
0.7136610000000001
 50
229.64646099999999
 51
271.67883899999998
  0
ARC
  5
2B1
  8
_________1
 62
     7
 10
42.336024000000002
 20
116.355661
 30
0.0
 40
0.4367910000000001
 50
213.229962
 51
230.96243100000001
  0
LINE
  5
2B2
  8
_________1
 62
     7
 10
41.970700000000001
 20
117.247
 30
0.0
 11
41.970700000000001
 21
116.116
 31
0.0
  0
LINE
  5
2B3
  8
_________1
 62
     7
 10
40.415199999999999
 20
115.84699999999999
 30
0.0
 11
43.770699999999991
 21
115.84699999999999
 31
0.0
  0
ARC
  5
2B4
  8
_________1
 62
     7
 10
40.394528000000001
 20
116.863145
 30
0.0
 40
1.016464
 50
253.154191
 51
271.16463199999998
  0
ARC
  5
2B5
  8
_________1
 62
     7
 10
40.225451
 20
116.36472000000001
 30
0.0
 40
0.4907370000000001
 50
212.58248800000001
 51
255.18369300000001
  0
ARC
  5
2B6
  8
_________1
 62
     7
 10
40.052951999999998
 20
116.257712
 30
0.0
 40
0.287774
 50
191.49579900000001
 51
213.12531800000011
  0
LINE
  5
2B7
  8
_________1
 62
     7
 10
39.771000000000001
 20
117.247
 30
0.0
 11
39.771000000000001
 21
116.2
 31
0.0
  0
LINE
  5
2B8
  8
_________1
 62
     7
 10
43.770699999999991
 20
117.247
 30
0.0
 11
39.771000000000001
 21
117.247
 31
0.0
  0
LINE
  5
2B9
  8
_________1
 62
     7
 10
41.970700000000001
 20
116.116
 30
0.0
 11
41.570999999999998
 21
116.116
 31
0.0
  0
LINE
  5
2BA
  8
_________1
 62
     7
 10
34.771099999999997
 20
123.44799999999999
 30
0.0
 11
52.771099999999997
 21
123.44799999999999
 31
0.0
  0
LINE
  5
2BB
  8
_________1
 62
     7
 10
34.771099999999997
 20
122.447
 30
0.0
 11
52.771099999999997
 21
122.447
 31
0.0
  0
LINE
  5
2BC
  8
_________1
 62
     7
 10
34.771099999999997
 20
122.447
 30
0.0
 11
34.771099999999997
 21
123.44799999999999
 31
0.0
  0
LINE
  5
2BD
  8
_________1
 62
     7
 10
38.770800000000001
 20
118.447
 30
0.0
 11
48.771299999999997
 21
118.447
 31
0.0
  0
LINE
  5
2BE
  8
_________1
 62
     7
 10
38.770800000000001
 20
118.447
 30
0.0
 11
38.770800000000001
 21
122.447
 31
0.0
  0
LINE
  5
2BF
  8
_________1
 62
     7
 10
38.770800000000001
 20
118.84699999999999
 30
0.0
 11
35.170999999999999
 21
122.447
 31
0.0
  0
LINE
  5
2C0
  8
_________1
 62
     7
 10
39.1708
 20
118.447
 30
0.0
 11
39.1708
 21
122.447
 31
0.0
  0
LINE
  5
2C1
  8
_________1
 62
     7
 10
41.170999999999999
 20
118.447
 30
0.0
 11
41.170999999999999
 21
122.447
 31
0.0
  0
LINE
  5
2C2
  8
_________1
 62
     7
 10
41.570999999999998
 20
118.447
 30
0.0
 11
41.570999999999998
 21
122.447
 31
0.0
  0
LINE
  5
2C3
  8
_________1
 62
     7
 10
43.570900000000002
 20
118.447
 30
0.0
 11
43.570900000000002
 21
122.447
 31
0.0
  0
LINE
  5
2C4
  8
_________1
 62
     7
 10
52.771099999999997
 20
122.447
 30
0.0
 11
52.771099999999997
 21
123.44799999999999
 31
0.0
  0
LINE
  5
2C5
  8
_________1
 62
     7
 10
48.771299999999997
 20
118.447
 30
0.0
 11
48.771299999999997
 21
122.447
 31
0.0
  0
LINE
  5
2C6
  8
_________1
 62
     7
 10
48.771299999999997
 20
118.84699999999999
 30
0.0
 11
52.370800000000003
 21
122.447
 31
0.0
  0
LINE
  5
2C7
  8
_________1
 62
     7
 10
48.371000000000002
 20
118.447
 30
0.0
 11
48.371000000000002
 21
122.447
 31
0.0
  0
LINE
  5
2C8
  8
_________1
 62
     7
 10
46.370800000000003
 20
118.447
 30
0.0
 11
46.370800000000003
 21
122.447
 31
0.0
  0
LINE
  5
2C9
  8
_________1
 62
     7
 10
45.971099999999993
 20
118.447
 30
0.0
 11
45.971099999999993
 21
122.447
 31
0.0
  0
LINE
  5
2CA
  8
_________1
 62
     7
 10
43.9709
 20
118.447
 30
0.0
 11
43.9709
 21
122.447
 31
0.0
  0
LINE
  5
2CB
  8
_________1
 62
     7
 10
45.031300000000002
 20
39.706400000000002
 30
0.0
 11
45.031300000000002
 21
46.28029999999999
 31
0.0
  0
ARC
  5
2CC
  8
_________1
 62
     7
 10
43.676598999999989
 20
39.800486999999997
 30
0.0
 40
1.3576239999999991
 50
273.97588500000001
 51
356.02412500000003
  0
ARC
  5
2CD
  8
_________1
 62
     7
 10
43.881475000000002
 20
39.816722999999989
 30
0.0
 40
1.375059
 50
184.60378900000001
 51
265.38057500000002
  0
LINE
  5
2CE
  8
_________1
 62
     7
 10
42.510899999999999
 20
46.28309999999999
 30
0.0
 11
42.510899999999999
 21
39.706400000000002
 31
0.0
  0
LINE
  5
2CF
  8
_________1
 62
     7
 10
41.316099999999999
 20
54.615400000000001
 30
0.0
 11
41.535899999999998
 21
54.695399999999999
 31
0.0
  0
LINE
  5
2D0
  8
_________1
 62
     7
 10
41.155200000000001
 20
54.434899999999999
 30
0.0
 11
41.316099999999999
 21
54.615400000000001
 31
0.0
  0
ARC
  5
2D1
  8
_________1
 62
     7
 10
53.062851999999999
 20
50.151167000000001
 30
0.0
 40
12.654752
 50
160.21389500000001
 51
169.826097
  0
ARC
  5
2D2
  8
_________1
 62
     7
 10
48.480583000000003
 20
50.971207
 30
0.0
 40
7.9996850000000004
 50
169.80999399999999
 51
174.72699399999999
  0
ARC
  5
2D3
  8
_________1
 62
     7
 10
44.991525000000003
 20
51.290295
 30
0.0
 40
4.4960690000000003
 50
174.68990400000001
 51
179.939514
  0
LINE
  5
2D4
  8
_________1
 62
     7
 10
40.495499999999993
 20
49.695799999999998
 30
0.0
 11
40.495499999999993
 21
51.295000000000002
 31
0.0
  0
ARC
  5
2D5
  8
_________1
 62
     7
 10
46.331699
 20
49.764372999999999
 30
0.0
 40
5.8366429999999996
 50
180.673024
 51
188.38664800000001
  0
ARC
  5
2D6
  8
_________1
 62
     7
 10
52.602773999999989
 20
50.710754000000001
 30
0.0
 40
12.178708
 50
188.488317
 51
199.95412200000001
  0
LINE
  5
2D7
  8
_________1
 62
     7
 10
41.316099999999999
 20
46.37469999999999
 30
0.0
 11
41.155200000000001
 21
46.554600000000001
 31
0.0
  0
LINE
  5
2D8
  8
_________1
 62
     7
 10
41.535899999999998
 20
46.294800000000002
 30
0.0
 11
41.316099999999999
 21
46.37469999999999
 31
0.0
  0
ARC
  5
2D9
  8
_________1
 62
     7
 10
43.944674999999997
 20
174.93589399999999
 30
0.0
 40
128.66365400000001
 50
268.92712399999999
 51
270.31023399999998
  0
ARC
  5
2DA
  8
_________1
 62
     7
 10
44.560754999999993
 20
69.148831999999999
 30
0.0
 40
22.874848
 50
270.20178600000003
 51
272.99036100000001
  0
ARC
  5
2DB
  8
_________1
 62
     7
 10
45.653433999999997
 20
49.017422000000003
 30
0.0
 40
2.7141570000000002
 50
272.12524999999999
 51
280.23722099999998
  0
ARC
  5
2DC
  8
_________1
 62
     7
 10
46.124284000000003
 20
46.505146000000003
 30
0.0
 40
0.159091
 50
274.152626
 51
304.934911
  0
ARC
  5
2DD
  8
_________1
 62
     7
 10
45.557701999999999
 20
46.995443000000002
 30
0.0
 40
0.9043469999999999
 50
316.65624100000002
 51
343.586592
  0
ARC
  5
2DE
  8
_________1
 62
     7
 10
40.155208000000002
 20
48.999468999999991
 30
0.0
 40
6.6647100000000004
 50
340.18197199999997
 51
346.34567099999998
  0
ARC
  5
2DF
  8
_________1
 62
     7
 10
29.502220000000001
 20
51.728822999999998
 30
0.0
 40
17.661453999999999
 50
345.89982099999997
 51
349.67864900000001
  0
ARC
  5
2E0
  8
_________1
 62
     7
 10
33.195481999999998
 20
51.166221999999998
 30
0.0
 40
13.927574999999999
 50
349.23344300000002
 51
352.83537200000001
  0
ARC
  5
2E1
  8
_________1
 62
     7
 10
45.265221999999987
 20
49.703454000000001
 30
0.0
 40
1.770464
 50
351.08754800000003
 51
359.75284199999999
  0
LINE
  5
2E2
  8
_________1
 62
     7
 10
47.035699999999999
 20
51.295000000000002
 30
0.0
 11
47.035699999999999
 21
49.695799999999998
 31
0.0
  0
ARC
  5
2E3
  8
_________1
 62
     7
 10
32.661467000000002
 20
49.868712000000002
 30
0.0
 40
14.444794999999999
 50
5.6668109999999992
 51
12.302987999999999
  0
ARC
  5
2E4
  8
_________1
 62
     7
 10
33.651994000000002
 20
50.236305999999999
 30
0.0
 40
13.399507
 50
11.669756
 51
15.639346
  0
ARC
  5
2E5
  8
_________1
 62
     7
 10
42.257553999999992
 20
52.673568000000003
 30
0.0
 40
4.4555870000000004
 50
15.290441
 51
21.941700999999998
  0
ARC
  5
2E6
  8
_________1
 62
     7
 10
45.392619999999987
 20
53.954380000000008
 30
0.0
 40
1.0691479999999991
 50
21.053267000000002
 51
33.854447999999998
  0
ARC
  5
2E7
  8
_________1
 62
     7
 10
46.108089
 20
54.44359699999999
 30
0.0
 40
0.202594
 50
31.67755
 51
58.020088999999999
  0
LINE
  5
2E8
  8
_________1
 62
     7
 10
45.995600000000003
 20
54.695399999999999
 30
0.0
 11
46.215400000000002
 21
54.615400000000001
 31
0.0
  0
LINE
  5
2E9
  8
_________1
 62
     7
 10
41.535899999999998
 20
54.695399999999999
 30
0.0
 11
45.995600000000003
 21
54.695399999999999
 31
0.0
  0
ARC
  5
2EA
  8
_________1
 62
     7
 10
48.599150000000002
 20
22.380821000000001
 30
0.0
 40
29.729714999999999
 50
103.61543500000001
 51
104.410616
  0
LINE
  5
2EB
  8
_________1
 62
     7
 10
40.920900000000003
 20
50.8947
 30
0.0
 11
41.200299999999991
 21
51.1751
 31
0.0
  0
ARC
  5
2EC
  8
_________1
 62
     7
 10
44.820250000000001
 20
49.702767999999999
 30
0.0
 40
4.0774299999999997
 50
163.00256099999999
 51
168.78525400000001
  0
ARC
  5
2ED
  8
_________1
 62
     7
 10
66.678968000000012
 20
56.758756999999989
 30
0.0
 40
26.605941999999999
 50
193.61510100000001
 51
194.50382500000001
  0
ARC
  5
2EE
  8
_________1
 62
     7
 10
43.914127999999998
 20
52.805562000000002
 30
0.0
 40
4.037812999999999
 50
222.15845400000001
 51
227.770971
  0
ARC
  5
2EF
  8
_________1
 62
     7
 10
45.327729999999988
 20
62.869128000000003
 30
0.0
 40
13.690407
 50
252.45342299999999
 51
254.202403
  0
ARC
  5
2F0
  8
_________1
 62
     7
 10
40.836063000000003
 20
52.977141000000003
 30
0.0
 40
3.3692269999999991
 50
283.11658899999998
 51
290.22762399999999
  0
LINE
  5
2F1
  8
_________1
 62
     7
 10
42.280700000000003
 20
50.095500000000001
 30
0.0
 11
42.000999999999998
 21
49.8157
 31
0.0
  0
LINE
  5
2F2
  8
_________1
 62
     7
 10
42.360599999999998
 20
50.361400000000003
 30
0.0
 11
42.280700000000003
 21
50.095500000000001
 31
0.0
  0
LINE
  5
2F3
  8
_________1
 62
     7
 10
42.401000000000003
 20
50.495800000000003
 30
0.0
 11
42.360599999999998
 21
50.361400000000003
 31
0.0
  0
ARC
  5
2F4
  8
_________1
 62
     7
 10
38.054284000000003
 20
49.403357
 30
0.0
 40
4.4818410000000002
 50
14.107538
 51
19.436147999999999
  0
ARC
  5
2F5
  8
_________1
 62
     7
 10
28.002148999999999
 20
36.930974999999997
 30
0.0
 40
19.971571000000001
 50
44.361325999999991
 51
45.497714999999992
  0
ARC
  5
2F6
  8
_________1
 62
     7
 10
39.256307
 20
41.029527999999999
 30
0.0
 40
10.510320999999999
 50
74.862257999999997
 51
77.111649999999997
  0
ARC
  5
2F7
  8
_________1
 62
     7
 10
41.093631000000002
 20
52.563077
 30
0.0
 40
3.0864599999999989
 50
263.808178
 51
272.742816
  0
ARC
  5
2F8
  8
_________1
 62
     7
 10
41.189151000000003
 20
51.421203999999989
 30
0.0
 40
1.941752999999999
 50
271.53974699999998
 51
291.98984000000002
  0
ARC
  5
2F9
  8
_________1
 62
     7
 10
41.483350999999992
 20
50.747731999999999
 30
0.0
 40
1.207290999999999
 50
291.01118200000002
 51
316.655035
  0
ARC
  5
2FA
  8
_________1
 62
     7
 10
41.718344999999999
 20
50.499431000000001
 30
0.0
 40
0.8661789999999999
 50
317.93014699999998
 51
29.954463000000001
  0
ARC
  5
2FB
  8
_________1
 62
     7
 10
41.415210999999999
 20
50.17073400000001
 30
0.0
 40
1.299811
 50
35.84656300000001
 51
70.727772999999999
  0
ARC
  5
2FC
  8
_________1
 62
     7
 10
41.055928000000002
 20
48.716346000000001
 30
0.0
 40
2.7948330000000001
 50
73.617143999999996
 51
96.062972999999985
  0
LINE
  5
2FD
  8
_________1
 62
     7
 10
40.7607
 20
49.494599999999998
 30
0.0
 11
40.7607
 21
51.4955
 31
0.0
  0
LINE
  5
2FE
  8
_________1
 62
     7
 10
41.187899999999992
 20
50.420699999999989
 30
0.0
 11
41.455299999999987
 21
50.3504
 31
0.0
  0
LINE
  5
2FF
  8
_________1
 62
     7
 10
41.158000000000001
 20
50.446199999999997
 30
0.0
 11
41.187899999999992
 21
50.420699999999989
 31
0.0
  0
LINE
  5
300
  8
_________1
 62
     7
 10
41.158000000000001
 20
50.547400000000003
 30
0.0
 11
41.158000000000001
 21
50.446199999999997
 31
0.0
  0
LINE
  5
301
  8
_________1
 62
     7
 10
41.187899999999992
 20
50.572899999999997
 30
0.0
 11
41.158000000000001
 21
50.547400000000003
 31
0.0
  0
LINE
  5
302
  8
_________1
 62
     7
 10
41.46009999999999
 20
50.644599999999997
 30
0.0
 11
41.187899999999992
 21
50.572899999999997
 31
0.0
  0
LINE
  5
303
  8
_________1
 62
     7
 10
41.530700000000003
 20
50.912599999999998
 30
0.0
 11
41.46009999999999
 21
50.644599999999997
 31
0.0
  0
LINE
  5
304
  8
_________1
 62
     7
 10
41.555900000000001
 20
50.942300000000003
 30
0.0
 11
41.530700000000003
 21
50.912599999999998
 31
0.0
  0
LINE
  5
305
  8
_________1
 62
     7
 10
41.657499999999999
 20
50.942300000000003
 30
0.0
 11
41.555900000000001
 21
50.942300000000003
 31
0.0
  0
LINE
  5
306
  8
_________1
 62
     7
 10
41.682600000000001
 20
50.912599999999998
 30
0.0
 11
41.657499999999999
 21
50.942300000000003
 31
0.0
  0
LINE
  5
307
  8
_________1
 62
     7
 10
41.75569999999999
 20
50.639099999999992
 30
0.0
 11
41.682600000000001
 21
50.912599999999998
 31
0.0
  0
LINE
  5
308
  8
_________1
 62
     7
 10
42.022300000000001
 20
50.568800000000003
 30
0.0
 11
41.75569999999999
 21
50.639099999999992
 31
0.0
  0
LINE
  5
309
  8
_________1
 62
     7
 10
42.052
 20
50.543300000000002
 30
0.0
 11
42.022300000000001
 21
50.568800000000003
 31
0.0
  0
LINE
  5
30A
  8
_________1
 62
     7
 10
42.052
 20
50.442700000000002
 30
0.0
 11
42.052
 21
50.543300000000002
 31
0.0
  0
LINE
  5
30B
  8
_________1
 62
     7
 10
42.022300000000001
 20
50.416499999999999
 30
0.0
 11
42.052
 21
50.442700000000002
 31
0.0
  0
LINE
  5
30C
  8
_________1
 62
     7
 10
41.750199999999992
 20
50.344900000000003
 30
0.0
 11
42.022300000000001
 21
50.416499999999999
 31
0.0
  0
LINE
  5
30D
  8
_________1
 62
     7
 10
41.679900000000004
 20
50.078200000000002
 30
0.0
 11
41.750199999999992
 21
50.344900000000003
 31
0.0
  0
LINE
  5
30E
  8
_________1
 62
     7
 10
41.6541
 20
50.0486
 30
0.0
 11
41.679900000000004
 21
50.078200000000002
 31
0.0
  0
LINE
  5
30F
  8
_________1
 62
     7
 10
41.552100000000003
 20
50.0486
 30
0.0
 11
41.6541
 21
50.0486
 31
0.0
  0
LINE
  5
310
  8
_________1
 62
     7
 10
41.526899999999991
 20
50.078200000000002
 30
0.0
 11
41.552100000000003
 21
50.0486
 31
0.0
  0
LINE
  5
311
  8
_________1
 62
     7
 10
41.455299999999987
 20
50.3504
 30
0.0
 11
41.526899999999991
 21
50.078200000000002
 31
0.0
  0
LINE
  5
312
  8
_________1
 62
     7
 10
40.555399999999992
 20
52.216999999999999
 30
0.0
 11
46.987099999999998
 21
52.216999999999999
 31
0.0
  0
LINE
  5
313
  8
_________1
 62
     7
 10
40.613999999999997
 20
48.846899999999991
 30
0.0
 11
46.987099999999998
 21
48.846899999999991
 31
0.0
  0
ARC
  5
314
  8
_________1
 62
     7
 10
33.263710000000003
 20
-0.226975
 30
0.0
 40
53.033304000000001
 50
75.752658999999994
 51
76.198061999999993
  0
LINE
  5
315
  8
_________1
 62
     7
 10
46.595700000000001
 20
50.8947
 30
0.0
 11
46.315600000000003
 21
51.1751
 31
0.0
  0
ARC
  5
316
  8
_________1
 62
     7
 10
42.660628000000003
 20
49.69726099999999
 30
0.0
 40
4.1132599999999986
 50
11.193968999999999
 51
16.925077999999999
  0
ARC
  5
317
  8
_________1
 62
     7
 10
1.953970999999999
 20
61.449309
 30
0.0
 40
46.062963000000003
 50
345.73035499999997
 51
346.24357400000002
  0
ARC
  5
318
  8
_________1
 62
     7
 10
43.524492999999993
 20
52.890379000000003
 30
0.0
 40
4.152601999999999
 50
312.232755
 51
317.69673699999998
  0
ARC
  5
319
  8
_________1
 62
     7
 10
42.257170999999992
 20
62.628449000000003
 30
0.0
 40
13.440147
 50
285.79559799999998
 51
287.57574000000011
  0
ARC
  5
31A
  8
_________1
 62
     7
 10
47.390588000000001
 20
55.338239000000002
 30
0.0
 40
5.8320099999999986
 50
251.250822
 51
255.35071300000001
  0
LINE
  5
31B
  8
_________1
 62
     7
 10
45.235900000000001
 20
50.095500000000001
 30
0.0
 11
45.515999999999998
 21
49.8157
 31
0.0
  0
LINE
  5
31C
  8
_________1
 62
     7
 10
45.155299999999997
 20
50.361400000000003
 30
0.0
 11
45.235900000000001
 21
50.095500000000001
 31
0.0
  0
LINE
  5
31D
  8
_________1
 62
     7
 10
45.11569999999999
 20
50.495800000000003
 30
0.0
 11
45.155299999999997
 21
50.361400000000003
 31
0.0
  0
ARC
  5
31E
  8
_________1
 62
     7
 10
49.448753000000004
 20
49.407462000000002
 30
0.0
 40
4.467630999999999
 50
160.555351
 51
165.90092200000001
  0
ARC
  5
31F
  8
_________1
 62
     7
 10
53.734875000000002
 20
42.686310999999989
 30
0.0
 40
11.815661
 50
134.074183
 51
135.996219
  0
ARC
  5
320
  8
_________1
 62
     7
 10
46.653209999999987
 20
47.475645
 30
0.0
 40
3.8703389999999991
 50
100.985702
 51
107.08676199999999
  0
ARC
  5
321
  8
_________1
 62
     7
 10
46.422533000000001
 20
52.568061999999991
 30
0.0
 40
3.0914329999999999
 50
267.26440500000001
 51
276.184641
  0
ARC
  5
322
  8
_________1
 62
     7
 10
46.327491999999999
 20
51.421002999999999
 30
0.0
 40
1.9415610000000001
 50
248.008376
 51
268.45039500000001
  0
ARC
  5
323
  8
_________1
 62
     7
 10
46.033960999999998
 20
50.748707000000003
 30
0.0
 40
1.2084360000000001
 50
223.357337
 51
248.97648599999999
  0
ARC
  5
324
  8
_________1
 62
     7
 10
45.797235999999998
 20
50.499316999999998
 30
0.0
 40
0.8653019999999999
 50
150.003321
 51
222.11206999999999
  0
ARC
  5
325
  8
_________1
 62
     7
 10
46.09879699999999
 20
50.174602999999998
 30
0.0
 40
1.295396999999999
 50
109.232427
 51
144.22349800000001
  0
ARC
  5
326
  8
_________1
 62
     7
 10
46.461190000000002
 20
48.707450000000001
 30
0.0
 40
2.8035949999999992
 50
83.972534999999993
 51
106.347308
  0
LINE
  5
327
  8
_________1
 62
     7
 10
46.755599999999987
 20
49.494599999999998
 30
0.0
 11
46.755599999999987
 21
51.4955
 31
0.0
  0
LINE
  5
328
  8
_________1
 62
     7
 10
46.328400000000002
 20
50.420699999999989
 30
0.0
 11
46.061399999999992
 21
50.3504
 31
0.0
  0
LINE
  5
329
  8
_________1
 62
     7
 10
46.358400000000003
 20
50.446199999999997
 30
0.0
 11
46.328400000000002
 21
50.420699999999989
 31
0.0
  0
LINE
  5
32A
  8
_________1
 62
     7
 10
46.358400000000003
 20
50.547400000000003
 30
0.0
 11
46.358400000000003
 21
50.446199999999997
 31
0.0
  0
LINE
  5
32B
  8
_________1
 62
     7
 10
46.328400000000002
 20
50.572899999999997
 30
0.0
 11
46.358400000000003
 21
50.547400000000003
 31
0.0
  0
LINE
  5
32C
  8
_________1
 62
     7
 10
46.056199999999997
 20
50.644599999999997
 30
0.0
 11
46.328400000000002
 21
50.572899999999997
 31
0.0
  0
LINE
  5
32D
  8
_________1
 62
     7
 10
45.985599999999991
 20
50.912599999999998
 30
0.0
 11
46.056199999999997
 21
50.644599999999997
 31
0.0
  0
LINE
  5
32E
  8
_________1
 62
     7
 10
45.96009999999999
 20
50.942300000000003
 30
0.0
 11
45.985599999999991
 21
50.912599999999998
 31
0.0
  0
LINE
  5
32F
  8
_________1
 62
     7
 10
45.858800000000002
 20
50.942300000000003
 30
0.0
 11
45.96009999999999
 21
50.942300000000003
 31
0.0
  0
LINE
  5
330
  8
_________1
 62
     7
 10
45.833300000000001
 20
50.912599999999998
 30
0.0
 11
45.858800000000002
 21
50.942300000000003
 31
0.0
  0
LINE
  5
331
  8
_________1
 62
     7
 10
45.761299999999999
 20
50.639099999999992
 30
0.0
 11
45.833300000000001
 21
50.912599999999998
 31
0.0
  0
LINE
  5
332
  8
_________1
 62
     7
 10
45.494
 20
50.568800000000003
 30
0.0
 11
45.761299999999999
 21
50.639099999999992
 31
0.0
  0
LINE
  5
333
  8
_________1
 62
     7
 10
45.463999999999999
 20
50.543300000000002
 30
0.0
 11
45.494
 21
50.568800000000003
 31
0.0
  0
LINE
  5
334
  8
_________1
 62
     7
 10
45.463999999999999
 20
50.442700000000002
 30
0.0
 11
45.463999999999999
 21
50.543300000000002
 31
0.0
  0
LINE
  5
335
  8
_________1
 62
     7
 10
45.494
 20
50.416499999999999
 30
0.0
 11
45.463999999999999
 21
50.442700000000002
 31
0.0
  0
LINE
  5
336
  8
_________1
 62
     7
 10
45.766499999999994
 20
50.344900000000003
 30
0.0
 11
45.494
 21
50.416499999999999
 31
0.0
  0
LINE
  5
337
  8
_________1
 62
     7
 10
45.836799999999997
 20
50.078200000000002
 30
0.0
 11
45.766499999999994
 21
50.344900000000003
 31
0.0
  0
LINE
  5
338
  8
_________1
 62
     7
 10
45.8626
 20
50.0486
 30
0.0
 11
45.836799999999997
 21
50.078200000000002
 31
0.0
  0
LINE
  5
339
  8
_________1
 62
     7
 10
45.964199999999998
 20
50.0486
 30
0.0
 11
45.8626
 21
50.0486
 31
0.0
  0
LINE
  5
33A
  8
_________1
 62
     7
 10
45.989400000000003
 20
50.078200000000002
 30
0.0
 11
45.964199999999998
 21
50.0486
 31
0.0
  0
LINE
  5
33B
  8
_________1
 62
     7
 10
46.061399999999992
 20
50.3504
 30
0.0
 11
45.989400000000003
 21
50.078200000000002
 31
0.0
  0
ARC
  5
33C
  8
_________1
 62
     7
 10
147.11364900000001
 20
55.429098000000003
 30
0.0
 40
15.179819
 50
214.07014599999999
 51
228.56166300000001
  0
ARC
  5
33D
  8
_________1
 62
     7
 10
145.52827300000001
 20
53.543413000000001
 30
0.0
 40
12.717096
 50
228.293746
 51
269.55154700000003
  0
LINE
  5
33E
  8
_________1
 62
     7
 10
159.81
 20
71.827200000000005
 30
0.0
 11
159.81
 21
73.227999999999994
 31
0.0
  0
LINE
  5
33F
  8
_________1
 62
     7
 10
159.81
 20
67.727599999999995
 30
0.0
 11
159.81
 21
71.827200000000005
 31
0.0
  0
ARC
  5
340
  8
_________1
 62
     7
 10
202.41446199999999
 20
68.019250999999997
 30
0.0
 40
42.606115999999993
 50
180.39228199999999
 51
193.28773200000001
  0
ARC
  5
341
  8
_________1
 62
     7
 10
147.41435200000001
 20
54.659387000000002
 30
0.0
 40
13.996839
 50
359.047259
 51
14.765264999999999
  0
ARC
  5
342
  8
_________1
 62
     7
 10
145.316068
 20
54.487817999999997
 30
0.0
 40
16.09330499999999
 50
313.15884899999998
 51
359.78223400000002
  0
ARC
  5
343
  8
_________1
 62
     7
 10
145.05509000000001
 20
52.870317
 30
0.0
 40
14.424187
 50
231.689165
 51
269.97614900000002
  0
ARC
  5
344
  8
_________1
 62
     7
 10
147.327269
 20
55.161490000000001
 30
0.0
 40
17.634291000000001
 50
211.00534099999999
 51
230.5112
  0
LINE
  5
345
  8
_________1
 62
     7
 10
132.92099999999999
 20
55.204599999999992
 30
0.0
 11
132.68700000000001
 21
55.204599999999992
 31
0.0
  0
LINE
  5
346
  8
_________1
 62
     7
 10
133.13200000000001
 20
55.089500000000001
 30
0.0
 11
132.92099999999999
 21
55.204599999999992
 31
0.0
  0
ARC
  5
347
  8
_________1
 62
     7
 10
123.495898
 20
47.050564999999999
 30
0.0
 40
12.549910000000001
 50
30.138504000000001
 51
39.833329999999997
  0
ARC
  5
348
  8
_________1
 62
     7
 10
127.30441999999999
 20
49.262104000000001
 30
0.0
 40
8.1458499999999994
 50
25.311264000000001
 51
30.136098
  0
ARC
  5
349
  8
_________1
 62
     7
 10
130.796637
 20
50.908383999999998
 30
0.0
 40
4.28505
 50
19.864115999999999
 51
25.375609000000011
  0
LINE
  5
34A
  8
_________1
 62
     7
 10
135.375
 20
50.861600000000003
 30
0.0
 11
134.827
 21
52.364400000000003
 31
0.0
  0
ARC
  5
34B
  8
_________1
 62
     7
 10
129.72327000000001
 20
48.889732999999993
 30
0.0
 40
5.9853889999999987
 50
11.715664
 51
19.235644000000001
  0
ARC
  5
34C
  8
_________1
 62
     7
 10
123.746278
 20
47.686230999999999
 30
0.0
 40
12.082293
 50
359.99206199999998
 51
11.548607000000001
  0
LINE
  5
34D
  8
_________1
 62
     7
 10
135.74000000000001
 20
47.460599999999992
 30
0.0
 11
135.82900000000001
 21
47.684600000000003
 31
0.0
  0
LINE
  5
34E
  8
_________1
 62
     7
 10
135.56
 20
47.311100000000003
 30
0.0
 11
135.74000000000001
 21
47.460599999999992
 31
0.0
  0
ARC
  5
34F
  8
_________1
 62
     7
 10
99.730832999999976
 20
139.30943600000001
 30
0.0
 40
98.72897900000001
 50
289.25970999999998
 51
291.27857899999998
  0
ARC
  5
350
  8
_________1
 62
     7
 10
127.79606699999999
 20
58.832084000000002
 30
0.0
 40
13.498454000000001
 50
285.59236199999998
 51
289.47611699999999
  0
ARC
  5
351
  8
_________1
 62
     7
 10
131.12133299999999
 20
46.815052999999999
 30
0.0
 40
1.030224
 50
270.756958
 51
287.10424
  0
ARC
  5
352
  8
_________1
 62
     7
 10
131.534041
 20
46.585740000000001
 30
0.0
 40
0.8947579999999998
 50
216.32587799999999
 51
243.51012700000001
  0
ARC
  5
353
  8
_________1
 62
     7
 10
135.92901599999999
 20
50.322687000000002
 30
0.0
 40
6.6617569999999997
 50
213.66679300000001
 51
219.830535
  0
ARC
  5
354
  8
_________1
 62
     7
 10
145.660965
 20
56.943070999999989
 30
0.0
 40
18.43187
 50
210.40346500000001
 51
214.024159
  0
ARC
  5
355
  8
_________1
 62
     7
 10
141.67878200000001
 20
54.704920000000001
 30
0.0
 40
13.864868
 50
207.13571999999999
 51
210.75455099999999
  0
ARC
  5
356
  8
_________1
 62
     7
 10
130.988831
 20
49.281933000000002
 30
0.0
 40
1.878806
 50
200.508655
 51
208.64879999999999
  0
LINE
  5
357
  8
_________1
 62
     7
 10
128.68100000000001
 20
50.127800000000001
 30
0.0
 11
129.22800000000001
 21
48.623699999999999
 31
0.0
  0
ARC
  5
358
  8
_________1
 62
     7
 10
142.79487599999999
 20
53.729661
 30
0.0
 40
14.565894999999999
 50
187.738258
 51
194.31652
  0
ARC
  5
359
  8
_________1
 62
     7
 10
141.67850300000001
 20
53.706496000000001
 30
0.0
 40
13.457172
 50
184.32479900000001
 51
188.28053
  0
ARC
  5
35A
  8
_________1
 62
     7
 10
132.63104100000001
 20
53.055137000000002
 30
0.0
 40
4.386474999999999
 50
177.99689900000001
 51
184.752771
  0
ARC
  5
35B
  8
_________1
 62
     7
 10
129.283064
 20
53.192765000000001
 30
0.0
 40
1.0359359999999991
 50
165.91946300000001
 51
179.13199700000001
  0
ARC
  5
35C
  8
_________1
 62
     7
 10
128.47791799999999
 20
53.404029000000001
 30
0.0
 40
0.203785
 50
142.22714199999999
 51
168.461026
  0
LINE
  5
35D
  8
_________1
 62
     7
 10
128.495
 20
53.678400000000011
 30
0.0
 11
128.31700000000001
 21
53.5289
 31
0.0
  0
LINE
  5
35E
  8
_________1
 62
     7
 10
132.68700000000001
 20
55.204599999999992
 30
0.0
 11
128.495
 21
53.678400000000011
 31
0.0
  0
ARC
  5
35F
  8
_________1
 62
     7
 10
139.11161000000001
 20
36.291589999999999
 30
0.0
 40
17.013770000000001
 50
123.419386
 51
124.809533
  0
LINE
  5
360
  8
_________1
 62
     7
 10
129.232
 20
49.902500000000003
 30
0.0
 11
129.399
 21
50.260800000000003
 31
0.0
  0
ARC
  5
361
  8
_________1
 62
     7
 10
133.583945
 20
50.148808000000002
 30
0.0
 40
4.3590479999999996
 50
183.23893100000001
 51
188.65880200000001
  0
ARC
  5
362
  8
_________1
 62
     7
 10
141.19523599999999
 20
57.294977000000003
 30
0.0
 40
14.247099
 50
213.205951
 51
214.864518
  0
ARC
  5
363
  8
_________1
 62
     7
 10
132.16830200000001
 20
54.391591000000012
 30
0.0
 40
5.8785150000000002
 50
243.064437
 51
246.92588599999999
  0
ARC
  5
364
  8
_________1
 62
     7
 10
128.635268
 20
73.844428000000008
 30
0.0
 40
24.891427
 50
272.83037400000001
 51
273.79152800000003
  0
ARC
  5
365
  8
_________1
 62
     7
 10
128.29124899999999
 20
52.022208999999997
 30
0.0
 40
3.6122919999999992
 50
303.42845
 51
310.04627499999998
  0
LINE
  5
366
  8
_________1
 62
     7
 10
130.78399999999999
 20
49.615900000000011
 30
0.0
 11
130.61500000000001
 21
49.256900000000002
 31
0.0
  0
LINE
  5
367
  8
_________1
 62
     7
 10
130.76599999999999
 20
49.894300000000001
 30
0.0
 11
130.78399999999999
 21
49.615900000000011
 31
0.0
  0
LINE
  5
368
  8
_________1
 62
     7
 10
130.75899999999999
 20
50.032699999999998
 30
0.0
 11
130.76599999999999
 21
49.894300000000001
 31
0.0
  0
ARC
  5
369
  8
_________1
 62
     7
 10
126.358463
 20
47.030912999999991
 30
0.0
 40
5.3266720000000003
 50
34.301532999999999
 51
38.795549999999999
  0
LINE
  5
36A
  8
_________1
 62
     7
 10
130.50999999999999
 20
50.368299999999998
 30
0.0
 11
130.15100000000001
 21
50.535699999999999
 31
0.0
  0
ARC
  5
36B
  8
_________1
 62
     7
 10
132.069379
 20
30.460218999999999
 30
0.0
 40
20.166965999999999
 50
95.458440999999993
 51
96.629723000000013
  0
ARC
  5
36C
  8
_________1
 62
     7
 10
128.845887
 20
51.473835000000001
 30
0.0
 40
3.0265049999999989
 50
283.64462400000002
 51
292.75799499999999
  0
ARC
  5
36D
  8
_________1
 62
     7
 10
129.28967299999999
 20
50.512165000000003
 30
0.0
 40
1.9683820000000001
 50
291.67441700000001
 51
311.82598999999999
  0
ARC
  5
36E
  8
_________1
 62
     7
 10
129.799308
 20
49.964228999999989
 30
0.0
 40
1.220297999999999
 50
311.15150599999998
 51
336.52298200000001
  0
ARC
  5
36F
  8
_________1
 62
     7
 10
130.11814000000001
 20
49.804233000000004
 30
0.0
 40
0.8643449999999999
 50
337.83129600000012
 51
49.977803000000002
  0
ARC
  5
370
  8
_________1
 62
     7
 10
129.94653700000001
 20
49.397328000000002
 30
0.0
 40
1.2928859999999991
 50
55.760303
 51
90.831485000000001
  0
ARC
  5
371
  8
_________1
 62
     7
 10
130.10252800000001
 20
47.898808000000002
 30
0.0
 40
2.7967349999999991
 50
93.582438999999994
 51
116.00444
  0
LINE
  5
372
  8
_________1
 62
     7
 10
129.56
 20
48.532699999999998
 30
0.0
 11
128.876
 21
50.412399999999998
 31
0.0
  0
LINE
  5
373
  8
_________1
 62
     7
 10
129.64500000000001
 20
49.549100000000003
 30
0.0
 11
129.91999999999999
 21
49.5732
 31
0.0
  0
LINE
  5
374
  8
_________1
 62
     7
 10
129.60900000000001
 20
49.562100000000001
 30
0.0
 11
129.64500000000001
 21
49.549100000000003
 31
0.0
  0
LINE
  5
375
  8
_________1
 62
     7
 10
129.57400000000001
 20
49.657899999999998
 30
0.0
 11
129.60900000000001
 21
49.562100000000001
 31
0.0
  0
LINE
  5
376
  8
_________1
 62
     7
 10
129.59200000000001
 20
49.691000000000003
 30
0.0
 11
129.57400000000001
 21
49.657899999999998
 31
0.0
  0
LINE
  5
377
  8
_________1
 62
     7
 10
129.82400000000001
 20
49.852200000000003
 30
0.0
 11
129.59200000000001
 21
49.691000000000003
 31
0.0
  0
LINE
  5
378
  8
_________1
 62
     7
 10
129.80000000000001
 20
50.127800000000001
 30
0.0
 11
129.82400000000001
 21
49.852200000000003
 31
0.0
  0
LINE
  5
379
  8
_________1
 62
     7
 10
129.81299999999999
 20
50.164400000000001
 30
0.0
 11
129.80000000000001
 21
50.127800000000001
 31
0.0
  0
LINE
  5
37A
  8
_________1
 62
     7
 10
129.90799999999999
 20
50.19809999999999
 30
0.0
 11
129.81299999999999
 21
50.164400000000001
 31
0.0
  0
LINE
  5
37B
  8
_________1
 62
     7
 10
129.94200000000001
 20
50.17949999999999
 30
0.0
 11
129.90799999999999
 21
50.19809999999999
 31
0.0
  0
LINE
  5
37C
  8
_________1
 62
     7
 10
130.10300000000001
 20
49.948
 30
0.0
 11
129.94200000000001
 21
50.17949999999999
 31
0.0
  0
LINE
  5
37D
  8
_________1
 62
     7
 10
130.37799999999999
 20
49.973500000000001
 30
0.0
 11
130.10300000000001
 21
49.948
 31
0.0
  0
LINE
  5
37E
  8
_________1
 62
     7
 10
130.41399999999999
 20
49.958999999999989
 30
0.0
 11
130.37799999999999
 21
49.973500000000001
 31
0.0
  0
LINE
  5
37F
  8
_________1
 62
     7
 10
130.44900000000001
 20
49.863900000000001
 30
0.0
 11
130.41399999999999
 21
49.958999999999989
 31
0.0
  0
LINE
  5
380
  8
_________1
 62
     7
 10
130.43100000000001
 20
49.830199999999991
 30
0.0
 11
130.44900000000001
 21
49.863900000000001
 31
0.0
  0
LINE
  5
381
  8
_________1
 62
     7
 10
130.1989999999999
 20
49.668900000000001
 30
0.0
 11
130.43100000000001
 21
49.830199999999991
 31
0.0
  0
LINE
  5
382
  8
_________1
 62
     7
 10
130.2229999999999
 20
49.393300000000004
 30
0.0
 11
130.1989999999999
 21
49.668900000000001
 31
0.0
  0
LINE
  5
383
  8
_________1
 62
     7
 10
130.21000000000001
 20
49.3568
 30
0.0
 11
130.2229999999999
 21
49.393300000000004
 31
0.0
  0
LINE
  5
384
  8
_________1
 62
     7
 10
130.11600000000001
 20
49.323099999999997
 30
0.0
 11
130.21000000000001
 21
49.3568
 31
0.0
  0
LINE
  5
385
  8
_________1
 62
     7
 10
130.08099999999999
 20
49.341700000000003
 30
0.0
 11
130.11600000000001
 21
49.323099999999997
 31
0.0
  0
LINE
  5
386
  8
_________1
 62
     7
 10
129.91999999999999
 20
49.5732
 30
0.0
 11
130.08099999999999
 21
49.341700000000003
 31
0.0
  0
ARC
  5
387
  8
_________1
 62
     7
 10
136.15429399999999
 20
31.682897000000001
 30
0.0
 40
20.421263
 50
95.476794999999996
 51
96.631567999999987
  0
LINE
  5
388
  8
_________1
 62
     7
 10
134.565
 20
51.844200000000001
 30
0.0
 11
134.20500000000001
 21
52.010899999999999
 31
0.0
  0
ARC
  5
389
  8
_________1
 62
     7
 10
131.58873
 20
49.591714000000003
 30
0.0
 40
3.7324599999999988
 50
30.791830999999998
 51
37.119793999999999
  0
ARC
  5
38A
  8
_________1
 62
     7
 10
122.496154
 20
50.013661999999989
 30
0.0
 40
12.388662999999999
 50
4.9956469999999991
 51
6.9020469999999996
  0
ARC
  5
38B
  8
_________1
 62
     7
 10
131.43118699999999
 20
52.459477
 30
0.0
 40
3.670617
 50
331.939347
 51
338.13507800000002
  0
ARC
  5
38C
  8
_________1
 62
     7
 10
114.95031400000001
 20
76.877588000000003
 30
0.0
 40
32.747959999999999
 50
306.296986
 51
307.02584999999999
  0
ARC
  5
38D
  8
_________1
 62
     7
 10
132.893418
 20
71.214738999999994
 30
0.0
 40
20.780822000000001
 50
272.829633
 51
273.98102699999998
  0
LINE
  5
38E
  8
_________1
 62
     7
 10
133.56
 20
50.627400000000002
 30
0.0
 11
133.91900000000001
 21
50.459299999999999
 31
0.0
  0
LINE
  5
38F
  8
_________1
 62
     7
 10
133.39400000000001
 20
50.849899999999998
 30
0.0
 11
133.56
 21
50.627400000000002
 31
0.0
  0
LINE
  5
390
  8
_________1
 62
     7
 10
133.31100000000001
 20
50.962200000000003
 30
0.0
 11
133.39400000000001
 21
50.849899999999998
 31
0.0
  0
ARC
  5
391
  8
_________1
 62
     7
 10
139.556355
 20
51.543041000000002
 30
0.0
 40
6.2724229999999999
 50
181.49770899999999
 51
185.312971
  0
ARC
  5
392
  8
_________1
 62
     7
 10
179.04146700000001
 20
30.127853000000002
 30
0.0
 40
50.449692999999989
 50
154.63782699999999
 51
155.08731
  0
ARC
  5
393
  8
_________1
 62
     7
 10
135.47428300000001
 20
49.106328999999988
 30
0.0
 40
3.3171149999999998
 50
120.395167
 51
127.516437
  0
ARC
  5
394
  8
_________1
 62
     7
 10
133.85035199999999
 20
53.297176
 30
0.0
 40
3.0282960000000001
 50
287.23269099999999
 51
296.33965000000001
  0
ARC
  5
395
  8
_________1
 62
     7
 10
134.128668
 20
52.264361000000001
 30
0.0
 40
1.9598040000000001
 50
268.12869599999999
 51
288.40663699999999
  0
ARC
  5
396
  8
_________1
 62
     7
 10
134.08722499999999
 20
51.517037999999992
 30
0.0
 40
1.2116450000000001
 50
243.38726399999999
 51
268.93344200000001
  0
ARC
  5
397
  8
_________1
 62
     7
 10
133.949851
 20
51.198658000000002
 30
0.0
 40
0.8656859999999998
 50
170.013362
 51
242.07659799999999
  0
ARC
  5
398
  8
_________1
 62
     7
 10
134.34105
 20
50.997605
 30
0.0
 40
1.292395
 50
129.145802
 51
164.23290399999999
  0
ARC
  5
399
  8
_________1
 62
     7
 10
135.182796
 20
49.753378000000012
 30
0.0
 40
2.791888999999999
 50
103.949151
 51
126.422172
  0
LINE
  5
39A
  8
_________1
 62
     7
 10
135.19300000000001
 20
50.583300000000001
 30
0.0
 11
134.50999999999999
 21
52.462899999999998
 31
0.0
  0
LINE
  5
39B
  8
_________1
 62
     7
 10
134.47499999999999
 20
51.306100000000001
 30
0.0
 11
134.249
 21
51.148299999999999
 31
0.0
  0
LINE
  5
39C
  8
_________1
 62
     7
 10
134.495
 20
51.340499999999999
 30
0.0
 11
134.47499999999999
 21
51.306100000000001
 31
0.0
  0
LINE
  5
39D
  8
_________1
 62
     7
 10
134.46100000000001
 20
51.434899999999992
 30
0.0
 11
134.495
 21
51.340499999999999
 31
0.0
  0
LINE
  5
39E
  8
_________1
 62
     7
 10
134.42400000000001
 20
51.449399999999997
 30
0.0
 11
134.46100000000001
 21
51.434899999999992
 31
0.0
  0
LINE
  5
39F
  8
_________1
 62
     7
 10
134.143
 20
51.423900000000003
 30
0.0
 11
134.42400000000001
 21
51.449399999999997
 31
0.0
  0
LINE
  5
3A0
  8
_________1
 62
     7
 10
133.98500000000001
 20
51.651299999999999
 30
0.0
 11
134.143
 21
51.423900000000003
 31
0.0
  0
LINE
  5
3A1
  8
_________1
 62
     7
 10
133.952
 20
51.669899999999998
 30
0.0
 11
133.98500000000001
 21
51.651299999999999
 31
0.0
  0
LINE
  5
3A2
  8
_________1
 62
     7
 10
133.85599999999999
 20
51.636099999999999
 30
0.0
 11
133.952
 21
51.669899999999998
 31
0.0
  0
LINE
  5
3A3
  8
_________1
 62
     7
 10
133.84299999999999
 20
51.598199999999991
 30
0.0
 11
133.85599999999999
 21
51.636099999999999
 31
0.0
  0
LINE
  5
3A4
  8
_________1
 62
     7
 10
133.86799999999999
 20
51.3185
 30
0.0
 11
133.84299999999999
 21
51.598199999999991
 31
0.0
  0
LINE
  5
3A5
  8
_________1
 62
     7
 10
133.63999999999999
 20
51.160699999999999
 30
0.0
 11
133.86799999999999
 21
51.3185
 31
0.0
  0
LINE
  5
3A6
  8
_________1
 62
     7
 10
133.62200000000001
 20
51.12619999999999
 30
0.0
 11
133.63999999999999
 21
51.160699999999999
 31
0.0
  0
LINE
  5
3A7
  8
_________1
 62
     7
 10
133.655
 20
51.031799999999997
 30
0.0
 11
133.62200000000001
 21
51.12619999999999
 31
0.0
  0
LINE
  5
3A8
  8
_________1
 62
     7
 10
133.69300000000001
 20
51.017400000000002
 30
0.0
 11
133.655
 21
51.031799999999997
 31
0.0
  0
LINE
  5
3A9
  8
_________1
 62
     7
 10
133.97399999999999
 20
51.042900000000003
 30
0.0
 11
133.69300000000001
 21
51.017400000000002
 31
0.0
  0
LINE
  5
3AA
  8
_________1
 62
     7
 10
134.13200000000001
 20
50.8155
 30
0.0
 11
133.97399999999999
 21
51.042900000000003
 31
0.0
  0
LINE
  5
3AB
  8
_________1
 62
     7
 10
134.16499999999999
 20
50.796900000000001
 30
0.0
 11
134.13200000000001
 21
50.8155
 31
0.0
  0
LINE
  5
3AC
  8
_________1
 62
     7
 10
134.25999999999999
 20
50.831299999999999
 30
0.0
 11
134.16499999999999
 21
50.796900000000001
 31
0.0
  0
LINE
  5
3AD
  8
_________1
 62
     7
 10
134.27500000000001
 20
50.868499999999997
 30
0.0
 11
134.25999999999999
 21
50.831299999999999
 31
0.0
  0
LINE
  5
3AE
  8
_________1
 62
     7
 10
134.249
 20
51.148299999999999
 30
0.0
 11
134.27500000000001
 21
50.868499999999997
 31
0.0
  0
LINE
  5
3AF
  8
_________1
 62
     7
 10
134.47900000000001
 20
53.160200000000003
 30
0.0
 11
128.44200000000001
 21
50.9636
 31
0.0
  0
LINE
  5
3B0
  8
_________1
 62
     7
 10
135.57599999999999
 20
49.973500000000001
 30
0.0
 11
129.59399999999999
 21
47.796199999999999
 31
0.0
  0
LINE
  5
3B1
  8
_________1
 62
     7
 10
45.031300000000002
 20
84.717500000000001
 30
0.0
 11
45.031300000000002
 21
113.447
 31
0.0
  0
LINE
  5
3B2
  8
_________1
 62
     7
 10
45.031300000000002
 20
54.695399999999999
 30
0.0
 11
45.031300000000002
 21
83.648799999999994
 31
0.0
  0
LINE
  5
3B3
  8
_________1
 62
     7
 10
42.510899999999999
 20
83.974699999999999
 30
0.0
 11
42.510899999999999
 21
54.695399999999999
 31
0.0
  0
LINE
  5
3B4
  8
_________1
 62
     7
 10
42.510899999999999
 20
113.447
 30
0.0
 11
42.510899999999999
 21
85.042699999999996
 31
0.0
  0
ARC
  5
3B5
  8
_________1
 62
     7
 10
145.28828300000001
 20
54.607649000000002
 30
0.0
 40
13.781658
 50
270.58393599999999
 51
323.58831099999998
  0
ARC
  5
3B6
  8
_________1
 62
     7
 10
145.453767
 20
54.467859999999988
 30
0.0
 40
15.984793
 50
302.00573800000001
 51
312.84774099999998
  0
ARC
  5
3B7
  8
_________1
 62
     7
 10
144.99393900000001
 20
55.849764999999998
 30
0.0
 40
17.403721999999998
 50
270.18155200000001
 51
300.87815499999999
  0
LINE
  5
3B8
  8
_________1
 62
     7
 10
159.81
 20
96.246900000000011
 30
0.0
 11
159.81
 21
113.447
 31
0.0
  0
LINE
  5
3B9
  8
_________1
 62
     7
 10
159.81
 20
84.705799999999996
 30
0.0
 11
159.81
 21
90.246899999999997
 31
0.0
  0
LINE
  5
3BA
  8
_________1
 62
     7
 10
159.81
 20
73.227999999999994
 30
0.0
 11
159.81
 21
83.637100000000004
 31
0.0
  0
LINE
  5
3BB
  8
_________1
 62
     7
 10
55.456899999999997
 20
61.651800000000001
 30
0.0
 11
55.096600000000002
 21
61.452599999999997
 31
0.0
  0
LINE
  5
3BC
  8
_________1
 62
     7
 10
51.056100000000001
 20
61.651800000000001
 30
0.0
 11
51.415799999999997
 21
61.452599999999997
 31
0.0
  0
LINE
  5
3BD
  8
_________1
 62
     7
 10
54.496400000000001
 20
64.052300000000002
 30
0.0
 11
54.496400000000001
 21
63.953099999999999
 31
0.0
  0
LINE
  5
3BE
  8
_________1
 62
     7
 10
52.015900000000002
 20
64.052300000000002
 30
0.0
 11
52.015900000000002
 21
63.953099999999999
 31
0.0
  0
LINE
  5
3BF
  8
_________1
 62
     7
 10
54.396500000000003
 20
66.653400000000005
 30
0.0
 11
54.396500000000003
 21
65.052800000000005
 31
0.0
  0
LINE
  5
3C0
  8
_________1
 62
     7
 10
52.096499999999992
 20
66.653400000000005
 30
0.0
 11
52.096499999999992
 21
65.052800000000005
 31
0.0
  0
LINE
  5
3C1
  8
_________1
 62
     7
 10
54.396500000000003
 20
65.052800000000005
 30
0.0
 11
54.556399999999989
 21
64.713099999999983
 31
0.0
  0
LINE
  5
3C2
  8
_________1
 62
     7
 10
54.5364
 20
66.893199999999993
 30
0.0
 11
54.396500000000003
 21
66.653400000000005
 31
0.0
  0
LINE
  5
3C3
  8
_________1
 62
     7
 10
52.096499999999992
 20
65.052800000000005
 30
0.0
 11
51.956000000000003
 21
64.713099999999983
 31
0.0
  0
LINE
  5
3C4
  8
_________1
 62
     7
 10
51.956000000000003
 20
66.893199999999993
 30
0.0
 11
52.096499999999992
 21
66.653400000000005
 31
0.0
  0
LINE
  5
3C5
  8
_________1
 62
     7
 10
51.415799999999997
 20
63.953099999999999
 30
0.0
 11
51.056100000000001
 21
63.752600000000001
 31
0.0
  0
LINE
  5
3C6
  8
_________1
 62
     7
 10
55.096600000000002
 20
63.953099999999999
 30
0.0
 11
55.456899999999997
 21
63.752600000000001
 31
0.0
  0
LINE
  5
3C7
  8
_________1
 62
     7
 10
54.596299999999999
 20
67.653800000000004
 30
0.0
 11
54.596299999999999
 21
67.093000000000004
 31
0.0
  0
LINE
  5
3C8
  8
_________1
 62
     7
 10
51.896000000000001
 20
67.653800000000004
 30
0.0
 11
51.896000000000001
 21
67.093000000000004
 31
0.0
  0
LINE
  5
3C9
  8
_________1
 62
     7
 10
51.896000000000001
 20
67.653800000000004
 30
0.0
 11
54.596299999999999
 21
67.653800000000004
 31
0.0
  0
LINE
  5
3CA
  8
_________1
 62
     7
 10
51.916000000000011
 20
66.993099999999998
 30
0.0
 11
51.956000000000003
 21
66.893199999999993
 31
0.0
  0
LINE
  5
3CB
  8
_________1
 62
     7
 10
51.896000000000001
 20
67.093000000000004
 30
0.0
 11
51.916000000000011
 21
66.993099999999998
 31
0.0
  0
LINE
  5
3CC
  8
_________1
 62
     7
 10
54.596299999999999
 20
66.993099999999998
 30
0.0
 11
54.5364
 21
66.893199999999993
 31
0.0
  0
LINE
  5
3CD
  8
_________1
 62
     7
 10
54.596299999999999
 20
67.093000000000004
 30
0.0
 11
54.596299999999999
 21
66.993099999999998
 31
0.0
  0
LINE
  5
3CE
  8
_________1
 62
     7
 10
53.2562
 20
66.653400000000005
 30
0.0
 11
54.396500000000003
 21
66.653400000000005
 31
0.0
  0
LINE
  5
3CF
  8
_________1
 62
     7
 10
52.096499999999992
 20
66.653400000000005
 30
0.0
 11
53.2562
 21
66.653400000000005
 31
0.0
  0
LINE
  5
3D0
  8
_________1
 62
     7
 10
52.096499999999992
 20
65.052800000000005
 30
0.0
 11
54.396500000000003
 21
65.052800000000005
 31
0.0
  0
LINE
  5
3D1
  8
_________1
 62
     7
 10
52.236400000000003
 20
64.073700000000002
 30
0.0
 11
52.256399999999999
 21
64.073700000000002
 31
0.0
  0
ARC
  5
3D2
  8
_________1
 62
     7
 10
53.889566000000002
 20
67.396957999999984
 30
0.0
 40
3.7117580000000001
 50
241.478037
 51
243.5522720000001
  0
ARC
  5
3D3
  8
_________1
 62
     7
 10
52.272677999999999
 20
64.422505000000001
 30
0.0
 40
0.326245
 50
216.29459199999999
 51
241.541935
  0
ARC
  5
3D4
  8
_________1
 62
     7
 10
52.558609999999987
 20
64.575560999999993
 30
0.0
 40
0.6489270000000001
 50
198.21615
 51
212.23918399999999
  0
LINE
  5
3D5
  8
_________1
 62
     7
 10
51.916000000000011
 20
64.452600000000004
 30
0.0
 11
51.9422
 21
64.372699999999995
 31
0.0
  0
LINE
  5
3D6
  8
_________1
 62
     7
 10
51.916000000000011
 20
64.5732
 30
0.0
 11
51.916000000000011
 21
64.452600000000004
 31
0.0
  0
ARC
  5
3D7
  8
_________1
 62
     7
 10
55.621067000000011
 20
64.115281999999993
 30
0.0
 40
3.7332369999999999
 50
170.78557699999999
 51
172.95418000000001
  0
LINE
  5
3D8
  8
_________1
 62
     7
 10
51.936
 20
64.713099999999983
 30
0.0
 11
51.956000000000003
 21
64.713099999999983
 31
0.0
  0
LINE
  5
3D9
  8
_________1
 62
     7
 10
54.596299999999999
 20
64.5732
 30
0.0
 11
54.556399999999989
 21
64.713099999999983
 31
0.0
  0
LINE
  5
3DA
  8
_________1
 62
     7
 10
54.596299999999999
 20
64.452600000000004
 30
0.0
 11
54.596299999999999
 21
64.5732
 31
0.0
  0
LINE
  5
3DB
  8
_________1
 62
     7
 10
54.569499999999991
 20
64.372699999999995
 30
0.0
 11
54.596299999999999
 21
64.452600000000004
 31
0.0
  0
ARC
  5
3DC
  8
_________1
 62
     7
 10
54.055885000000004
 20
64.596805000000003
 30
0.0
 40
0.5603320000000001
 50
290.99403599999999
 51
336.42552000000012
  0
LINE
  5
3DD
  8
_________1
 62
     7
 10
52.015900000000002
 20
64.052300000000002
 30
0.0
 11
54.496400000000001
 21
64.052300000000002
 31
0.0
  0
LINE
  5
3DE
  8
_________1
 62
     7
 10
51.415799999999997
 20
63.953099999999999
 30
0.0
 11
55.096600000000002
 21
63.953099999999999
 31
0.0
  0
LINE
  5
3DF
  8
_________1
 62
     7
 10
51.056100000000001
 20
61.651800000000001
 30
0.0
 11
51.415799999999997
 21
61.452599999999997
 31
0.0
  0
LINE
  5
3E0
  8
_________1
 62
     7
 10
55.456899999999997
 20
61.651800000000001
 30
0.0
 11
55.096600000000002
 21
61.4726
 31
0.0
  0
LINE
  5
3E1
  8
_________1
 62
     7
 10
55.096600000000002
 20
61.4726
 30
0.0
 11
55.096600000000002
 21
61.452599999999997
 31
0.0
  0
LINE
  5
3E2
  8
_________1
 62
     7
 10
55.336999999999989
 20
61.61249999999999
 30
0.0
 11
55.096600000000002
 21
61.4726
 31
0.0
  0
LINE
  5
3E3
  8
_________1
 62
     7
 10
53.2562
 20
61.452599999999997
 30
0.0
 11
55.096600000000002
 21
61.452599999999997
 31
0.0
  0
LINE
  5
3E4
  8
_________1
 62
     7
 10
51.415799999999997
 20
61.452599999999997
 30
0.0
 11
53.2562
 21
61.452599999999997
 31
0.0
  0
LINE
  5
3E5
  8
_________1
 62
     7
 10
52.256399999999999
 20
64.073700000000002
 30
0.0
 11
53.2562
 21
64.073700000000002
 31
0.0
  0
LINE
  5
3E6
  8
_________1
 62
     7
 10
54.256599999999999
 20
64.073700000000002
 30
0.0
 11
53.2562
 21
64.073700000000002
 31
0.0
  0
ARC
  5
3E7
  8
_________1
 62
     7
 10
53.225983999999997
 20
60.295568999999993
 30
0.0
 40
3.6371849999999988
 50
71.890508999999994
 51
81.175383999999994
  0
ARC
  5
3E8
  8
_________1
 62
     7
 10
53.288238999999997
 20
61.092649999999999
 30
0.0
 40
2.840638999999999
 50
79.949730000000002
 51
90.646782999999985
  0
ARC
  5
3E9
  8
_________1
 62
     7
 10
53.263694999999998
 20
60.443384000000002
 30
0.0
 40
3.4897330000000002
 50
90.123496000000003
 51
108.510108
  0
ARC
  5
3EA
  8
_________1
 62
     7
 10
54.238553000000003
 20
69.971831999999992
 30
0.0
 40
8.5768050000000002
 50
255.94607300000001
 51
260.55935699999998
  0
ARC
  5
3EB
  8
_________1
 62
     7
 10
53.083305000000003
 20
63.140481999999992
 30
0.0
 40
1.6485989999999999
 50
261.222598
 51
269.75788799999998
  0
LINE
  5
3EC
  8
_________1
 62
     7
 10
53.436000000000007
 20
61.491900000000001
 30
0.0
 11
53.076300000000003
 21
61.491900000000001
 31
0.0
  0
ARC
  5
3ED
  8
_________1
 62
     7
 10
50.767994999999992
 20
79.586409000000003
 30
0.0
 40
18.290151000000002
 50
278.38776300000001
 51
281.314909
  0
ARC
  5
3EE
  8
_________1
 62
     7
 10
51.363543
 20
62.41400500000001
 30
0.0
 40
1.5554639999999991
 50
59.380141000000009
 51
71.017106999999996
  0
ARC
  5
3EF
  8
_________1
 62
     7
 10
51.586368999999998
 20
63.087175999999999
 30
0.0
 40
0.8464620000000001
 50
70.457631000000006
 51
87.973755000000011
  0
ARC
  5
3F0
  8
_________1
 62
     7
 10
51.744343999999991
 20
62.576382999999993
 30
0.0
 40
1.362754
 50
95.391542000000015
 51
120.33287799999999
  0
ARC
  5
3F1
  8
_________1
 62
     7
 10
51.911330999999997
 20
63.426869999999987
 30
0.0
 40
1.9703879999999989
 50
244.27635000000001
 51
256.46679799999998
  0
ARC
  5
3F2
  8
_________1
 62
     7
 10
51.621358000000001
 20
62.259731000000002
 30
0.0
 40
0.7678500000000001
 50
257.12352200000009
 51
269.62238000000002
  0
ARC
  5
3F3
  8
_________1
 62
     7
 10
51.601180999999997
 20
62.217947000000002
 30
0.0
 40
0.726206
 50
271.19270699999998
 51
286.845955
  0
ARC
  5
3F4
  8
_________1
 62
     7
 10
50.693696000000003
 20
65.033136999999996
 30
0.0
 40
3.6839550000000001
 50
287.66564599999998
 51
293.38359400000002
  0
LINE
  5
3F5
  8
_________1
 62
     7
 10
52.155799999999999
 20
63.752600000000001
 30
0.0
 11
52.155799999999999
 21
61.651800000000001
 31
0.0
  0
LINE
  5
3F6
  8
_________1
 62
     7
 10
51.056100000000001
 20
63.752600000000001
 30
0.0
 11
51.056100000000001
 21
61.651800000000001
 31
0.0
  0
ARC
  5
3F7
  8
_________1
 62
     7
 10
54.704920000000001
 20
62.49513799999999
 30
0.0
 40
1.4651510000000001
 50
59.119181999999988
 51
71.708145000000002
  0
ARC
  5
3F8
  8
_________1
 62
     7
 10
54.877800999999998
 20
63.034708999999999
 30
0.0
 40
0.8985979999999999
 50
71.376434000000003
 51
88.792495000000002
  0
ARC
  5
3F9
  8
_________1
 62
     7
 10
54.951951000000001
 20
62.869399000000001
 30
0.0
 40
1.065140999999999
 50
92.971318999999994
 51
123.98623000000001
  0
ARC
  5
3FA
  8
_________1
 62
     7
 10
55.096770999999997
 20
63.052385999999998
 30
0.0
 40
1.5842080000000001
 50
242.14379700000001
 51
256.510895
  0
ARC
  5
3FB
  8
_________1
 62
     7
 10
54.899836000000001
 20
62.247079000000006
 30
0.0
 40
0.7551870000000001
 50
256.78833400000002
 51
269.76498700000002
  0
ARC
  5
3FC
  8
_________1
 62
     7
 10
54.880808999999992
 20
62.363084999999991
 30
0.0
 40
0.871333
 50
271.047459
 51
285.36699199999998
  0
ARC
  5
3FD
  8
_________1
 62
     7
 10
53.998255000000007
 20
65.032863000000006
 30
0.0
 40
3.6823359999999998
 50
287.60049900000001
 51
293.33604500000001
  0
LINE
  5
3FE
  8
_________1
 62
     7
 10
54.35649999999999
 20
63.752600000000001
 30
0.0
 11
54.35649999999999
 21
61.651800000000001
 31
0.0
  0
LINE
  5
3FF
  8
_________1
 62
     7
 10
55.456899999999997
 20
63.752600000000001
 30
0.0
 11
55.456899999999997
 21
61.651800000000001
 31
0.0
  0
INSERT
  5
400
  8
_________1
 62
     7
  2
AIGNBL0201001B
 10
0.0
 20
0.0
 30
0.0
  0
LINE
  5
401
  8
_________1
 62
     7
 10
52.254300000000001
 20
96.207700000000003
 30
0.0
 11
52.254300000000001
 21
67.653800000000004
 31
0.0
  0
LINE
  5
402
  8
_________1
 62
     7
 10
54.253900000000002
 20
67.653800000000004
 30
0.0
 11
54.253900000000002
 21
96.207700000000003
 31
0.0
  0
INSERT
  5
403
  8
_________1
 62
     7
  2
AIGNBL0201001C
 10
0.0
 20
0.0
 30
0.0
  0
LINE
  5
404
  8
_________1
 62
     7
 10
45.862299999999991
 20
104.428
 30
0.0
 11
51.479199999999999
 21
98.2196
 31
0.0
  0
LINE
  5
405
  8
_________1
 62
     7
 10
52.962600000000002
 20
99.561099999999996
 30
0.0
 11
47.345399999999991
 21
105.76900000000001
 31
0.0
  0
LINE
  5
406
  8
_________1
 62
     7
 10
46.570599999999999
 20
107.78100000000001
 30
0.0
 11
46.570599999999999
 21
113.447
 31
0.0
  0
LINE
  5
407
  8
_________1
 62
     7
 10
156.06999999999999
 20
67.093000000000004
 30
0.0
 11
156.06999999999999
 21
67.653800000000004
 31
0.0
  0
LINE
  5
408
  8
_________1
 62
     7
 10
158.77000000000001
 20
67.653800000000004
 30
0.0
 11
156.06999999999999
 21
67.653800000000004
 31
0.0
  0
LINE
  5
409
  8
_________1
 62
     7
 10
158.77000000000001
 20
67.093000000000004
 30
0.0
 11
158.77000000000001
 21
67.653800000000004
 31
0.0
  0
ARC
  5
40A
  8
_________1
 62
     7
 10
158.21510799999999
 20
67.151308
 30
0.0
 40
0.5575600000000001
 50
332.49838599999998
 51
353.99402900000001
  0
LINE
  5
40B
  8
_________1
 62
     7
 10
156.06999999999999
 20
66.993099999999998
 30
0.0
 11
156.06999999999999
 21
67.093000000000004
 31
0.0
  0
LINE
  5
40C
  8
_________1
 62
     7
 10
156.11000000000001
 20
66.893799999999985
 30
0.0
 11
156.06999999999999
 21
66.993099999999998
 31
0.0
  0
LINE
  5
40D
  8
_________1
 62
     7
 10
158.71000000000001
 20
66.893799999999985
 30
0.0
 11
158.56999999999999
 21
66.653400000000005
 31
0.0
  0
LINE
  5
40E
  8
_________1
 62
     7
 10
156.25
 20
66.653400000000005
 30
0.0
 11
156.11000000000001
 21
66.893799999999985
 31
0.0
  0
LINE
  5
40F
  8
_________1
 62
     7
 10
158.56999999999999
 20
65.052800000000005
 30
0.0
 11
158.56999999999999
 21
66.653400000000005
 31
0.0
  0
LINE
  5
410
  8
_________1
 62
     7
 10
156.25
 20
65.052800000000005
 30
0.0
 11
156.25
 21
66.653400000000005
 31
0.0
  0
LINE
  5
411
  8
_________1
 62
     7
 10
158.56999999999999
 20
66.653400000000005
 30
0.0
 11
156.25
 21
66.653400000000005
 31
0.0
  0
LINE
  5
412
  8
_________1
 62
     7
 10
158.73099999999999
 20
64.713099999999983
 30
0.0
 11
158.56999999999999
 21
65.052800000000005
 31
0.0
  0
LINE
  5
413
  8
_________1
 62
     7
 10
156.25
 20
65.052800000000005
 30
0.0
 11
156.09
 21
64.713099999999983
 31
0.0
  0
LINE
  5
414
  8
_________1
 62
     7
 10
158.56999999999999
 20
65.052800000000005
 30
0.0
 11
156.25
 21
65.052800000000005
 31
0.0
  0
LINE
  5
415
  8
_________1
 62
     7
 10
158.71000000000001
 20
64.313400000000001
 30
0.0
 11
158.41
 21
64.072299999999998
 31
0.0
  0
LINE
  5
416
  8
_________1
 62
     7
 10
158.73099999999999
 20
64.713099999999983
 30
0.0
 11
158.71000000000001
 21
64.313400000000001
 31
0.0
  0
LINE
  5
417
  8
_________1
 62
     7
 10
156.11000000000001
 20
64.313400000000001
 30
0.0
 11
156.09
 21
64.713099999999983
 31
0.0
  0
LINE
  5
418
  8
_________1
 62
     7
 10
156.41
 20
64.072299999999998
 30
0.0
 11
156.11000000000001
 21
64.313400000000001
 31
0.0
  0
LINE
  5
419
  8
_________1
 62
     7
 10
156.16999999999999
 20
63.953099999999999
 30
0.0
 11
156.16999999999999
 21
64.052300000000002
 31
0.0
  0
LINE
  5
41A
  8
_________1
 62
     7
 10
158.65000000000001
 20
64.052300000000002
 30
0.0
 11
156.16999999999999
 21
64.052300000000002
 31
0.0
  0
LINE
  5
41B
  8
_________1
 62
     7
 10
158.65000000000001
 20
63.953099999999999
 30
0.0
 11
158.65000000000001
 21
64.052300000000002
 31
0.0
  0
LINE
  5
41C
  8
_________1
 62
     7
 10
155.56800000000001
 20
63.953099999999999
 30
0.0
 11
155.50800000000001
 21
63.933100000000003
 31
0.0
  0
ARC
  5
41D
  8
_________1
 62
     7
 10
157.16447099999999
 20
-136.41658799999999
 30
0.0
 40
200.37602899999999
 50
89.834180999999987
 51
90.456179000000006
  0
ARC
  5
41E
  8
_________1
 62
     7
 10
158.04361599999999
 20
20.267692
 30
0.0
 40
43.691935000000001
 50
88.508364
 51
90.392450999999994
  0
ARC
  5
41F
  8
_________1
 62
     7
 10
159.21307400000001
 20
63.583622999999989
 30
0.0
 40
0.362624
 50
74.529433999999995
 51
95.081689999999995
  0
LINE
  5
420
  8
_________1
 62
     7
 10
155.56800000000001
 20
61.452599999999997
 30
0.0
 11
155.50800000000001
 21
61.491900000000001
 31
0.0
  0
LINE
  5
421
  8
_________1
 62
     7
 10
159.25
 20
61.452599999999997
 30
0.0
 11
155.56800000000001
 21
61.452599999999997
 31
0.0
  0
LINE
  5
422
  8
_________1
 62
     7
 10
159.31
 20
61.491900000000001
 30
0.0
 11
159.25
 21
61.452599999999997
 31
0.0
  0
LINE
  5
423
  8
_________1
 62
     7
 10
157.40899999999999
 20
64.072299999999998
 30
0.0
 11
156.41
 21
64.072299999999998
 31
0.0
  0
LINE
  5
424
  8
_________1
 62
     7
 10
158.41
 20
64.072299999999998
 30
0.0
 11
157.40899999999999
 21
64.072299999999998
 31
0.0
  0
LINE
  5
425
  8
_________1
 62
     7
 10
155.50800000000001
 20
63.751899999999992
 30
0.0
 11
155.50800000000001
 21
63.933100000000003
 31
0.0
  0
LINE
  5
426
  8
_________1
 62
     7
 10
155.50800000000001
 20
61.491900000000001
 30
0.0
 11
155.50800000000001
 21
61.651800000000001
 31
0.0
  0
LINE
  5
427
  8
_________1
 62
     7
 10
159.31
 20
63.751899999999992
 30
0.0
 11
159.31
 21
63.933100000000003
 31
0.0
  0
LINE
  5
428
  8
_________1
 62
     7
 10
159.31
 20
61.491900000000001
 30
0.0
 11
159.31
 21
61.651800000000001
 31
0.0
  0
ARC
  5
429
  8
_________1
 62
     7
 10
158.37616600000001
 20
61.264198
 30
0.0
 40
2.6689199999999991
 50
90.14773000000001
 51
111.235561
  0
ARC
  5
42A
  8
_________1
 62
     7
 10
158.198611
 20
60.515993000000002
 30
0.0
 40
3.4213749999999989
 50
71.047815
 51
87.14063800000001
  0
LINE
  5
42B
  8
_________1
 62
     7
 10
159.31
 20
61.651800000000001
 30
0.0
 11
159.31
 21
63.751899999999992
 31
0.0
  0
ARC
  5
42C
  8
_________1
 62
     7
 10
157.02929900000001
 20
70.387353000000004
 30
0.0
 40
9.0283679999999986
 50
281.4527819999999
 51
284.63101599999999
  0
ARC
  5
42D
  8
_________1
 62
     7
 10
158.336566
 20
64.018332999999984
 30
0.0
 40
2.5266459999999991
 50
270.74198699999999
 51
281.07626499999998
  0
ARC
  5
42E
  8
_________1
 62
     7
 10
158.38588799999999
 20
63.911312000000002
 30
0.0
 40
2.4194709999999988
 50
260.60685599999999
 51
269.60682000000003
  0
ARC
  5
42F
  8
_________1
 62
     7
 10
159.60880299999999
 20
70.295176999999995
 30
0.0
 40
8.9188469999999995
 50
255.72400099999999
 51
259.549262
  0
ARC
  5
430
  8
_________1
 62
     7
 10
156.47652199999999
 20
61.260556000000001
 30
0.0
 40
2.6725609999999991
 50
90.147386000000012
 51
111.22091899999999
  0
ARC
  5
431
  8
_________1
 62
     7
 10
156.298001
 20
60.515168999999993
 30
0.0
 40
3.422245999999999
 50
71.047792999999999
 51
87.125053000000008
  0
ARC
  5
432
  8
_________1
 62
     7
 10
155.206782
 20
70.051443000000006
 30
0.0
 40
8.6837020000000003
 50
281.38969100000003
 51
284.69410699999997
  0
ARC
  5
433
  8
_________1
 62
     7
 10
156.436914
 20
64.011336999999983
 30
0.0
 40
2.5196509999999992
 50
270.74437
 51
281.091769
  0
ARC
  5
434
  8
_________1
 62
     7
 10
156.4855
 20
63.910947
 30
0.0
 40
2.4191009999999991
 50
260.60686399999997
 51
269.62451900000002
  0
ARC
  5
435
  8
_________1
 62
     7
 10
157.70847599999999
 20
70.295176999999995
 30
0.0
 40
8.9188469999999995
 50
255.72400099999999
 51
259.549262
  0
LINE
  5
436
  8
_________1
 62
     7
 10
155.50800000000001
 20
61.651800000000001
 30
0.0
 11
155.50800000000001
 21
63.751899999999992
 31
0.0
  0
LINE
  5
437
  8
_________1
 62
     7
 10
157.40899999999999
 20
61.651800000000001
 30
0.0
 11
157.40899999999999
 21
63.751899999999992
 31
0.0
  0
LINE
  5
438
  8
_________1
 62
     7
 10
156.35900000000001
 20
113.447
 30
0.0
 11
156.35900000000001
 21
67.653800000000004
 31
0.0
  0
LINE
  5
439
  8
_________1
 62
     7
 10
158.46000000000001
 20
67.653800000000004
 30
0.0
 11
158.46000000000001
 21
113.447
 31
0.0
  0
LINE
  5
43A
  8
_________1
 62
     7
 10
42.070899999999988
 20
96.246900000000011
 30
0.0
 11
42.070899999999988
 21
93.446700000000007
 31
0.0
  0
LINE
  5
43B
  8
_________1
 62
     7
 10
45.470899999999993
 20
96.246900000000011
 30
0.0
 11
45.470899999999993
 21
93.446700000000007
 31
0.0
  0
LINE
  5
43C
  8
_________1
 62
     7
 10
42.4709
 20
90.246899999999997
 30
0.0
 11
42.371000000000002
 21
93.446700000000007
 31
0.0
  0
LINE
  5
43D
  8
_________1
 62
     7
 10
45.070900000000002
 20
90.246899999999997
 30
0.0
 11
45.170799999999993
 21
93.446700000000007
 31
0.0
  0
LINE
  5
43E
  8
_________1
 62
     7
 10
160.31
 20
96.246900000000011
 30
0.0
 11
158.46000000000001
 21
96.246900000000011
 31
0.0
  0
LINE
  5
43F
  8
_________1
 62
     7
 10
160.31
 20
93.446700000000007
 30
0.0
 11
158.46000000000001
 21
93.446700000000007
 31
0.0
  0
LINE
  5
440
  8
_________1
 62
     7
 10
159.91
 20
90.246899999999997
 30
0.0
 11
158.46000000000001
 21
90.246899999999997
 31
0.0
  0
LINE
  5
441
  8
_________1
 62
     7
 10
160.31
 20
96.246900000000011
 30
0.0
 11
160.31
 21
93.446700000000007
 31
0.0
  0
LINE
  5
442
  8
_________1
 62
     7
 10
159.91
 20
90.246899999999997
 30
0.0
 11
160.00999999999999
 21
93.446700000000007
 31
0.0
  0
INSERT
  5
443
  8
_________1
 62
     7
  2
AIGNBL0201001D
 10
0.0
 20
0.0
 30
0.0
  0
ARC
  5
444
  8
_________1
 62
     7
 10
49.190758000000002
 20
96.182636999999986
 30
0.0
 40
3.0636770000000002
 50
0.467897
 51
41.672848999999999
  0
ARC
  5
445
  8
_________1
 62
     7
 10
49.158338999999991
 20
96.170985999999999
 30
0.0
 40
5.0956720000000004
 50
0.41232
 51
41.705290000000012
  0
INSERT
  5
446
  8
_________1
 62
     7
  2
AIGNBL0201001E
 10
0.0
 20
0.0
 30
0.0
  0
ARC
  5
447
  8
_________1
 62
     7
 10
49.630265999999999
 20
107.804312
 30
0.0
 40
3.0597750000000001
 50
180.43314000000001
 51
221.69055900000001
  0
ARC
  5
448
  8
_________1
 62
     7
 10
49.611216999999989
 20
107.812155
 30
0.0
 40
5.0506589999999987
 50
204.905933
 51
222.074836
  0
INSERT
  5
449
  8
_________1
 62
     7
  2
AIGNBL0201001F
 10
0.0
 20
0.0
 30
0.0
  0
LINE
  5
44A
  8
_________1
 62
     7
 10
32.084899999999998
 20
61.651800000000001
 30
0.0
 11
32.444899999999997
 21
61.452599999999997
 31
0.0
  0
LINE
  5
44B
  8
_________1
 62
     7
 10
36.485300000000002
 20
61.651800000000001
 30
0.0
 11
36.125999999999998
 21
61.452599999999997
 31
0.0
  0
LINE
  5
44C
  8
_________1
 62
     7
 10
33.045000000000002
 20
64.052300000000002
 30
0.0
 11
33.045000000000002
 21
63.953099999999999
 31
0.0
  0
LINE
  5
44D
  8
_________1
 62
     7
 10
35.525500000000001
 20
64.052300000000002
 30
0.0
 11
35.525500000000001
 21
63.953099999999999
 31
0.0
  0
LINE
  5
44E
  8
_________1
 62
     7
 10
33.14500000000001
 20
66.653400000000005
 30
0.0
 11
33.14500000000001
 21
65.052800000000005
 31
0.0
  0
LINE
  5
44F
  8
_________1
 62
     7
 10
35.445599999999999
 20
66.653400000000005
 30
0.0
 11
35.445599999999999
 21
65.052800000000005
 31
0.0
  0
LINE
  5
450
  8
_________1
 62
     7
 10
33.14500000000001
 20
65.052800000000005
 30
0.0
 11
32.985100000000003
 21
64.713099999999983
 31
0.0
  0
LINE
  5
451
  8
_________1
 62
     7
 10
33.005099999999999
 20
66.893199999999993
 30
0.0
 11
33.14500000000001
 21
66.653400000000005
 31
0.0
  0
LINE
  5
452
  8
_________1
 62
     7
 10
35.445599999999999
 20
65.052800000000005
 30
0.0
 11
35.585799999999999
 21
64.713099999999983
 31
0.0
  0
LINE
  5
453
  8
_________1
 62
     7
 10
35.585799999999999
 20
66.893199999999993
 30
0.0
 11
35.445599999999999
 21
66.653400000000005
 31
0.0
  0
LINE
  5
454
  8
_________1
 62
     7
 10
36.125999999999998
 20
63.953099999999999
 30
0.0
 11
36.485300000000002
 21
63.752600000000001
 31
0.0
  0
LINE
  5
455
  8
_________1
 62
     7
 10
32.444899999999997
 20
63.953099999999999
 30
0.0
 11
32.084899999999998
 21
63.752600000000001
 31
0.0
  0
LINE
  5
456
  8
_________1
 62
     7
 10
32.945500000000003
 20
67.653800000000004
 30
0.0
 11
32.945500000000003
 21
67.093000000000004
 31
0.0
  0
LINE
  5
457
  8
_________1
 62
     7
 10
35.645400000000002
 20
67.653800000000004
 30
0.0
 11
35.645400000000002
 21
67.093000000000004
 31
0.0
  0
LINE
  5
458
  8
_________1
 62
     7
 10
35.645400000000002
 20
67.653800000000004
 30
0.0
 11
32.945500000000003
 21
67.653800000000004
 31
0.0
  0
LINE
  5
459
  8
_________1
 62
     7
 10
35.625399999999999
 20
66.993099999999998
 30
0.0
 11
35.585799999999999
 21
66.893199999999993
 31
0.0
  0
LINE
  5
45A
  8
_________1
 62
     7
 10
35.645400000000002
 20
67.093000000000004
 30
0.0
 11
35.625399999999999
 21
66.993099999999998
 31
0.0
  0
LINE
  5
45B
  8
_________1
 62
     7
 10
32.945500000000003
 20
66.993099999999998
 30
0.0
 11
33.005099999999999
 21
66.893199999999993
 31
0.0
  0
LINE
  5
45C
  8
_________1
 62
     7
 10
32.945500000000003
 20
67.093000000000004
 30
0.0
 11
32.945500000000003
 21
66.993099999999998
 31
0.0
  0
LINE
  5
45D
  8
_________1
 62
     7
 10
34.285299999999999
 20
66.653400000000005
 30
0.0
 11
33.14500000000001
 21
66.653400000000005
 31
0.0
  0
LINE
  5
45E
  8
_________1
 62
     7
 10
35.445599999999999
 20
66.653400000000005
 30
0.0
 11
34.285299999999999
 21
66.653400000000005
 31
0.0
  0
LINE
  5
45F
  8
_________1
 62
     7
 10
35.445599999999999
 20
65.052800000000005
 30
0.0
 11
33.14500000000001
 21
65.052800000000005
 31
0.0
  0
LINE
  5
460
  8
_________1
 62
     7
 10
35.305
 20
64.073700000000002
 30
0.0
 11
35.285400000000003
 21
64.073700000000002
 31
0.0
  0
ARC
  5
461
  8
_________1
 62
     7
 10
33.688575
 20
67.336097999999993
 30
0.0
 40
3.6409359999999991
 50
296.35752100000002
 51
298.47692000000001
  0
ARC
  5
462
  8
_________1
 62
     7
 10
35.271791999999998
 20
64.419450999999995
 30
0.0
 40
0.322293
 50
298.30065999999999
 51
323.86285299999997
  0
ARC
  5
463
  8
_________1
 62
     7
 10
34.947842000000001
 20
64.592219
 30
0.0
 40
0.6877340000000001
 50
328.15830199999999
 51
341.38640500000002
  0
LINE
  5
464
  8
_________1
 62
     7
 10
35.625399999999999
 20
64.452600000000004
 30
0.0
 11
35.599600000000002
 21
64.372699999999995
 31
0.0
  0
LINE
  5
465
  8
_________1
 62
     7
 10
35.625399999999999
 20
64.5732
 30
0.0
 11
35.625399999999999
 21
64.452600000000004
 31
0.0
  0
ARC
  5
466
  8
_________1
 62
     7
 10
31.893367999999999
 20
64.111420999999993
 30
0.0
 40
3.7605339999999989
 50
7.0536719999999988
 51
9.2065310000000018
  0
LINE
  5
467
  8
_________1
 62
     7
 10
35.605499999999999
 20
64.713099999999983
 30
0.0
 11
35.585799999999999
 21
64.713099999999983
 31
0.0
  0
LINE
  5
468
  8
_________1
 62
     7
 10
32.945500000000003
 20
64.5732
 30
0.0
 11
32.985100000000003
 21
64.713099999999983
 31
0.0
  0
LINE
  5
469
  8
_________1
 62
     7
 10
32.945500000000003
 20
64.452600000000004
 30
0.0
 11
32.945500000000003
 21
64.5732
 31
0.0
  0
LINE
  5
46A
  8
_________1
 62
     7
 10
32.972000000000001
 20
64.372699999999995
 30
0.0
 11
32.945500000000003
 21
64.452600000000004
 31
0.0
  0
ARC
  5
46B
  8
_________1
 62
     7
 10
33.485379000000002
 20
64.596827000000005
 30
0.0
 40
0.560158
 50
203.58472900000001
 51
249.05875599999999
  0
LINE
  5
46C
  8
_________1
 62
     7
 10
35.525500000000001
 20
64.052300000000002
 30
0.0
 11
33.045000000000002
 21
64.052300000000002
 31
0.0
  0
LINE
  5
46D
  8
_________1
 62
     7
 10
36.125999999999998
 20
63.953099999999999
 30
0.0
 11
32.444899999999997
 21
63.953099999999999
 31
0.0
  0
LINE
  5
46E
  8
_________1
 62
     7
 10
36.485300000000002
 20
61.651800000000001
 30
0.0
 11
36.125999999999998
 21
61.452599999999997
 31
0.0
  0
LINE
  5
46F
  8
_________1
 62
     7
 10
32.084899999999998
 20
61.651800000000001
 30
0.0
 11
32.444899999999997
 21
61.4726
 31
0.0
  0
LINE
  5
470
  8
_________1
 62
     7
 10
32.444899999999997
 20
61.4726
 30
0.0
 11
32.444899999999997
 21
61.452599999999997
 31
0.0
  0
LINE
  5
471
  8
_________1
 62
     7
 10
32.204799999999999
 20
61.61249999999999
 30
0.0
 11
32.444899999999997
 21
61.4726
 31
0.0
  0
LINE
  5
472
  8
_________1
 62
     7
 10
34.285299999999999
 20
61.452599999999997
 30
0.0
 11
32.444899999999997
 21
61.452599999999997
 31
0.0
  0
LINE
  5
473
  8
_________1
 62
     7
 10
36.125999999999998
 20
61.452599999999997
 30
0.0
 11
34.285299999999999
 21
61.452599999999997
 31
0.0
  0
LINE
  5
474
  8
_________1
 62
     7
 10
35.285400000000003
 20
64.073700000000002
 30
0.0
 11
34.285299999999999
 21
64.073700000000002
 31
0.0
  0
LINE
  5
475
  8
_________1
 62
     7
 10
33.28520000000001
 20
64.073700000000002
 30
0.0
 11
34.285299999999999
 21
64.073700000000002
 31
0.0
  0
ARC
  5
476
  8
_________1
 62
     7
 10
34.413815
 20
59.895102000000001
 30
0.0
 40
4.0482909999999999
 50
95.063190000000006
 51
107.66123899999999
  0
ARC
  5
477
  8
_________1
 62
     7
 10
34.205730000000003
 20
62.485420999999988
 30
0.0
 40
1.4498719999999989
 50
86.854361999999995
 51
95.906326000000007
  0
ARC
  5
478
  8
_________1
 62
     7
 10
34.287196000000002
 20
60.500852999999999
 30
0.0
 40
3.4322550000000001
 50
71.334549999999993
 51
90.031806000000003
  0
ARC
  5
479
  8
_________1
 62
     7
 10
38.517053000000011
 20
46.172460000000001
 30
0.0
 40
15.792849
 50
101.436334
 51
103.325157
  0
ARC
  5
47A
  8
_________1
 62
     7
 10
34.424108000000011
 20
63.626401000000001
 30
0.0
 40
2.134897
 50
271.100888
 51
282.25209000000001
  0
LINE
  5
47B
  8
_________1
 62
     7
 10
34.105800000000002
 20
61.491900000000001
 30
0.0
 11
34.4651
 21
61.491900000000001
 31
0.0
  0
ARC
  5
47C
  8
_________1
 62
     7
 10
35.757066999999999
 20
73.725810999999993
 30
0.0
 40
12.344849999999999
 50
257.97714200000001
 51
262.312994
  0
ARC
  5
47D
  8
_________1
 62
     7
 10
36.108047999999997
 20
62.563226
 30
0.0
 40
1.3915519999999999
 50
104.053698
 51
121.273471
  0
ARC
  5
47E
  8
_________1
 62
     7
 10
35.925739
 20
63.317256000000008
 30
0.0
 40
0.615853
 50
90.021229000000005
 51
104.635133
  0
ARC
  5
47F
  8
_________1
 62
     7
 10
35.799534000000001
 20
62.584115000000011
 30
0.0
 40
1.354862999999999
 50
59.590091999999999
 51
84.664861000000002
  0
ARC
  5
480
  8
_________1
 62
     7
 10
35.257342999999999
 20
64.381298000000001
 30
0.0
 40
2.9930590000000001
 50
288.331613
 51
294.22257500000001
  0
ARC
  5
481
  8
_________1
 62
     7
 10
35.898117999999997
 20
62.444907999999998
 30
0.0
 40
0.953404
 50
271.64641699999999
 51
288.37780400000003
  0
ARC
  5
482
  8
_________1
 62
     7
 10
35.939734999999999
 20
62.212330999999999
 30
0.0
 40
0.7205740000000001
 50
253.09249700000001
 51
268.86887999999999
  0
ARC
  5
483
  8
_________1
 62
     7
 10
36.765250999999999
 20
64.815495999999996
 30
0.0
 40
3.451455999999999
 50
246.439795
 51
252.54863599999999
  0
LINE
  5
484
  8
_________1
 62
     7
 10
35.3857
 20
63.752600000000001
 30
0.0
 11
35.3857
 21
61.651800000000001
 31
0.0
  0
LINE
  5
485
  8
_________1
 62
     7
 10
36.485300000000002
 20
63.752600000000001
 30
0.0
 11
36.485300000000002
 21
61.651800000000001
 31
0.0
  0
ARC
  5
486
  8
_________1
 62
     7
 10
32.782311
 20
62.614660000000001
 30
0.0
 40
1.33464
 50
103.241514
 51
121.503524
  0
ARC
  5
487
  8
_________1
 62
     7
 10
32.64533800000001
 20
63.185584999999989
 30
0.0
 40
0.7475230000000001
 50
90.020543000000018
 51
103.045475
  0
ARC
  5
488
  8
_________1
 62
     7
 10
32.587262000000003
 20
62.860492000000001
 30
0.0
 40
1.074173
 50
56.149312999999992
 51
86.915055000000009
  0
ARC
  5
489
  8
_________1
 62
     7
 10
32.337870000000002
 20
63.313091
 30
0.0
 40
1.8651299999999991
 50
288.01923799999997
 51
297.03404399999999
  0
ARC
  5
48A
  8
_________1
 62
     7
 10
32.625585999999998
 20
62.391493000000011
 30
0.0
 40
0.899806
 50
271.24072799999999
 51
288.750202
  0
ARC
  5
48B
  8
_________1
 62
     7
 10
32.661206
 20
62.367099000000003
 30
0.0
 40
0.8753489999999999
 50
254.66775699999999
 51
268.943738
  0
ARC
  5
48C
  8
_________1
 62
     7
 10
33.491841000000001
 20
64.891482999999994
 30
0.0
 40
3.532046999999999
 50
246.52571399999999
 51
252.500282
  0
LINE
  5
48D
  8
_________1
 62
     7
 10
33.185600000000001
 20
63.752600000000001
 30
0.0
 11
33.185600000000001
 21
61.651800000000001
 31
0.0
  0
LINE
  5
48E
  8
_________1
 62
     7
 10
32.084899999999998
 20
63.752600000000001
 30
0.0
 11
32.084899999999998
 21
61.651800000000001
 31
0.0
  0
INSERT
  5
48F
  8
_________1
 62
     7
  2
AIGNBL02010020
 10
0.0
 20
0.0
 30
0.0
  0
LINE
  5
490
  8
_________1
 62
     7
 10
35.287500000000001
 20
96.207700000000003
 30
0.0
 11
35.287500000000001
 21
67.653800000000004
 31
0.0
  0
LINE
  5
491
  8
_________1
 62
     7
 10
33.287599999999998
 20
67.653800000000004
 30
0.0
 11
33.287599999999998
 21
96.207700000000003
 31
0.0
  0
INSERT
  5
492
  8
_________1
 62
     7
  2
AIGNBL02010021
 10
0.0
 20
0.0
 30
0.0
  0
LINE
  5
493
  8
_________1
 62
     7
 10
41.679900000000004
 20
104.428
 30
0.0
 11
36.0623
 21
98.2196
 31
0.0
  0
LINE
  5
494
  8
_________1
 62
     7
 10
34.578800000000001
 20
99.561099999999996
 30
0.0
 11
40.196100000000001
 21
105.76900000000001
 31
0.0
  0
LINE
  5
495
  8
_________1
 62
     7
 10
40.9709
 20
107.78100000000001
 30
0.0
 11
40.9709
 21
113.447
 31
0.0
  0
INSERT
  5
496
  8
_________1
 62
     7
  2
AIGNBL02010022
 10
0.0
 20
0.0
 30
0.0
  0
ARC
  5
497
  8
_________1
 62
     7
 10
38.348844
 20
96.183879000000005
 30
0.0
 40
3.0614609999999991
 50
138.32131799999999
 51
179.55498299999999
  0
ARC
  5
498
  8
_________1
 62
     7
 10
38.395309000000012
 20
96.166293999999994
 30
0.0
 40
5.1078919999999988
 50
138.34633299999999
 51
179.53601699999999
  0
INSERT
  5
499
  8
_________1
 62
     7
  2
AIGNBL02010023
 10
0.0
 20
0.0
 30
0.0
  0
ARC
  5
49A
  8
_________1
 62
     7
 10
37.909928999999998
 20
107.804801
 30
0.0
 40
3.0610469999999999
 50
318.31841900000001
 51
359.55792200000002
  0
ARC
  5
49B
  8
_________1
 62
     7
 10
37.940744000000002
 20
107.804185
 30
0.0
 40
5.0377819999999991
 50
317.91508700000003
 51
335.12602299999998
  0
ARC
  5
49C
  8
_________1
 62
     7
 10
145.18982099999999
 20
54.537520999999991
 30
0.0
 40
13.819748000000001
 50
324.06461200000001
 51
359.70602700000001
  0
ARC
  5
49D
  8
_________1
 62
     7
 10
145.429688
 20
54.454782000000002
 30
0.0
 40
13.579705000000001
 50
0.049926
 51
13.94675
  0
ARC
  5
49E
  8
_________1
 62
     7
 10
195.711692
 20
66.943966000000003
 30
0.0
 40
38.230136000000002
 50
192.83521399999989
 51
193.94981799999999
  0
ARC
  5
49F
  8
_________1
 62
     7
 10
187.56293700000001
 20
65.345780000000005
 30
0.0
 40
29.931021000000001
 50
187.475041
 51
193.31756200000001
  0
ARC
  5
4A0
  8
_________1
 62
     7
 10
154.12466800000001
 20
120.32513899999999
 30
0.0
 40
0.252382
 50
273.96637299999998
 51
355.8648720000001
  0
ARC
  5
4A1
  8
_________1
 62
     7
 10
154.12462300000001
 20
120.289438
 30
0.0
 40
0.252378
 50
3.9766689999999998
 51
86.023321999999993
  0
ARC
  5
4A2
  8
_________1
 62
     7
 10
154.15876700000001
 20
120.290299
 30
0.0
 40
0.25146
 50
93.794476000000003
 51
176.20549399999999
  0
ARC
  5
4A3
  8
_________1
 62
     7
 10
154.15892099999999
 20
120.32447500000001
 30
0.0
 40
0.251675
 50
183.995161
 51
266.173633
  0
ARC
  5
4A4
  8
_________1
 62
     7
 10
44.690756999999998
 20
86.262968000000001
 30
0.0
 40
1.582587
 50
282.08155599999998
 51
313.97262999999998
  0
ARC
  5
4A5
  8
_________1
 62
     7
 10
44.683919000000003
 20
86.676709000000002
 30
0.0
 40
1.990200999999999
 50
259.652083
 51
279.78037499999999
  0
ARC
  5
4A6
  8
_________1
 62
     7
 10
49.254530000000003
 20
106.247389
 30
0.0
 40
22.085355
 50
254.49727999999999
 51
257.10655100000002
  0
ARC
  5
4A7
  8
_________1
 62
     7
 10
42.564270999999998
 20
81.848339999999993
 30
0.0
 40
3.215068
 50
75.827384999999992
 51
83.830456999999996
  0
ARC
  5
4A8
  8
_________1
 62
     7
 10
42.741296999999989
 20
83.402082999999976
 30
0.0
 40
1.651322999999999
 50
84.143381000000005
 51
127.86204499999999
  0
ARC
  5
4A9
  8
_________1
 62
     7
 10
44.691417999999999
 20
85.191135000000017
 30
0.0
 40
1.5793619999999999
 50
282.08207199999998
 51
314.05223699999999
  0
ARC
  5
4AA
  8
_________1
 62
     7
 10
44.684086000000001
 20
85.641622999999996
 30
0.0
 40
2.0232830000000002
 50
259.818309
 51
279.61415
  0
ARC
  5
4AB
  8
_________1
 62
     7
 10
49.775207999999999
 20
107.2367
 30
0.0
 40
24.207685000000001
 50
254.6116770000001
 51
256.99215500000003
  0
ARC
  5
4AC
  8
_________1
 62
     7
 10
42.58276
 20
80.909389000000004
 30
0.0
 40
3.084795999999999
 50
75.570393999999993
 51
83.914299999999983
  0
ARC
  5
4AD
  8
_________1
 62
     7
 10
42.743219000000003
 20
82.327394999999996
 30
0.0
 40
1.6577959999999989
 50
84.233105000000009
 51
127.77232099999991
  0
ARC
  5
4AE
  8
_________1
 62
     7
 10
159.533457
 20
86.254362999999998
 30
0.0
 40
1.573364999999999
 50
281.88822599999997
 51
314.07573200000002
  0
ARC
  5
4AF
  8
_________1
 62
     7
 10
159.52248599999999
 20
86.741435999999979
 30
0.0
 40
2.054206999999999
 50
258.98415299999999
 51
279.38825600000001
  0
ARC
  5
4B0
  8
_________1
 62
     7
 10
162.2556669999999
 20
98.560463999999996
 30
0.0
 40
14.184070999999999
 50
254.465012
 51
257.26942300000002
  0
ARC
  5
4B1
  8
_________1
 62
     7
 10
159.53308000000001
 20
85.186541000000005
 30
0.0
 40
1.5737449999999999
 50
281.92499900000001
 51
314.081458
  0
ARC
  5
4B2
  8
_________1
 62
     7
 10
159.521354
 20
85.652303000000003
 30
0.0
 40
2.0336460000000001
 50
258.94341400000002
 51
279.53604900000011
  0
ARC
  5
4B3
  8
_________1
 62
     7
 10
162.074127
 20
96.803380000000004
 30
0.0
 40
13.472302000000001
 50
254.43400600000001
 51
257.38305400000002
  0
ARC
  5
4B4
  8
_________1
 62
     7
 10
147.230921
 20
82.141154999999998
 30
0.0
 40
1.579696999999999
 50
254.840012
 51
286.79432400000002
  0
ARC
  5
4B5
  8
_________1
 62
     7
 10
147.41271900000001
 20
82.514360999999994
 30
0.0
 40
1.9889829999999999
 50
232.44690499999999
 51
252.596204
  0
ARC
  5
4B6
  8
_________1
 62
     7
 10
161.65294800000001
 20
99.232224000000002
 30
0.0
 40
23.947364
 50
227.407839
 51
229.81411900000001
  0
ARC
  5
4B7
  8
_________1
 62
     7
 10
143.499765
 20
79.430521999999996
 30
0.0
 40
2.9163069999999989
 50
48.137172999999997
 51
56.961658999999997
  0
ARC
  5
4B8
  8
_________1
 62
     7
 10
144.188436
 20
80.489906999999988
 30
0.0
 40
1.6527540000000001
 50
56.95265899999999
 51
100.61640800000001
  0
ARC
  5
4B9
  8
_________1
 62
     7
 10
146.741715
 20
81.190991999999994
 30
0.0
 40
1.579696999999999
 50
254.840012
 51
286.79432400000002
  0
ARC
  5
4BA
  8
_________1
 62
     7
 10
146.938783
 20
81.590924999999984
 30
0.0
 40
2.0190639999999989
 50
232.58113900000009
 51
252.40957000000009
  0
ARC
  5
4BB
  8
_________1
 62
     7
 10
160.455928
 20
97.46069399999999
 30
0.0
 40
22.862704000000001
 50
227.32074100000011
 51
229.842341
  0
ARC
  5
4BC
  8
_________1
 62
     7
 10
142.81822500000001
 20
78.229044999999985
 30
0.0
 40
3.2328899999999998
 50
48.569978999999996
 51
56.528853000000012
  0
ARC
  5
4BD
  8
_________1
 62
     7
 10
143.69966400000001
 20
79.540026999999995
 30
0.0
 40
1.653233
 50
56.952931
 51
100.62862199999999
  0
LINE
  5
4BE
  8
_________1
 62
     7
 10
39.37060000000001
 20
131.447
 30
0.0
 11
48.171199999999999
 21
131.447
 31
0.0
  0
LINE
  5
4BF
  8
_________1
 62
     7
 10
38.270600000000002
 20
146.74799999999999
 30
0.0
 11
39.37060000000001
 21
146.74799999999999
 31
0.0
  0
LINE
  5
4C0
  8
_________1
 62
     7
 10
48.171199999999999
 20
146.74799999999999
 30
0.0
 11
59.450499999999998
 21
146.74799999999999
 31
0.0
  0
LINE
  5
4C1
  8
_________1
 62
     7
 10
60.13539999999999
 20
146.77699999999999
 30
0.0
 11
60.156100000000002
 21
146.77600000000001
 31
0.0
  0
LINE
  5
4C2
  8
_________1
 62
     7
 10
60.114699999999999
 20
146.77799999999999
 30
0.0
 11
60.13539999999999
 21
146.77699999999999
 31
0.0
  0
LINE
  5
4C3
  8
_________1
 62
     7
 10
60.093400000000003
 20
146.779
 30
0.0
 11
60.114699999999999
 21
146.77799999999999
 31
0.0
  0
LINE
  5
4C4
  8
_________1
 62
     7
 10
60.071300000000001
 20
146.78
 30
0.0
 11
60.093400000000003
 21
146.779
 31
0.0
  0
LINE
  5
4C5
  8
_________1
 62
     7
 10
60.049300000000002
 20
146.78100000000001
 30
0.0
 11
60.071300000000001
 21
146.78
 31
0.0
  0
LINE
  5
4C6
  8
_________1
 62
     7
 10
60.026499999999999
 20
146.78200000000001
 30
0.0
 11
60.049300000000002
 21
146.78100000000001
 31
0.0
  0
LINE
  5
4C7
  8
_________1
 62
     7
 10
60.003100000000003
 20
146.78399999999999
 30
0.0
 11
60.026499999999999
 21
146.78200000000001
 31
0.0
  0
LINE
  5
4C8
  8
_________1
 62
     7
 10
59.979700000000001
 20
146.78399999999999
 30
0.0
 11
60.003100000000003
 21
146.78399999999999
 31
0.0
  0
LINE
  5
4C9
  8
_________1
 62
     7
 10
59.956200000000003
 20
146.78399999999999
 30
0.0
 11
59.979700000000001
 21
146.78399999999999
 31
0.0
  0
LINE
  5
4CA
  8
_________1
 62
     7
 10
59.9328
 20
146.78399999999999
 30
0.0
 11
59.956200000000003
 21
146.78399999999999
 31
0.0
  0
LINE
  5
4CB
  8
_________1
 62
     7
 10
59.90870000000001
 20
146.786
 30
0.0
 11
59.9328
 21
146.78399999999999
 31
0.0
  0
LINE
  5
4CC
  8
_________1
 62
     7
 10
59.870800000000003
 20
146.786
 30
0.0
 11
59.90870000000001
 21
146.786
 31
0.0
  0
LINE
  5
4CD
  8
_________1
 62
     7
 10
60.156100000000002
 20
146.77600000000001
 30
0.0
 11
60.194000000000003
 21
146.773
 31
0.0
  0
LINE
  5
4CE
  8
_________1
 62
     7
 10
60.194000000000003
 20
146.773
 30
0.0
 11
60.229100000000003
 21
146.77099999999999
 31
0.0
  0
LINE
  5
4CF
  8
_________1
 62
     7
 10
60.229100000000003
 20
146.77099999999999
 30
0.0
 11
60.260800000000003
 21
146.768
 31
0.0
  0
LINE
  5
4D0
  8
_________1
 62
     7
 10
60.369700000000002
 20
146.75800000000001
 30
0.0
 11
62.471200000000003
 21
146.75800000000001
 31
0.0
  0
LINE
  5
4D1
  8
_________1
 62
     7
 10
60.364800000000002
 20
146.75800000000001
 30
0.0
 11
60.369700000000002
 21
146.75800000000001
 31
0.0
  0
LINE
  5
4D2
  8
_________1
 62
     7
 10
60.359299999999998
 20
146.75800000000001
 30
0.0
 11
60.364800000000002
 21
146.75800000000001
 31
0.0
  0
LINE
  5
4D3
  8
_________1
 62
     7
 10
60.260800000000003
 20
146.768
 30
0.0
 11
60.2883
 21
146.76499999999999
 31
0.0
  0
LINE
  5
4D4
  8
_________1
 62
     7
 10
60.2883
 20
146.76499999999999
 30
0.0
 11
60.3125
 21
146.76400000000001
 31
0.0
  0
LINE
  5
4D5
  8
_________1
 62
     7
 10
60.3125
 20
146.76400000000001
 30
0.0
 11
60.339300000000001
 21
146.75999999999999
 31
0.0
  0
LINE
  5
4D6
  8
_________1
 62
     7
 10
60.339300000000001
 20
146.75999999999999
 30
0.0
 11
60.357900000000001
 21
146.75899999999999
 31
0.0
  0
LINE
  5
4D7
  8
_________1
 62
     7
 10
60.357900000000001
 20
146.75899999999999
 30
0.0
 11
60.359299999999998
 21
146.75800000000001
 31
0.0
  0
LINE
  5
4D8
  8
_________1
 62
     7
 10
38.070399999999999
 20
155.94799999999989
 30
0.0
 11
38.070399999999999
 21
146.94800000000001
 31
0.0
  0
LINE
  5
4D9
  8
_________1
 62
     7
 10
38.270600000000002
 20
146.74799999999999
 30
0.0
 11
38.270600000000002
 21
156.148
 31
0.0
  0
LINE
  5
4DA
  8
_________1
 62
     7
 10
39.37060000000001
 20
131.447
 30
0.0
 11
39.37060000000001
 21
146.74799999999999
 31
0.0
  0
LINE
  5
4DB
  8
_________1
 62
     7
 10
41.470399999999991
 20
194.24799999999999
 30
0.0
 11
41.470399999999991
 21
193.875
 31
0.0
  0
LINE
  5
4DC
  8
_________1
 62
     7
 10
41.470399999999991
 20
157.548
 30
0.0
 11
41.470399999999991
 21
156.148
 31
0.0
  0
LINE
  5
4DD
  8
_________1
 62
     7
 10
41.470399999999991
 20
157.59800000000001
 30
0.0
 11
41.470399999999991
 21
193.874
 31
0.0
  0
LINE
  5
4DE
  8
_________1
 62
     7
 10
41.870699999999999
 20
191.51599999999999
 30
0.0
 11
41.870699999999999
 21
192.86799999999999
 31
0.0
  0
LINE
  5
4DF
  8
_________1
 62
     7
 10
41.960700000000003
 20
157.59800000000001
 30
0.0
 11
41.960700000000003
 21
157.548
 31
0.0
  0
LINE
  5
4E0
  8
_________1
 62
     7
 10
59.870800000000003
 20
155.70699999999999
 30
0.0
 11
62.471200000000003
 21
155.70699999999999
 31
0.0
  0
LINE
  5
4E1
  8
_________1
 62
     7
 10
38.270600000000002
 20
156.148
 30
0.0
 11
41.470399999999991
 21
156.148
 31
0.0
  0
LINE
  5
4E2
  8
_________1
 62
     7
 10
46.27089999999999
 20
156.148
 30
0.0
 11
59.450499999999998
 21
156.148
 31
0.0
  0
INSERT
  5
4E3
  8
_________1
 62
     7
  2
AIGNBL02010024
 10
0.0
 20
0.0
 30
0.0
  0
INSERT
  5
4E4
  8
_________1
 62
     7
  2
AIGNBL02010025
 10
0.0
 20
0.0
 30
0.0
  0
LINE
  5
4E5
  8
_________1
 62
     7
 10
45.780599999999993
 20
157.59800000000001
 30
0.0
 11
45.780599999999993
 21
157.548
 31
0.0
  0
LINE
  5
4E6
  8
_________1
 62
     7
 10
45.8705
 20
191.51599999999999
 30
0.0
 11
45.8705
 21
192.86799999999999
 31
0.0
  0
LINE
  5
4E7
  8
_________1
 62
     7
 10
59.870800000000003
 20
157.524
 30
0.0
 11
62.671000000000006
 21
157.524
 31
0.0
  0
LINE
  5
4E8
  8
_________1
 62
     7
 10
41.470399999999991
 20
157.548
 30
0.0
 11
46.27089999999999
 21
157.548
 31
0.0
  0
LINE
  5
4E9
  8
_________1
 62
     7
 10
41.470399999999991
 20
157.59800000000001
 30
0.0
 11
46.27089999999999
 21
157.59800000000001
 31
0.0
  0
LINE
  5
4EA
  8
_________1
 62
     7
 10
46.27089999999999
 20
194.24799999999999
 30
0.0
 11
46.27089999999999
 21
193.875
 31
0.0
  0
LINE
  5
4EB
  8
_________1
 62
     7
 10
46.27089999999999
 20
157.548
 30
0.0
 11
46.27089999999999
 21
156.148
 31
0.0
  0
LINE
  5
4EC
  8
_________1
 62
     7
 10
46.27089999999999
 20
157.59800000000001
 30
0.0
 11
46.27089999999999
 21
193.874
 31
0.0
  0
INSERT
  5
4ED
  8
_________1
 62
     7
  2
AIGNBL02010026
 10
0.0
 20
0.0
 30
0.0
  0
LINE
  5
4EE
  8
_________1
 62
     7
 10
48.171199999999999
 20
131.447
 30
0.0
 11
48.171199999999999
 21
146.74799999999999
 31
0.0
  0
INSERT
  5
4EF
  8
_________1
 62
     7
  2
AIGNBL02010027
 10
0.0
 20
0.0
 30
0.0
  0
LINE
  5
4F0
  8
_________1
 62
     7
 10
59.870800000000003
 20
167.44900000000001
 30
0.0
 11
62.471200000000003
 21
167.44900000000001
 31
0.0
  0
LINE
  5
4F1
  8
_________1
 62
     7
 10
59.450499999999998
 20
156.148
 30
0.0
 11
59.450499999999998
 21
146.74799999999999
 31
0.0
  0
LINE
  5
4F2
  8
_________1
 62
     7
 10
59.550400000000003
 20
156.048
 30
0.0
 11
59.550400000000003
 21
146.84800000000001
 31
0.0
  0
LINE
  5
4F3
  8
_________1
 62
     7
 10
59.870800000000003
 20
146.786
 30
0.0
 11
59.870800000000003
 21
167.44900000000001
 31
0.0
  0
LINE
  5
4F4
  8
_________1
 62
     7
 10
62.471200000000003
 20
167.44900000000001
 30
0.0
 11
62.471200000000003
 21
146.75800000000001
 31
0.0
  0
LINE
  5
4F5
  8
_________1
 62
     7
 10
62.671000000000006
 20
167.249
 30
0.0
 11
62.671000000000006
 21
146.959
 31
0.0
  0
LINE
  5
4F6
  8
_________1
 62
     7
 10
161.81
 20
131.447
 30
0.0
 11
153.00899999999999
 21
131.447
 31
0.0
  0
LINE
  5
4F7
  8
_________1
 62
     7
 10
62.671000000000006
 20
178.77500000000001
 30
0.0
 11
38.070399999999999
 21
178.77500000000001
 31
0.0
  0
LINE
  5
4F8
  8
_________1
 62
     7
 10
62.671000000000006
 20
172.536
 30
0.0
 11
43.871000000000002
 21
172.536
 31
0.0
  0
LINE
  5
4F9
  8
_________1
 62
     7
 10
161.81
 20
131.447
 30
0.0
 11
161.81
 21
149.79499999999999
 31
0.0
  0
LINE
  5
4FA
  8
_________1
 62
     7
 10
159.81
 20
157.548
 30
0.0
 11
159.81
 21
155.49000000000001
 31
0.0
  0
LINE
  5
4FB
  8
_________1
 62
     7
 10
159.81
 20
157.59800000000001
 30
0.0
 11
159.81
 21
183.57499999999999
 31
0.0
  0
LINE
  5
4FC
  8
_________1
 62
     7
 10
159.31899999999999
 20
157.59800000000001
 30
0.0
 11
159.31899999999999
 21
157.548
 31
0.0
  0
LINE
  5
4FD
  8
_________1
 62
     7
 10
155.00999999999999
 20
157.46000000000001
 30
0.0
 11
155.00999999999999
 21
155.49000000000001
 31
0.0
  0
LINE
  5
4FE
  8
_________1
 62
     7
 10
155.00999999999999
 20
163.78100000000001
 30
0.0
 11
155.00999999999999
 21
183.57499999999999
 31
0.0
  0
LINE
  5
4FF
  8
_________1
 62
     7
 10
153.00899999999999
 20
131.447
 30
0.0
 11
153.00899999999999
 21
149.79499999999999
 31
0.0
  0
INSERT
  5
500
  8
_________1
 62
     7
  2
AIGNBL02010028
 10
0.0
 20
0.0
 30
0.0
  0
INSERT
  5
501
  8
_________1
 62
     7
  2
AIGNBL02010029
 10
0.0
 20
0.0
 30
0.0
  0
LINE
  5
502
  8
_________1
 62
     7
 10
38.070399999999999
 20
156.828
 30
0.0
 11
38.070399999999999
 21
179.47499999999999
 31
0.0
  0
LINE
  5
503
  8
_________1
 62
     7
 10
62.671000000000006
 20
168.12799999999999
 30
0.0
 11
62.671000000000006
 21
179.47499999999999
 31
0.0
  0
LINE
  5
504
  8
_________1
 62
     7
 10
159.81
 20
157.548
 30
0.0
 11
156.6399999999999
 21
157.548
 31
0.0
  0
LINE
  5
505
  8
_________1
 62
     7
 10
159.81
 20
157.59800000000001
 30
0.0
 11
156.62700000000001
 21
157.59800000000001
 31
0.0
  0
LINE
  5
506
  8
_________1
 62
     7
 10
108.702
 20
192.053
 30
0.0
 11
108.899
 21
191.84899999999999
 31
0.0
  0
LINE
  5
507
  8
_________1
 62
     7
 10
130.45099999999999
 20
196.274
 30
0.0
 11
130.36699999999999
 21
191.47399999999999
 31
0.0
  0
LINE
  5
508
  8
_________1
 62
     7
 10
130.29599999999999
 20
191.47499999999999
 30
0.0
 11
130.38
 21
196.27500000000001
 31
0.0
  0
LINE
  5
509
  8
_________1
 62
     7
 10
113.943
 20
191.48099999999999
 30
0.0
 11
113.949
 21
191.761
 31
0.0
  0
LINE
  5
50A
  8
_________1
 62
     7
 10
109.943
 20
191.55099999999999
 30
0.0
 11
109.94799999999999
 21
191.83099999999999
 31
0.0
  0
LINE
  5
50B
  8
_________1
 62
     7
 10
108.982
 20
196.648
 30
0.0
 11
108.899
 21
191.84899999999999
 31
0.0
  0
LINE
  5
50C
  8
_________1
 62
     7
 10
108.78
 20
196.452
 30
0.0
 11
108.702
 21
192.053
 31
0.0
  0
LINE
  5
50D
  8
_________1
 62
     7
 10
113.88200000000001
 20
191.422
 30
0.0
 11
110.003
 21
191.49000000000001
 31
0.0
  0
LINE
  5
50E
  8
_________1
 62
     7
 10
113.943
 20
191.48099999999999
 30
0.0
 11
109.943
 21
191.55099999999999
 31
0.0
  0
LINE
  5
50F
  8
_________1
 62
     7
 10
108.899
 20
191.84899999999999
 30
0.0
 11
109.94799999999999
 21
191.83099999999999
 31
0.0
  0
LINE
  5
510
  8
_________1
  6
AIGENLINE001
 62
     7
 10
107.38200000000001
 20
194.2759999999999
 30
0.0
 11
147.584
 21
193.57299999999989
 31
0.0
  0
LINE
  5
511
  8
_________1
 62
     7
 10
113.949
 20
191.761
 30
0.0
 11
130.29599999999999
 21
191.47499999999999
 31
0.0
  0
LINE
  5
512
  8
_________1
 62
     7
 10
147.542
 20
191.17400000000001
 30
0.0
 11
130.36699999999999
 21
191.47399999999999
 31
0.0
  0
LINE
  5
513
  8
_________1
 62
     7
 10
130.31800000000001
 20
192.67500000000001
 30
0.0
 11
130.387
 21
192.67400000000001
 31
0.0
  0
LINE
  5
514
  8
_________1
 62
     7
 10
130.36000000000001
 20
195.07499999999999
 30
0.0
 11
130.429
 21
195.07400000000001
 31
0.0
  0
LINE
  5
515
  8
_________1
 62
     7
 10
108.982
 20
196.648
 30
0.0
 11
130.38
 21
196.27500000000001
 31
0.0
  0
LINE
  5
516
  8
_________1
 62
     7
 10
147.625
 20
195.97399999999999
 30
0.0
 11
130.45099999999999
 21
196.274
 31
0.0
  0
LINE
  5
517
  8
_________1
 62
     7
 10
108.78
 20
196.452
 30
0.0
 11
108.982
 21
196.648
 31
0.0
  0
LINE
  5
518
  8
_________1
 62
     7
 10
38.270600000000002
 20
254.76599999999999
 30
0.0
 11
59.450499999999998
 21
254.76599999999999
 31
0.0
  0
LINE
  5
519
  8
_________1
 62
     7
 10
59.870800000000003
 20
254.756
 30
0.0
 11
62.471200000000003
 21
254.756
 31
0.0
  0
LINE
  5
51A
  8
_________1
 62
     7
 10
59.870800000000003
 20
252.029
 30
0.0
 11
62.471200000000003
 21
252.029
 31
0.0
  0
LINE
  5
51B
  8
_________1
 62
     7
 10
59.870800000000003
 20
250.86600000000001
 30
0.0
 11
62.471200000000003
 21
250.86600000000001
 31
0.0
  0
LINE
  5
51C
  8
_________1
 62
     7
 10
59.870800000000003
 20
249.26599999999999
 30
0.0
 11
62.471200000000003
 21
249.26599999999999
 31
0.0
  0
LINE
  5
51D
  8
_________1
 62
     7
 10
59.870800000000003
 20
248.10300000000001
 30
0.0
 11
62.471200000000003
 21
248.10300000000001
 31
0.0
  0
LINE
  5
51E
  8
_________1
 62
     7
 10
59.870800000000003
 20
245.376
 30
0.0
 11
62.471200000000003
 21
245.376
 31
0.0
  0
LINE
  5
51F
  8
_________1
 62
     7
 10
38.270600000000002
 20
245.36600000000001
 30
0.0
 11
41.470399999999991
 21
245.36600000000001
 31
0.0
  0
LINE
  5
520
  8
_________1
 62
     7
 10
46.27089999999999
 20
245.36600000000001
 30
0.0
 11
59.450499999999998
 21
245.36600000000001
 31
0.0
  0
INSERT
  5
521
  8
_________1
 62
     7
  2
AIGNBL0201002A
 10
0.0
 20
0.0
 30
0.0
  0
LINE
  5
522
  8
_________1
 62
     7
 10
38.070399999999999
 20
245.566
 30
0.0
 11
38.070399999999999
 21
254.566
 31
0.0
  0
LINE
  5
523
  8
_________1
 62
     7
 10
38.270600000000002
 20
245.36600000000001
 30
0.0
 11
38.270600000000002
 21
254.76599999999999
 31
0.0
  0
LINE
  5
524
  8
_________1
 62
     7
 10
41.470399999999991
 20
201.59800000000001
 30
0.0
 11
41.470399999999991
 21
222.995
 31
0.0
  0
LINE
  5
525
  8
_________1
 62
     7
 10
41.470399999999991
 20
250.066
 30
0.0
 11
41.470399999999991
 21
223.065
 31
0.0
  0
LINE
  5
526
  8
_________1
 62
     7
 10
42.670699999999989
 20
223.03100000000001
 30
0.0
 11
42.670699999999989
 21
223.065
 31
0.0
  0
LINE
  5
527
  8
_________1
 62
     7
 10
45.070599999999999
 20
223.03100000000001
 30
0.0
 11
45.070599999999999
 21
223.065
 31
0.0
  0
LINE
  5
528
  8
_________1
 62
     7
 10
46.27089999999999
 20
201.59800000000001
 30
0.0
 11
46.27089999999999
 21
222.995
 31
0.0
  0
INSERT
  5
529
  8
_________1
 62
     7
  2
AIGNBL0201002B
 10
0.0
 20
0.0
 30
0.0
  0
LINE
  5
52A
  8
_________1
 62
     7
 10
46.27089999999999
 20
250.066
 30
0.0
 11
46.27089999999999
 21
223.065
 31
0.0
  0
LINE
  5
52B
  8
_________1
 62
     7
 10
59.450499999999998
 20
254.76599999999999
 30
0.0
 11
59.450499999999998
 21
245.36600000000001
 31
0.0
  0
LINE
  5
52C
  8
_________1
 62
     7
 10
59.551099999999998
 20
254.666
 30
0.0
 11
59.551099999999998
 21
245.46600000000001
 31
0.0
  0
LINE
  5
52D
  8
_________1
 62
     7
 10
59.870800000000003
 20
254.756
 30
0.0
 11
59.870800000000003
 21
245.376
 31
0.0
  0
LINE
  5
52E
  8
_________1
 62
     7
 10
46.270499999999991
 20
201.59700000000001
 30
0.0
 11
46.27089999999999
 21
201.59800000000001
 31
0.0
  0
LINE
  5
52F
  8
_________1
 62
     7
 10
62.471200000000003
 20
254.756
 30
0.0
 11
62.471200000000003
 21
245.376
 31
0.0
  0
LINE
  5
530
  8
_________1
 62
     7
 10
62.671000000000006
 20
254.55600000000001
 30
0.0
 11
62.671000000000006
 21
245.57599999999999
 31
0.0
  0
LINE
  5
531
  8
_________1
 62
     7
 10
46.070300000000003
 20
201.39699999999999
 30
0.0
 11
46.270499999999991
 21
201.59700000000001
 31
0.0
  0
LINE
  5
532
  8
_________1
 62
     7
 10
41.470399999999991
 20
201.59800000000001
 30
0.0
 11
41.47079999999999
 21
201.59700000000001
 31
0.0
  0
LINE
  5
533
  8
_________1
 62
     7
 10
41.670900000000003
 20
201.39699999999999
 30
0.0
 11
41.47079999999999
 21
201.59700000000001
 31
0.0
  0
ARC
  5
534
  8
_________1
 62
     7
 10
56.651170999999991
 20
152.318174
 30
0.0
 40
4.511493999999999
 50
44.467328000000002
 51
50.01161299999999
  0
ARC
  5
535
  8
_________1
 62
     7
 10
56.646552999999997
 20
150.58273500000001
 30
0.0
 40
4.5182869999999991
 50
309.99255799999997
 51
315.52850000000001
  0
ARC
  5
536
  8
_________1
 62
     7
 10
59.930241000000002
 20
143.42581999999999
 30
0.0
 40
3.3603000000000001
 50
82.865218999999996
 51
91.013584999999978
  0
ARC
  5
537
  8
_________1
 62
     7
 10
43.846473000000003
 20
193.704464
 30
0.0
 40
2.527657
 50
259.09626900000001
 51
295.721024
  0
ARC
  5
538
  8
_________1
 62
     7
 10
43.660913999999998
 20
192.934404
 30
0.0
 40
1.7367840000000001
 50
240.202044
 51
260.30194999999998
  0
ARC
  5
539
  8
_________1
 62
     7
 10
43.779204999999997
 20
194.15632099999999
 30
0.0
 40
2.4933389999999989
 50
2.109836
 51
87.898379000000006
  0
ARC
  5
53A
  8
_________1
 62
     7
 10
44.049345000000002
 20
194.427559
 30
0.0
 40
2.585153
 50
183.980334
 51
266.03614599999997
  0
ARC
  5
53B
  8
_________1
 62
     7
 10
43.962409000000001
 20
194.15598700000001
 30
0.0
 40
2.493684
 50
92.108975999999998
 51
177.88276999999999
  0
ARC
  5
53C
  8
_________1
 62
     7
 10
43.870671999999992
 20
194.248771
 30
0.0
 40
2.4001809999999999
 50
269.99924199999998
 51
359.98431800000009
  0
LINE
  5
53D
  8
_________1
 62
     7
 10
46.269499999999987
 20
193.791
 30
0.0
 11
46.270200000000003
 21
193.822
 31
0.0
  0
LINE
  5
53E
  8
_________1
 62
     7
 10
41.4711
 20
193.822
 30
0.0
 11
41.471800000000002
 21
193.791
 31
0.0
  0
ARC
  5
53F
  8
_________1
 62
     7
 10
43.972588999999992
 20
193.922065
 30
0.0
 40
2.511636999999999
 50
188.19815099999991
 51
213.17767699999999
  0
ARC
  5
540
  8
_________1
 62
     7
 10
42.826374000000001
 20
193.7652939999999
 30
0.0
 40
1.354805
 50
178.92962499999999
 51
188.548248
  0
ARC
  5
541
  8
_________1
 62
     7
 10
43.972087000000002
 20
193.620227
 30
0.0
 40
2.510060999999999
 50
186.10977500000001
 51
213.14359099999999
  0
ARC
  5
542
  8
_________1
 62
     7
 10
42.816014999999993
 20
193.49909700000001
 30
0.0
 40
1.347666
 50
176.817927
 51
186.22045
  0
ARC
  5
543
  8
_________1
 62
     7
 10
43.759529000000001
 20
193.894958
 30
0.0
 40
2.5121139999999991
 50
332.64673299999998
 51
357.61919499999999
  0
ARC
  5
544
  8
_________1
 62
     7
 10
44.842807999999998
 20
193.319672
 30
0.0
 40
1.285695
 50
323.09382199999999
 51
333.23602599999998
  0
ARC
  5
545
  8
_________1
 62
     7
 10
43.764696999999998
 20
193.59117800000001
 30
0.0
 40
2.5062159999999989
 50
332.53052100000002
 51
359.60509100000002
  0
ARC
  5
546
  8
_________1
 62
     7
 10
44.806715999999987
 20
193.04602299999999
 30
0.0
 40
1.330214
 50
323.12924900000002
 51
332.66121299999998
  0
ARC
  5
547
  8
_________1
 62
     7
 10
43.972087000000002
 20
193.920985
 30
0.0
 40
2.510060999999999
 50
186.10977500000001
 51
213.14359099999999
  0
ARC
  5
548
  8
_________1
 62
     7
 10
42.816014999999993
 20
193.79985600000001
 30
0.0
 40
1.347666
 50
176.817927
 51
186.22045
  0
ARC
  5
549
  8
_________1
 62
     7
 10
43.764696999999998
 20
193.89193700000001
 30
0.0
 40
2.5062159999999989
 50
332.53052100000002
 51
359.60509100000002
  0
ARC
  5
54A
  8
_________1
 62
     7
 10
44.806715999999987
 20
193.34678199999999
 30
0.0
 40
1.330214
 50
323.12924900000002
 51
332.66121299999998
  0
ARC
  5
54B
  8
_________1
 62
     7
 10
43.602911999999989
 20
193.87550100000001
 30
0.0
 40
2.1324860000000001
 50
180.05030600000001
 51
181.45742999999999
  0
ARC
  5
54C
  8
_________1
 62
     7
 10
45.275061999999998
 20
193.860545
 30
0.0
 40
0.995878
 50
357.73946899999999
 51
0.7528350000000001
  0
ARC
  5
54D
  8
_________1
 62
     7
 10
62.455626000000002
 20
167.23338200000001
 30
0.0
 40
0.215897
 50
4.0306239999999987
 51
85.870665999999986
  0
ARC
  5
54E
  8
_________1
 62
     7
 10
62.456456999999993
 20
146.972566
 30
0.0
 40
0.215036
 50
273.92397
 51
356.07603899999998
  0
ARC
  5
54F
  8
_________1
 62
     7
 10
38.285699000000001
 20
146.962931
 30
0.0
 40
0.215762
 50
183.91385299999999
 51
265.98764599999998
  0
ARC
  5
550
  8
_________1
 62
     7
 10
38.285322000000001
 20
155.93331000000001
 30
0.0
 40
0.215411
 50
93.918437999999995
 51
175.982831
  0
ARC
  5
551
  8
_________1
 62
     7
 10
59.443536999999999
 20
156.04135199999999
 30
0.0
 40
0.107092
 50
3.7248199999999989
 51
86.275169999999989
  0
ARC
  5
552
  8
_________1
 62
     7
 10
59.443030000000007
 20
146.85507100000001
 30
0.0
 40
0.107632
 50
273.976541
 51
356.02346899999998
  0
ARC
  5
553
  8
_________1
 62
     7
 10
146.52413899999999
 20
182.70541700000001
 30
0.0
 40
13.313631000000001
 50
3.744815
 51
85.255498000000003
  0
ARC
  5
554
  8
_________1
 62
     7
 10
146.86728400000001
 20
183.04224600000001
 30
0.0
 40
8.1597309999999972
 50
3.743317999999999
 51
85.257082999999994
  0
ARC
  5
555
  8
_________1
 62
     7
 10
157.70919799999999
 20
151.330262
 30
0.0
 40
4.9636519999999988
 50
124.17890300000001
 51
192.46825799999999
  0
ARC
  5
556
  8
_________1
 62
     7
 10
157.410201
 20
151.448635
 30
0.0
 40
4.700717
 50
194.66441
 51
284.65430700000002
  0
ARC
  5
557
  8
_________1
 62
     7
 10
157.40946199999999
 20
151.44832500000001
 30
0.0
 40
4.7006030000000001
 50
284.66398400000003
 51
14.660276
  0
ARC
  5
558
  8
_________1
 62
     7
 10
157.207245
 20
151.19886600000001
 30
0.0
 40
4.9630159999999997
 50
16.856110999999999
 51
85.313543000000024
  0
ARC
  5
559
  8
_________1
 62
     7
 10
157.40947399999999
 20
151.448215
 30
0.0
 40
4.5000109999999989
 50
179.99996999999999
 51
270.00002000000001
  0
ARC
  5
55A
  8
_________1
 62
     7
 10
157.40947399999999
 20
151.448217
 30
0.0
 40
4.500013
 50
270.00002000000001
 51
359.99999000000003
  0
ARC
  5
55B
  8
_________1
 62
     7
 10
157.40938799999989
 20
151.44830200000001
 30
0.0
 40
4.5000989999999987
 50
359.99891300000002
 51
89.99888399999999
  0
ARC
  5
55C
  8
_________1
 62
     7
 10
157.40956199999999
 20
151.44830200000001
 30
0.0
 40
4.5000989999999987
 50
90.001097000000016
 51
180.00110699999999
  0
ARC
  5
55D
  8
_________1
 62
     7
 10
113.87956800000001
 20
191.48618200000001
 30
0.0
 40
0.064508
 50
272.59189099999998
 51
354.774294
  0
ARC
  5
55E
  8
_________1
 62
     7
 10
110.008599
 20
191.55371
 30
0.0
 40
0.064665
 50
183.073883
 51
265.28454699999998
  0
ARC
  5
55F
  8
_________1
 62
     7
 10
56.560217000000002
 20
250.84686500000001
 30
0.0
 40
4.6389870000000002
 50
44.467878999999989
 51
49.854872999999991
  0
ARC
  5
560
  8
_________1
 62
     7
 10
56.533046999999989
 20
249.31476000000001
 30
0.0
 40
4.678901999999999
 50
310.1681220000001
 51
315.50912599999998
  0
ARC
  5
561
  8
_________1
 62
     7
 10
43.962420999999999
 20
249.97411600000001
 30
0.0
 40
2.4936899999999991
 50
92.109250999999986
 51
177.886607
  0
ARC
  5
562
  8
_________1
 62
     7
 10
43.870725999999991
 20
250.065989
 30
0.0
 40
2.400126999999999
 50
0.002066
 51
90.002036000000004
  0
ARC
  5
563
  8
_________1
 62
     7
 10
62.456425000000003
 20
249.480672
 30
0.0
 40
0.215058
 50
273.93217800000002
 51
356.11720300000002
  0
ARC
  5
564
  8
_________1
 62
     7
 10
62.455626000000002
 20
250.650868
 30
0.0
 40
0.215897
 50
4.0306239999999987
 51
85.870665999999986
  0
ARC
  5
565
  8
_________1
 62
     7
 10
62.455815000000001
 20
254.54109700000001
 30
0.0
 40
0.215709
 50
4.0333620000000003
 51
85.917256999999992
  0
ARC
  5
566
  8
_________1
 62
     7
 10
62.456435999999997
 20
245.590619
 30
0.0
 40
0.215059
 50
273.929149
 51
356.07086099999998
  0
ARC
  5
567
  8
_________1
 62
     7
 10
38.285334000000013
 20
254.551344
 30
0.0
 40
0.21541
 50
93.921460999999994
 51
176.02918
  0
ARC
  5
568
  8
_________1
 62
     7
 10
38.285178999999999
 20
245.58065300000001
 30
0.0
 40
0.215245
 50
183.93245200000001
 51
266.11690599999997
  0
ARC
  5
569
  8
_________1
 62
     7
 10
59.443274000000002
 20
245.473758
 30
0.0
 40
0.108097
 50
273.82944600000002
 51
355.87547899999998
  0
ARC
  5
56A
  8
_________1
 62
     7
 10
59.443580000000011
 20
254.65868800000001
 30
0.0
 40
0.107783
 50
4.0714600000000001
 51
86.322314000000006
  0
LINE
  5
56B
  8
_________1
 62
     7
 10
44.01359999999999
 20
191.422
 30
0.0
 11
43.871000000000002
 21
191.422
 31
0.0
  0
LINE
  5
56C
  8
_________1
 62
     7
 10
44.1556
 20
191.422
 30
0.0
 11
44.01359999999999
 21
191.422
 31
0.0
  0
LINE
  5
56D
  8
_________1
 62
     7
 10
44.296100000000003
 20
191.423
 30
0.0
 11
44.1556
 21
191.422
 31
0.0
  0
LINE
  5
56E
  8
_________1
 62
     7
 10
44.296100000000003
 20
191.422
 30
0.0
 11
44.4343
 21
191.423
 31
0.0
  0
LINE
  5
56F
  8
_________1
 62
     7
 10
44.4343
 20
191.423
 30
0.0
 11
44.569299999999991
 21
191.42400000000001
 31
0.0
  0
LINE
  5
570
  8
_________1
 62
     7
 10
44.700600000000001
 20
191.42500000000001
 30
0.0
 11
44.569299999999991
 21
191.42400000000001
 31
0.0
  0
LINE
  5
571
  8
_________1
 62
     7
 10
44.8277
 20
191.42599999999999
 30
0.0
 11
44.700600000000001
 21
191.42500000000001
 31
0.0
  0
LINE
  5
572
  8
_________1
 62
     7
 10
44.949300000000001
 20
191.428
 30
0.0
 11
44.8277
 21
191.42599999999999
 31
0.0
  0
ARC
  5
573
  8
_________1
 62
     7
 10
45.178479999999993
 20
177.01079300000001
 30
0.0
 40
14.418281
 50
90.449327999999994
 51
90.910724999999999
  0
LINE
  5
574
  8
_________1
 62
     7
 10
45.065399999999997
 20
191.429
 30
0.0
 11
45.174599999999991
 21
191.43000000000001
 31
0.0
  0
LINE
  5
575
  8
_________1
 62
     7
 10
45.174599999999991
 20
191.43000000000001
 30
0.0
 11
45.277299999999997
 21
191.43199999999999
 31
0.0
  0
LINE
  5
576
  8
_________1
 62
     7
 10
45.372399999999992
 20
191.434
 30
0.0
 11
45.277299999999997
 21
191.43199999999999
 31
0.0
  0
LINE
  5
577
  8
_________1
 62
     7
 10
45.372399999999992
 20
191.434
 30
0.0
 11
45.459200000000003
 21
191.43600000000001
 31
0.0
  0
LINE
  5
578
  8
_________1
 62
     7
 10
45.5336
 20
191.43799999999999
 30
0.0
 11
45.459200000000003
 21
191.43600000000001
 31
0.0
  0
LINE
  5
579
  8
_________1
 62
     7
 10
45.5336
 20
191.43799999999999
 30
0.0
 11
45.591799999999999
 21
191.44
 31
0.0
  0
ARC
  5
57A
  8
_________1
 62
     7
 10
45.798507000000001
 20
186.519914
 30
0.0
 40
4.92408
 50
91.868131000000005
 51
92.405670000000001
  0
LINE
  5
57B
  8
_________1
 62
     7
 10
45.637999999999998
 20
191.44099999999989
 30
0.0
 11
45.674500000000002
 21
191.44300000000001
 31
0.0
  0
LINE
  5
57C
  8
_________1
 62
     7
 10
45.674500000000002
 20
191.44300000000001
 30
0.0
 11
45.703800000000001
 21
191.44399999999999
 31
0.0
  0
LINE
  5
57D
  8
_________1
 62
     7
 10
45.703800000000001
 20
191.44399999999999
 30
0.0
 11
45.727200000000003
 21
191.446
 31
0.0
  0
LINE
  5
57E
  8
_________1
 62
     7
 10
45.745800000000003
 20
191.447
 30
0.0
 11
45.727200000000003
 21
191.446
 31
0.0
  0
LINE
  5
57F
  8
_________1
 62
     7
 10
45.761000000000003
 20
191.44800000000001
 30
0.0
 11
45.745800000000003
 21
191.447
 31
0.0
  0
LINE
  5
580
  8
_________1
 62
     7
 10
45.773400000000002
 20
191.44900000000001
 30
0.0
 11
45.761000000000003
 21
191.44800000000001
 31
0.0
  0
LINE
  5
581
  8
_________1
 62
     7
 10
45.783700000000003
 20
191.44999999999999
 30
0.0
 11
45.773400000000002
 21
191.44900000000001
 31
0.0
  0
LINE
  5
582
  8
_________1
 62
     7
 10
45.792000000000002
 20
191.45099999999999
 30
0.0
 11
45.783700000000003
 21
191.44999999999999
 31
0.0
  0
LINE
  5
583
  8
_________1
 62
     7
 10
45.798900000000003
 20
191.45099999999999
 30
0.0
 11
45.792000000000002
 21
191.45099999999999
 31
0.0
  0
LINE
  5
584
  8
_________1
 62
     7
 10
45.804699999999997
 20
191.452
 30
0.0
 11
45.798900000000003
 21
191.45099999999999
 31
0.0
  0
LINE
  5
585
  8
_________1
 62
     7
 10
45.809899999999992
 20
191.453
 30
0.0
 11
45.804699999999997
 21
191.452
 31
0.0
  0
LINE
  5
586
  8
_________1
 62
     7
 10
45.814700000000002
 20
191.45400000000001
 30
0.0
 11
45.809899999999992
 21
191.453
 31
0.0
  0
LINE
  5
587
  8
_________1
 62
     7
 10
45.819200000000002
 20
191.45500000000001
 30
0.0
 11
45.814700000000002
 21
191.45400000000001
 31
0.0
  0
LINE
  5
588
  8
_________1
 62
     7
 10
45.823700000000002
 20
191.4559999999999
 30
0.0
 11
45.819200000000002
 21
191.45500000000001
 31
0.0
  0
LINE
  5
589
  8
_________1
 62
     7
 10
45.828499999999991
 20
191.458
 30
0.0
 11
45.823700000000002
 21
191.4559999999999
 31
0.0
  0
LINE
  5
58A
  8
_________1
 62
     7
 10
45.834000000000003
 20
191.46000000000001
 30
0.0
 11
45.828499999999991
 21
191.458
 31
0.0
  0
LINE
  5
58B
  8
_________1
 62
     7
 10
45.840200000000003
 20
191.46299999999999
 30
0.0
 11
45.834000000000003
 21
191.46000000000001
 31
0.0
  0
LINE
  5
58C
  8
_________1
 62
     7
 10
45.847099999999998
 20
191.46799999999999
 30
0.0
 11
45.840200000000003
 21
191.46299999999999
 31
0.0
  0
LINE
  5
58D
  8
_________1
 62
     7
 10
45.854699999999987
 20
191.47499999999999
 30
0.0
 11
45.847099999999998
 21
191.46799999999999
 31
0.0
  0
LINE
  5
58E
  8
_________1
 62
     7
 10
45.861199999999997
 20
191.483
 30
0.0
 11
45.854699999999987
 21
191.47499999999999
 31
0.0
  0
LINE
  5
58F
  8
_________1
 62
     7
 10
45.866399999999999
 20
191.49299999999999
 30
0.0
 11
45.861199999999997
 21
191.483
 31
0.0
  0
LINE
  5
590
  8
_________1
 62
     7
 10
45.869500000000002
 20
191.50399999999999
 30
0.0
 11
45.866399999999999
 21
191.49299999999999
 31
0.0
  0
LINE
  5
591
  8
_________1
 62
     7
 10
45.8705
 20
191.51599999999999
 30
0.0
 11
45.869500000000002
 21
191.50399999999999
 31
0.0
  0
LINE
  5
592
  8
_________1
 62
     7
 10
41.871400000000001
 20
191.505
 30
0.0
 11
41.870699999999999
 21
191.51599999999999
 31
0.0
  0
LINE
  5
593
  8
_________1
 62
     7
 10
41.874200000000002
 20
191.495
 30
0.0
 11
41.871400000000001
 21
191.505
 31
0.0
  0
LINE
  5
594
  8
_________1
 62
     7
 10
41.878
 20
191.48599999999999
 30
0.0
 11
41.874200000000002
 21
191.495
 31
0.0
  0
LINE
  5
595
  8
_________1
 62
     7
 10
41.882800000000003
 20
191.47900000000001
 30
0.0
 11
41.878
 21
191.48599999999999
 31
0.0
  0
LINE
  5
596
  8
_________1
 62
     7
 10
41.887999999999998
 20
191.47300000000001
 30
0.0
 11
41.882800000000003
 21
191.47900000000001
 31
0.0
  0
LINE
  5
597
  8
_________1
 62
     7
 10
41.893799999999992
 20
191.46799999999999
 30
0.0
 11
41.887999999999998
 21
191.47300000000001
 31
0.0
  0
LINE
  5
598
  8
_________1
 62
     7
 10
41.899700000000003
 20
191.464
 30
0.0
 11
41.893799999999992
 21
191.46799999999999
 31
0.0
  0
LINE
  5
599
  8
_________1
 62
     7
 10
41.904499999999999
 20
191.46100000000001
 30
0.0
 11
41.899700000000003
 21
191.464
 31
0.0
  0
LINE
  5
59A
  8
_________1
 62
     7
 10
41.909300000000002
 20
191.459
 30
0.0
 11
41.904499999999999
 21
191.46100000000001
 31
0.0
  0
LINE
  5
59B
  8
_________1
 62
     7
 10
41.913499999999992
 20
191.45699999999999
 30
0.0
 11
41.909300000000002
 21
191.459
 31
0.0
  0
LINE
  5
59C
  8
_________1
 62
     7
 10
41.9176
 20
191.4559999999999
 30
0.0
 11
41.913499999999992
 21
191.45699999999999
 31
0.0
  0
LINE
  5
59D
  8
_________1
 62
     7
 10
41.921399999999998
 20
191.45500000000001
 30
0.0
 11
41.9176
 21
191.4559999999999
 31
0.0
  0
LINE
  5
59E
  8
_________1
 62
     7
 10
41.925199999999997
 20
191.45400000000001
 30
0.0
 11
41.921399999999998
 21
191.45500000000001
 31
0.0
  0
LINE
  5
59F
  8
_________1
 62
     7
 10
41.928999999999988
 20
191.453
 30
0.0
 11
41.925199999999997
 21
191.45400000000001
 31
0.0
  0
LINE
  5
5A0
  8
_________1
 62
     7
 10
41.933100000000003
 20
191.453
 30
0.0
 11
41.928999999999988
 21
191.453
 31
0.0
  0
LINE
  5
5A1
  8
_________1
 62
     7
 10
41.937600000000003
 20
191.452
 30
0.0
 11
41.933100000000003
 21
191.453
 31
0.0
  0
LINE
  5
5A2
  8
_________1
 62
     7
 10
41.943100000000001
 20
191.45099999999999
 30
0.0
 11
41.937600000000003
 21
191.452
 31
0.0
  0
LINE
  5
5A3
  8
_________1
 62
     7
 10
41.949300000000001
 20
191.45099999999999
 30
0.0
 11
41.943100000000001
 21
191.45099999999999
 31
0.0
  0
LINE
  5
5A4
  8
_________1
 62
     7
 10
41.95689999999999
 20
191.44999999999999
 30
0.0
 11
41.949300000000001
 21
191.45099999999999
 31
0.0
  0
LINE
  5
5A5
  8
_________1
 62
     7
 10
41.965799999999987
 20
191.44900000000001
 30
0.0
 11
41.95689999999999
 21
191.44999999999999
 31
0.0
  0
LINE
  5
5A6
  8
_________1
 62
     7
 10
41.976500000000001
 20
191.44800000000001
 30
0.0
 11
41.965799999999987
 21
191.44900000000001
 31
0.0
  0
LINE
  5
5A7
  8
_________1
 62
     7
 10
41.989600000000003
 20
191.447
 30
0.0
 11
41.976500000000001
 21
191.44800000000001
 31
0.0
  0
LINE
  5
5A8
  8
_________1
 62
     7
 10
42.005499999999991
 20
191.446
 30
0.0
 11
41.989600000000003
 21
191.447
 31
0.0
  0
LINE
  5
5A9
  8
_________1
 62
     7
 10
42.024700000000003
 20
191.44499999999999
 30
0.0
 11
42.005499999999991
 21
191.446
 31
0.0
  0
LINE
  5
5AA
  8
_________1
 62
     7
 10
42.04849999999999
 20
191.44399999999999
 30
0.0
 11
42.025100000000002
 21
191.44499999999999
 31
0.0
  0
LINE
  5
5AB
  8
_________1
 62
     7
 10
42.04849999999999
 20
191.44399999999999
 30
0.0
 11
42.078099999999999
 21
191.44200000000001
 31
0.0
  0
LINE
  5
5AC
  8
_________1
 62
     7
 10
42.078099999999999
 20
191.44200000000001
 30
0.0
 11
42.115000000000002
 21
191.44099999999989
 31
0.0
  0
LINE
  5
5AD
  8
_________1
 62
     7
 10
42.115000000000002
 20
191.44099999999989
 30
0.0
 11
42.160800000000002
 21
191.43899999999999
 31
0.0
  0
ARC
  5
5AE
  8
_________1
 62
     7
 10
41.998072999999991
 20
184.99750800000001
 30
0.0
 40
6.4438570000000004
 50
88.037835000000015
 51
88.552689000000001
  0
LINE
  5
5AF
  8
_________1
 62
     7
 10
42.292099999999998
 20
191.43600000000001
 30
0.0
 11
42.218699999999998
 21
191.43799999999999
 31
0.0
  0
LINE
  5
5B0
  8
_________1
 62
     7
 10
42.292099999999998
 20
191.43600000000001
 30
0.0
 11
42.378599999999999
 21
191.434
 31
0.0
  0
LINE
  5
5B1
  8
_________1
 62
     7
 10
42.378599999999999
 20
191.434
 30
0.0
 11
42.47359999999999
 21
191.43199999999999
 31
0.0
  0
LINE
  5
5B2
  8
_________1
 62
     7
 10
42.576000000000001
 20
191.43000000000001
 30
0.0
 11
42.47359999999999
 21
191.43199999999999
 31
0.0
  0
ARC
  5
5B3
  8
_________1
 62
     7
 10
42.525890999999987
 20
183.17324400000001
 30
0.0
 40
8.2569160000000004
 50
88.897015999999994
 51
89.652514999999994
  0
LINE
  5
5B4
  8
_________1
 62
     7
 10
42.684800000000003
 20
191.429
 30
0.0
 11
42.80019999999999
 21
191.42699999999999
 31
0.0
  0
LINE
  5
5B5
  8
_________1
 62
     7
 10
42.80019999999999
 20
191.42699999999999
 30
0.0
 11
42.921199999999992
 21
191.42599999999999
 31
0.0
  0
LINE
  5
5B6
  8
_________1
 62
     7
 10
43.0473
 20
191.42500000000001
 30
0.0
 11
42.921199999999992
 21
191.42599999999999
 31
0.0
  0
LINE
  5
5B7
  8
_________1
 62
     7
 10
43.177799999999991
 20
191.42400000000001
 30
0.0
 11
43.0473
 21
191.42500000000001
 31
0.0
  0
LINE
  5
5B8
  8
_________1
 62
     7
 10
43.177799999999991
 20
191.42400000000001
 30
0.0
 11
43.311799999999991
 21
191.423
 31
0.0
  0
LINE
  5
5B9
  8
_________1
 62
     7
 10
43.311799999999991
 20
191.423
 30
0.0
 11
43.448999999999991
 21
191.422
 31
0.0
  0
LINE
  5
5BA
  8
_________1
 62
     7
 10
43.588500000000003
 20
191.422
 30
0.0
 11
43.449300000000001
 21
191.423
 31
0.0
  0
LINE
  5
5BB
  8
_________1
 62
     7
 10
43.728999999999999
 20
191.422
 30
0.0
 11
43.588500000000003
 21
191.422
 31
0.0
  0
LINE
  5
5BC
  8
_________1
 62
     7
 10
43.871000000000002
 20
191.422
 30
0.0
 11
43.728999999999999
 21
191.422
 31
0.0
  0
LINE
  5
5BD
  8
_________1
 62
     7
 10
41.470399999999991
 20
193.875
 30
0.0
 11
41.470399999999991
 21
193.874
 31
0.0
  0
LINE
  5
5BE
  8
_________1
 62
     7
 10
41.875599999999999
 20
192.863
 30
0.0
 11
41.871099999999991
 21
192.869
 31
0.0
  0
LINE
  5
5BF
  8
_________1
 62
     7
 10
41.88519999999999
 20
192.851
 30
0.0
 11
41.875599999999999
 21
192.863
 31
0.0
  0
ARC
  5
5C0
  8
_________1
 62
     7
 10
41.679105
 20
192.68409600000001
 30
0.0
 40
0.265291
 50
33.749375000000001
 51
39.01932
  0
ARC
  5
5C1
  8
_________1
 62
     7
 10
42.462265999999993
 20
193.234645
 30
0.0
 40
0.692123
 50
215.62677599999989
 51
218.55893
  0
ARC
  5
5C2
  8
_________1
 62
     7
 10
38.977018000000001
 20
190.511099
 30
0.0
 40
3.731110999999999
 50
37.182637
 51
37.903244000000001
  0
LINE
  5
5C3
  8
_________1
 62
     7
 10
41.987900000000003
 20
192.71899999999999
 30
0.0
 11
41.950000000000003
 21
192.76599999999999
 31
0.0
  0
ARC
  5
5C4
  8
_________1
 62
     7
 10
43.421011999999997
 20
193.887505
 30
0.0
 40
1.8494520000000001
 50
219.204622
 51
221.544397
  0
ARC
  5
5C5
  8
_________1
 62
     7
 10
43.871219000000004
 20
194.264768
 30
0.0
 40
2.4366609999999991
 50
221.16305
 51
223.296549
  0
ARC
  5
5C6
  8
_________1
 62
     7
 10
44.089039999999997
 20
194.474751
 30
0.0
 40
2.7391969999999999
 50
223.36876699999999
 51
225.57025999999999
  0
ARC
  5
5C7
  8
_________1
 62
     7
 10
43.58934399999999
 20
193.961781
 30
0.0
 40
2.023077999999999
 50
225.50627
 51
228.806884
  0
ARC
  5
5C8
  8
_________1
 62
     7
 10
44.101372999999988
 20
194.53529599999999
 30
0.0
 40
2.7918759999999989
 50
228.65128799999999
 51
231.21065200000001
  0
ARC
  5
5C9
  8
_________1
 62
     7
 10
43.770386000000002
 20
194.14217500000001
 30
0.0
 40
2.2781370000000001
 50
231.50529300000011
 51
234.75494
  0
ARC
  5
5CA
  8
_________1
 62
     7
 10
43.88811299999999
 20
194.289233
 30
0.0
 40
2.466200999999999
 50
234.49280200000001
 51
237.543296
  0
ARC
  5
5CB
  8
_________1
 62
     7
 10
43.896987000000003
 20
194.320784
 30
0.0
 40
2.4976029999999989
 50
237.75995800000001
 51
240.77607
  0
ARC
  5
5CC
  8
_________1
 62
     7
 10
43.720193000000002
 20
193.97988699999999
 30
0.0
 40
2.113815999999999
 50
240.44694200000001
 51
243.993842
  0
ARC
  5
5CD
  8
_________1
 62
     7
 10
43.878271999999988
 20
194.29421600000001
 30
0.0
 40
2.4656349999999989
 50
243.895073
 51
246.91535400000001
  0
ARC
  5
5CE
  8
_________1
 62
     7
 10
44.031153999999987
 20
194.67958100000001
 30
0.0
 40
2.8801049999999999
 50
247.12339800000001
 51
249.67407499999999
  0
ARC
  5
5CF
  8
_________1
 62
     7
 10
43.810335000000002
 20
194.09357499999999
 30
0.0
 40
2.2538869999999989
 50
249.763417
 51
252.97088500000001
  0
ARC
  5
5D0
  8
_________1
 62
     7
 10
43.847603999999997
 20
194.202574
 30
0.0
 40
2.3690250000000002
 50
252.88104700000011
 51
255.883486
  0
ARC
  5
5D1
  8
_________1
 62
     7
 10
43.960772999999989
 20
194.67837599999999
 30
0.0
 40
2.8580659999999991
 50
256.0096660000001
 51
258.48118599999998
  0
ARC
  5
5D2
  8
_________1
 62
     7
 10
43.832281999999999
 20
194.05358699999999
 30
0.0
 40
2.2202029999999988
 50
258.51057500000002
 51
261.66084999999998
  0
ARC
  5
5D3
  8
_________1
 62
     7
 10
43.903194999999997
 20
194.55052800000001
 30
0.0
 40
2.722175
 50
261.70103599999999
 51
264.25105400000001
  0
ARC
  5
5D4
  8
_________1
 62
     7
 10
43.868596999999987
 20
194.22639100000001
 30
0.0
 40
2.396204
 50
264.29782299999999
 51
267.18103100000002
  0
LINE
  5
5D5
  8
_________1
 62
     7
 10
43.750700000000002
 20
191.833
 30
0.0
 11
43.870600000000003
 21
191.83000000000001
 31
0.0
  0
LINE
  5
5D6
  8
_________1
 62
     7
 10
43.713900000000002
 20
192.05799999999999
 30
0.0
 11
43.871000000000002
 21
192.053
 31
0.0
  0
LINE
  5
5D7
  8
_________1
 62
     7
 10
43.55749999999999
 20
192.07499999999999
 30
0.0
 11
43.713900000000002
 21
192.05799999999999
 31
0.0
  0
ARC
  5
5D8
  8
_________1
 62
     7
 10
43.850586999999997
 20
194.111355
 30
0.0
 40
2.0580880000000001
 50
257.44305400000002
 51
261.81225000000001
  0
ARC
  5
5D9
  8
_________1
 62
     7
 10
43.875445999999997
 20
194.28618700000001
 30
0.0
 40
2.2341859999999998
 50
253.76624699999999
 51
257.79557299999999
  0
ARC
  5
5DA
  8
_________1
 62
     7
 10
43.880310999999999
 20
194.27747199999999
 30
0.0
 40
2.2271899999999998
 50
249.54673600000001
 51
253.58339000000001
  0
ARC
  5
5DB
  8
_________1
 62
     7
 10
43.997125999999987
 20
194.567815
 30
0.0
 40
2.5400610000000001
 50
245.81866800000009
 51
249.366467
  0
ARC
  5
5DC
  8
_________1
 62
     7
 10
43.908537000000003
 20
194.32030900000001
 30
0.0
 40
2.2780779999999989
 50
241.34413699999999
 51
245.30131800000009
  0
ARC
  5
5DD
  8
_________1
 62
     7
 10
43.76346199999999
 20
194.07138399999999
 30
0.0
 40
1.9900880000000001
 50
237.061882
 51
241.572562
  0
ARC
  5
5DE
  8
_________1
 62
     7
 10
43.962839000000002
 20
194.3873899999999
 30
0.0
 40
2.363710999999999
 50
233.35947899999999
 51
237.170829
  0
ARC
  5
5DF
  8
_________1
 62
     7
 10
43.91311799999999
 20
194.30518799999999
 30
0.0
 40
2.2680980000000002
 50
229.159808
 51
233.12803400000001
  0
ARC
  5
5E0
  8
_________1
 62
     7
 10
43.978853999999991
 20
194.368165
 30
0.0
 40
2.358746
 50
225.132328
 51
228.952181
  0
ARC
  5
5E1
  8
_________1
 62
     7
 10
43.693880999999998
 20
194.0834909999999
 30
0.0
 40
1.9559459999999991
 50
220.565752
 51
225.165761
  0
ARC
  5
5E2
  8
_________1
 62
     7
 10
43.758324999999999
 20
194.164781
 30
0.0
 40
2.0578620000000001
 50
216.75192000000001
 51
221.11826600000001
  0
ARC
  5
5E3
  8
_________1
 62
     7
 10
44.117845000000003
 20
194.42156
 30
0.0
 40
2.4995829999999999
 50
212.93282500000001
 51
216.53692699999999
  0
ARC
  5
5E4
  8
_________1
 62
     7
 10
43.796379999999992
 20
194.212523
 30
0.0
 40
2.1161300000000001
 50
208.66773800000001
 51
212.91439399999999
  0
ARC
  5
5E5
  8
_________1
 62
     7
 10
44.118369999999999
 20
194.374562
 30
0.0
 40
2.4764159999999991
 50
204.74678599999999
 51
208.38335000000001
  0
ARC
  5
5E6
  8
_________1
 62
     7
 10
43.860734999999998
 20
194.24404799999999
 30
0.0
 40
2.1878310000000001
 50
200.34786
 51
204.46706499999999
  0
ARC
  5
5E7
  8
_________1
 62
     7
 10
43.696139000000002
 20
194.194885
 30
0.0
 40
2.0164419999999992
 50
196.20559299999999
 51
200.66434100000001
  0
ARC
  5
5E8
  8
_________1
 62
     7
 10
43.761366999999993
 20
194.22494900000001
 30
0.0
 40
2.0874959999999989
 50
192.18339499999999
 51
196.49832799999999
  0
ARC
  5
5E9
  8
_________1
 62
     7
 10
43.948464000000001
 20
194.26684800000001
 30
0.0
 40
2.2792219999999999
 50
188.276802
 51
192.22036299999999
  0
ARC
  5
5EA
  8
_________1
 62
     7
 10
43.847087000000002
 20
194.2506919999999
 30
0.0
 40
2.176575999999999
 50
184.10704699999999
 51
188.24010000000001
  0
ARC
  5
5EB
  8
_________1
 62
     7
 10
43.877225000000003
 20
194.25068400000001
 30
0.0
 40
2.2066379999999999
 50
179.96831499999999
 51
184.050792
  0
ARC
  5
5EC
  8
_________1
 62
     7
 10
43.882508999999999
 20
194.25259500000001
 30
0.0
 40
2.2119209999999989
 50
175.95413500000001
 51
180.017932
  0
ARC
  5
5ED
  8
_________1
 62
     7
 10
43.863865999999987
 20
194.25164699999999
 30
0.0
 40
2.1933919999999989
 50
171.78476699999999
 51
175.895073
  0
ARC
  5
5EE
  8
_________1
 62
     7
 10
43.936216999999992
 20
194.23917299999999
 30
0.0
 40
2.266785
 50
167.76881399999999
 51
171.73402100000001
  0
ARC
  5
5EF
  8
_________1
 62
     7
 10
44.024498999999992
 20
194.21158700000001
 30
0.0
 40
2.358921
 50
163.75001499999999
 51
167.568262
  0
ARC
  5
5F0
  8
_________1
 62
     7
 10
43.709243999999991
 20
194.304554
 30
0.0
 40
2.0302459999999991
 50
159.35082499999999
 51
163.77924200000001
  0
ARC
  5
5F1
  8
_________1
 62
     7
 10
43.906306000000001
 20
194.23877300000001
 30
0.0
 40
2.2378589999999989
 50
155.535132
 51
159.55405500000001
  0
ARC
  5
5F2
  8
_________1
 62
     7
 10
43.759906999999998
 20
194.308131
 30
0.0
 40
2.0758830000000001
 50
151.26566600000001
 51
155.604198
  0
ARC
  5
5F3
  8
_________1
 62
     7
 10
43.706313000000002
 20
194.346011
 30
0.0
 40
2.010691
 50
147.00428400000001
 51
151.47796299999999
  0
ARC
  5
5F4
  8
_________1
 62
     7
 10
43.797376
 20
194.30257599999999
 30
0.0
 40
2.1107619999999989
 50
143.09709599999999
 51
147.361546
  0
ARC
  5
5F5
  8
_________1
 62
     7
 10
43.926732999999999
 20
194.206818
 30
0.0
 40
2.271701999999999
 50
139.16292799999999
 51
143.124855
  0
ARC
  5
5F6
  8
_________1
 62
     7
 10
44.036335999999999
 20
194.09991299999999
 30
0.0
 40
2.4245480000000001
 50
135.23763500000001
 51
138.94524899999999
  0
ARC
  5
5F7
  8
_________1
 62
     7
 10
43.922389000000003
 20
194.19611
 30
0.0
 40
2.275933999999999
 50
130.978298
 51
134.93719299999989
  0
ARC
  5
5F8
  8
_________1
 62
     7
 10
43.757953999999998
 20
194.388206
 30
0.0
 40
2.0230790000000001
 50
126.584113
 51
131.03010499999999
  0
ARC
  5
5F9
  8
_________1
 62
     7
 10
43.927234999999989
 20
194.17113800000001
 30
0.0
 40
2.298281999999999
 50
122.82523399999999
 51
126.747579
  0
ARC
  5
5FA
  8
_________1
 62
     7
 10
43.959184
 20
194.106865
 30
0.0
 40
2.3696250000000001
 50
118.84191
 51
122.63196499999999
  0
ARC
  5
5FB
  8
_________1
 62
     7
 10
44.062546999999988
 20
193.86533399999999
 30
0.0
 40
2.6311840000000002
 50
114.85374299999999
 51
118.27633400000001
  0
ARC
  5
5FC
  8
_________1
 62
     7
 10
43.956998999999989
 20
194.03296700000001
 30
0.0
 40
2.4348469999999991
 50
110.556853
 51
114.258011
  0
ARC
  5
5FD
  8
_________1
 62
     7
 10
43.828532999999993
 20
194.381325
 30
0.0
 40
2.0635629999999998
 50
106.256495
 51
110.61337899999999
  0
ARC
  5
5FE
  8
_________1
 62
     7
 10
43.839770999999999
 20
194.37614500000001
 30
0.0
 40
2.071702999999999
 50
102.16691
 51
106.514753
  0
ARC
  5
5FF
  8
_________1
 62
     7
 10
43.955548
 20
193.786777
 30
0.0
 40
2.6722559999999991
 50
98.566870999999978
 51
101.930235
  0
ARC
  5
600
  8
_________1
 62
     7
 10
43.861758000000002
 20
194.321326
 30
0.0
 40
2.1297399999999991
 50
93.981311999999988
 51
98.214024000000009
  0
ARC
  5
601
  8
_________1
 62
     7
 10
43.869430000000001
 20
194.320851
 30
0.0
 40
2.1307610000000001
 50
89.967449000000016
 51
94.186228999999997
  0
ARC
  5
602
  8
_________1
 62
     7
 10
43.867409000000002
 20
194.19838799999999
 30
0.0
 40
2.253225
 50
85.928445999999994
 51
89.917837000000006
  0
ARC
  5
603
  8
_________1
 62
     7
 10
43.869673999999989
 20
194.229142
 30
0.0
 40
2.222388
 50
81.874220999999991
 51
85.930402999999998
  0
ARC
  5
604
  8
_________1
 62
     7
 10
43.857908999999992
 20
194.185981
 30
0.0
 40
2.266785
 50
77.768823999999995
 51
81.734030999999987
  0
ARC
  5
605
  8
_________1
 62
     7
 10
43.851309000000001
 20
194.17978600000001
 30
0.0
 40
2.274243999999999
 50
73.678914000000006
 51
77.639381999999998
  0
ARC
  5
606
  8
_________1
 62
     7
 10
43.914527
 20
194.386664
 30
0.0
 40
2.0579389999999989
 50
69.380645000000001
 51
73.749442000000002
  0
ARC
  5
607
  8
_________1
 62
     7
 10
43.873477000000001
 20
194.24929299999999
 30
0.0
 40
2.200988999999999
 50
65.545261999999994
 51
69.639832999999996
  0
ARC
  5
608
  8
_________1
 62
     7
 10
43.678733000000001
 20
193.86533399999999
 30
0.0
 40
2.6311840000000002
 50
61.723645999999988
 51
65.146237999999997
  0
ARC
  5
609
  8
_________1
 62
     7
 10
43.803516999999999
 20
194.14288999999999
 30
0.0
 40
2.3277349999999992
 50
57.333899999999993
 51
61.192185999999992
  0
ARC
  5
60A
  8
_________1
 62
     7
 10
43.991850999999997
 20
194.42709600000001
 30
0.0
 40
1.9868369999999991
 50
52.944830000000003
 51
57.482317000000002
  0
ARC
  5
60B
  8
_________1
 62
     7
 10
43.991118999999998
 20
194.39789500000001
 30
0.0
 40
2.0106540000000002
 50
48.956131999999997
 51
53.429611000000008
  0
ARC
  5
60C
  8
_________1
 62
     7
 10
44.060732000000002
 20
194.455837
 30
0.0
 40
1.9212979999999991
 50
44.697228999999993
 51
49.387240000000013
  0
ARC
  5
60D
  8
_________1
 62
     7
 10
43.939010999999986
 20
194.317486
 30
0.0
 40
2.105170999999999
 50
40.773367
 51
45.043709
  0
ARC
  5
60E
  8
_________1
 62
     7
 10
43.846534999999989
 20
194.23258899999999
 30
0.0
 40
2.2306499999999989
 50
36.838653000000001
 51
40.873525000000001
  0
ARC
  5
60F
  8
_________1
 62
     7
 10
43.965812999999997
 20
194.31778700000001
 30
0.0
 40
2.0841090000000002
 50
32.611154000000013
 51
36.930164000000012
  0
ARC
  5
610
  8
_________1
 62
     7
 10
43.914083000000012
 20
194.274067
 30
0.0
 40
2.151263999999999
 50
28.66825
 51
32.849463
  0
ARC
  5
611
  8
_________1
 62
     7
 10
44.235877000000002
 20
194.435383
 30
0.0
 40
1.791574999999999
 50
24.051333
 51
29.078763000000009
  0
ARC
  5
612
  8
_________1
 62
     7
 10
43.932009000000001
 20
194.27887799999999
 30
0.0
 40
2.1329310000000001
 50
20.347027000000001
 51
24.563745999999998
  0
ARC
  5
613
  8
_________1
 62
     7
 10
44.145235
 20
194.342287
 30
0.0
 40
1.9110180000000001
 50
16.082519000000001
 51
20.787375000000001
  0
ARC
  5
614
  8
_________1
 62
     7
 10
43.995226000000002
 20
194.28277299999999
 30
0.0
 40
2.071702999999999
 50
12.166919999999999
 51
16.514762999999999
  0
ARC
  5
615
  8
_________1
 62
     7
 10
43.704694000000003
 20
194.22102599999999
 30
0.0
 40
2.3687219999999991
 50
8.3513120000000001
 51
12.145814
  0
ARC
  5
616
  8
_________1
 62
     7
 10
43.874862999999991
 20
194.251372
 30
0.0
 40
2.195956999999999
 50
4.1073079999999988
 51
8.2128110000000003
  0
ARC
  5
617
  8
_________1
 62
     7
 10
43.873763999999987
 20
194.25312199999999
 30
0.0
 40
2.1969279999999989
 50
359.96821499999999
 51
4.0597180000000002
  0
ARC
  5
618
  8
_________1
 62
     7
 10
43.988469999999992
 20
194.246318
 30
0.0
 40
2.08223
 50
355.82721400000003
 51
0.153679
  0
ARC
  5
619
  8
_________1
 62
     7
 10
43.995134999999998
 20
194.23977300000001
 30
0.0
 40
2.0751140000000001
 50
351.65883100000002
 51
355.99406299999998
  0
ARC
  5
61A
  8
_________1
 62
     7
 10
44.160029999999992
 20
194.20045500000001
 30
0.0
 40
1.906318999999999
 50
347.39374800000002
 51
352.109127
  0
ARC
  5
61B
  8
_________1
 62
     7
 10
43.853957000000001
 20
194.25715
 30
0.0
 40
2.2174169999999989
 50
343.62815499999999
 51
347.69016099999999
  0
ARC
  5
61C
  8
_________1
 62
     7
 10
44.130321999999992
 20
194.16649100000001
 30
0.0
 40
1.926725
 50
339.23181299999999
 51
343.89829400000002
  0
ARC
  5
61D
  8
_________1
 62
     7
 10
44.171146999999991
 20
194.12422599999999
 30
0.0
 40
1.8737339999999989
 50
335.18751099999997
 51
339.99760400000002
  0
ARC
  5
61E
  8
_________1
 62
     7
 10
43.981372999999998
 20
194.19533100000001
 30
0.0
 40
2.0758830000000001
 50
331.26568600000002
 51
335.60421700000001
  0
ARC
  5
61F
  8
_________1
 62
     7
 10
44.135870999999987
 20
194.09872200000001
 30
0.0
 40
1.8939939999999991
 50
326.83645799999999
 51
331.58145000000002
  0
ARC
  5
620
  8
_________1
 62
     7
 10
43.870801
 20
194.25005300000001
 30
0.0
 40
2.198745999999999
 50
323.21643399999999
 51
327.31385399999999
  0
ARC
  5
621
  8
_________1
 62
     7
 10
44.285453999999987
 20
193.92039
 30
0.0
 40
1.669322999999999
 50
318.37327699999997
 51
323.756576
  0
ARC
  5
622
  8
_________1
 62
     7
 10
43.834598999999997
 20
194.28100000000001
 30
0.0
 40
2.2460759999999991
 50
315.131485
 51
319.13704200000001
  0
ARC
  5
623
  8
_________1
 62
     7
 10
43.95150499999999
 20
194.16510299999999
 30
0.0
 40
2.081458
 50
310.79328800000002
 51
315.12224200000003
  0
ARC
  5
624
  8
_________1
 62
     7
 10
43.882652
 20
194.237551
 30
0.0
 40
2.1812960000000001
 50
306.79299700000001
 51
310.91919999999999
  0
ARC
  5
625
  8
_________1
 62
     7
 10
43.793397999999989
 20
194.36581699999999
 30
0.0
 40
2.3374739999999998
 50
302.807793
 51
306.66193800000002
  0
ARC
  5
626
  8
_________1
 62
     7
 10
43.926982000000002
 20
194.15706
 30
0.0
 40
2.0896369999999989
 50
298.53495299999997
 51
302.83064200000001
  0
ARC
  5
627
  8
_________1
 62
     7
 10
43.771312999999999
 20
194.44256999999999
 30
0.0
 40
2.4148279999999991
 50
294.810789
 51
298.54379599999999
  0
ARC
  5
628
  8
_________1
 62
     7
 10
43.848323000000001
 20
194.31063
 30
0.0
 40
2.2627969999999991
 50
290.46809000000002
 51
294.44270299999999
  0
ARC
  5
629
  8
_________1
 62
     7
 10
43.860543
 20
194.28415699999999
 30
0.0
 40
2.233724
 50
286.37863399999998
 51
290.41186699999997
  0
ARC
  5
62A
  8
_________1
 62
     7
 10
43.879967999999991
 20
194.23041000000001
 30
0.0
 40
2.1766830000000001
 50
282.15120100000001
 51
286.28701899999999
  0
ARC
  5
62B
  8
_________1
 62
     7
 10
43.890103000000003
 20
194.11457799999999
 30
0.0
 40
2.0613630000000001
 50
278.19124199999999
 51
282.553494
  0
LINE
  5
62C
  8
_________1
 62
     7
 10
44.0274
 20
192.05799999999999
 30
0.0
 11
44.183799999999991
 21
192.07499999999999
 31
0.0
  0
LINE
  5
62D
  8
_________1
 62
     7
 10
43.871000000000002
 20
192.053
 30
0.0
 11
44.0274
 21
192.05799999999999
 31
0.0
  0
ARC
  5
62E
  8
_________1
 62
     7
 10
62.471915000000003
 20
155.487258
 30
0.0
 40
0.22033
 50
82.828178000000008
 51
90.193152999999995
  0
ARC
  5
62F
  8
_________1
 62
     7
 10
62.471933999999997
 20
155.49676500000001
 30
0.0
 40
0.210898
 50
74.869275000000002
 51
82.510842999999994
  0
ARC
  5
630
  8
_________1
 62
     7
 10
62.480671999999998
 20
155.51663099999999
 30
0.0
 40
0.189468
 50
67.278179000000009
 51
75.851906999999997
  0
ARC
  5
631
  8
_________1
 62
     7
 10
62.474891999999997
 20
155.50246300000001
 30
0.0
 40
0.20477
 50
59.55209
 51
67.317793999999992
  0
ARC
  5
632
  8
_________1
 62
     7
 10
62.468834999999999
 20
155.49140299999999
 30
0.0
 40
0.217373
 50
52.192641000000002
 51
59.65295600000001
  0
ARC
  5
633
  8
_________1
 62
     7
 10
62.500999
 20
155.53245699999999
 30
0.0
 40
0.165221
 50
42.880569999999999
 51
52.277715000000008
  0
ARC
  5
634
  8
_________1
 62
     7
 10
62.454929000000007
 20
155.48809
 30
0.0
 40
0.229173
 50
36.440084000000013
 51
43.171048999999989
  0
ARC
  5
635
  8
_________1
 62
     7
 10
62.456862999999998
 20
155.49810600000001
 30
0.0
 40
0.221776
 50
27.781872
 51
34.65492600000001
  0
ARC
  5
636
  8
_________1
 62
     7
 10
62.461681999999989
 20
155.511866
 30
0.0
 40
0.211332
 50
17.955956
 51
25.08924
  0
ARC
  5
637
  8
_________1
 62
     7
 10
62.514865999999998
 20
155.52722
 30
0.0
 40
0.156015
 50
9.0896360000000005
 51
18.613199000000002
  0
ARC
  5
638
  8
_________1
 62
     7
 10
62.508215999999997
 20
155.52600899999999
 30
0.0
 40
0.162774
 50
0.007055
 51
9.1407869999999996
  0
LINE
  5
639
  8
_________1
 62
     7
 10
60.355899999999998
 20
146.75899999999999
 30
0.0
 11
60.371000000000002
 21
146.75800000000001
 31
0.0
  0
LINE
  5
63A
  8
_________1
 62
     7
 10
60.3476
 20
146.75999999999999
 30
0.0
 11
60.355899999999998
 21
146.75899999999999
 31
0.0
  0
LINE
  5
63B
  8
_________1
  6
AIGENLINE002
 62
     7
 10
57.905700000000003
 20
147.10300000000001
 30
0.0
 11
57.922899999999998
 21
147.09399999999999
 31
0.0
  0
LINE
  5
63C
  8
_________1
  6
AIGENLINE002
 62
     7
 10
57.887099999999997
 20
147.11199999999999
 30
0.0
 11
57.905700000000003
 21
147.10300000000001
 31
0.0
  0
LINE
  5
63D
  8
_________1
  6
AIGENLINE002
 62
     7
 10
57.868499999999997
 20
147.12299999999999
 30
0.0
 11
57.887099999999997
 21
147.11199999999999
 31
0.0
  0
LINE
  5
63E
  8
_________1
  6
AIGENLINE002
 62
     7
 10
57.848500000000001
 20
147.13399999999999
 30
0.0
 11
57.868499999999997
 21
147.12299999999999
 31
0.0
  0
LINE
  5
63F
  8
_________1
  6
AIGENLINE002
 62
     7
 10
57.8292
 20
147.143
 30
0.0
 11
57.848500000000001
 21
147.13399999999999
 31
0.0
  0
LINE
  5
640
  8
_________1
  6
AIGENLINE002
 62
     7
 10
57.808599999999998
 20
147.154
 30
0.0
 11
57.8292
 21
147.143
 31
0.0
  0
LINE
  5
641
  8
_________1
  6
AIGENLINE002
 62
     7
 10
57.7879
 20
147.16499999999999
 30
0.0
 11
57.808599999999998
 21
147.154
 31
0.0
  0
LINE
  5
642
  8
_________1
  6
AIGENLINE002
 62
     7
 10
57.767200000000003
 20
147.17400000000001
 30
0.0
 11
57.7879
 21
147.16499999999999
 31
0.0
  0
LINE
  5
643
  8
_________1
  6
AIGENLINE002
 62
     7
 10
57.745800000000003
 20
147.185
 30
0.0
 11
57.767200000000003
 21
147.17400000000001
 31
0.0
  0
LINE
  5
644
  8
_________1
  6
AIGENLINE002
 62
     7
 10
57.724499999999999
 20
147.196
 30
0.0
 11
57.745800000000003
 21
147.185
 31
0.0
  0
LINE
  5
645
  8
_________1
  6
AIGENLINE002
 62
     7
 10
57.703099999999999
 20
147.20699999999999
 30
0.0
 11
57.724499999999999
 21
147.196
 31
0.0
  0
LINE
  5
646
  8
_________1
  6
AIGENLINE002
 62
     7
 10
57.668700000000001
 20
147.22200000000001
 30
0.0
 11
57.703099999999999
 21
147.20699999999999
 31
0.0
  0
LINE
  5
647
  8
_________1
  6
AIGENLINE002
 62
     7
 10
57.922899999999998
 20
147.09399999999999
 30
0.0
 11
57.956699999999998
 21
147.07400000000001
 31
0.0
  0
LINE
  5
648
  8
_________1
  6
AIGENLINE002
 62
     7
 10
57.956699999999998
 20
147.07400000000001
 30
0.0
 11
57.987699999999997
 21
147.05699999999999
 31
0.0
  0
LINE
  5
649
  8
_________1
  6
AIGENLINE002
 62
     7
 10
57.987699999999997
 20
147.05699999999999
 30
0.0
 11
58.015300000000003
 21
147.041
 31
0.0
  0
LINE
  5
64A
  8
_________1
  6
AIGENLINE002
 62
     7
 10
58.109699999999997
 20
146.98599999999999
 30
0.0
 11
60.01339999999999
 21
146.09800000000001
 31
0.0
  0
LINE
  5
64B
  8
_________1
  6
AIGENLINE002
 62
     7
 10
58.104799999999997
 20
146.988
 30
0.0
 11
58.109699999999997
 21
146.98599999999999
 31
0.0
  0
LINE
  5
64C
  8
_________1
  6
AIGENLINE002
 62
     7
 10
58.100000000000001
 20
146.99100000000001
 30
0.0
 11
58.104799999999997
 21
146.988
 31
0.0
  0
LINE
  5
64D
  8
_________1
  6
AIGENLINE002
 62
     7
 10
58.015300000000003
 20
147.041
 30
0.0
 11
58.039400000000001
 21
147.02699999999999
 31
0.0
  0
LINE
  5
64E
  8
_________1
  6
AIGENLINE002
 62
     7
 10
58.039400000000001
 20
147.02699999999999
 30
0.0
 11
58.059399999999989
 21
147.01599999999999
 31
0.0
  0
LINE
  5
64F
  8
_________1
  6
AIGENLINE002
 62
     7
 10
58.059399999999989
 20
147.01599999999999
 30
0.0
 11
58.082799999999992
 21
147.001
 31
0.0
  0
LINE
  5
650
  8
_________1
  6
AIGENLINE002
 62
     7
 10
58.082799999999992
 20
147.001
 30
0.0
 11
58.098599999999998
 21
146.99199999999999
 31
0.0
  0
LINE
  5
651
  8
_________1
  6
AIGENLINE002
 62
     7
 10
58.098599999999998
 20
146.99199999999999
 30
0.0
 11
58.100000000000001
 21
146.99100000000001
 31
0.0
  0
LINE
  5
652
  8
_________1
  6
AIGENLINE002
 62
     7
 10
66.401399999999995
 20
165.94900000000001
 30
0.0
 11
68.757800000000003
 21
164.84999999999999
 31
0.0
  0
LINE
  5
653
  8
_________1
  6
AIGENLINE002
 62
     7
 10
57.668700000000001
 20
147.22200000000001
 30
0.0
 11
66.401399999999995
 21
165.94900000000001
 31
0.0
  0
LINE
  5
654
  8
_________1
  6
AIGENLINE002
 62
     7
 10
68.854299999999995
 20
164.584
 30
0.0
 11
60.279400000000003
 21
146.19499999999999
 31
0.0
  0
ARC
  5
655
  8
_________1
  6
AIGENLINE002
 62
     7
 10
56.248423000000003
 20
144.04806400000001
 30
0.0
 40
3.4776089999999988
 50
58.01773
 51
65.895608999999993
  0
ARC
  5
656
  8
_________1
  6
AIGENLINE002
 62
     7
 10
68.653640999999993
 20
164.66249500000001
 30
0.0
 40
0.215165
 50
338.830489
 51
61.040346
  0
ARC
  5
657
  8
_________1
  6
AIGENLINE002
 62
     7
 10
60.090856999999993
 20
146.30003099999999
 30
0.0
 40
0.215765
 50
248.969416
 51
330.9014390000001
  0
LINE
  5
658
  8
_________1
  6
AIGENLINE002
 62
     7
 10
58.097299999999997
 20
146.994
 30
0.0
 11
58.110300000000002
 21
146.98599999999999
 31
0.0
  0
LINE
  5
659
  8
_________1
  6
AIGENLINE002
 62
     7
 10
58.090400000000002
 20
146.999
 30
0.0
 11
58.097299999999997
 21
146.994
 31
0.0
  0
LINE
  5
65A
  8
_________1
 62
     7
 10
45.869500000000002
 20
191.517
 30
0.0
 11
45.869500000000002
 21
191.51599999999999
 31
0.0
  0
LINE
  5
65B
  8
_________1
 62
     7
 10
45.858800000000002
 20
191.52000000000001
 30
0.0
 11
45.869500000000002
 21
191.517
 31
0.0
  0
LINE
  5
65C
  8
_________1
 62
     7
 10
45.837499999999999
 20
191.52199999999999
 30
0.0
 11
45.858800000000002
 21
191.52000000000001
 31
0.0
  0
LINE
  5
65D
  8
_________1
 62
     7
 10
45.805799999999998
 20
191.52500000000001
 30
0.0
 11
45.837499999999999
 21
191.52199999999999
 31
0.0
  0
LINE
  5
65E
  8
_________1
 62
     7
 10
45.763699999999993
 20
191.52699999999999
 30
0.0
 11
45.805799999999998
 21
191.52500000000001
 31
0.0
  0
LINE
  5
65F
  8
_________1
 62
     7
 10
45.71139999999999
 20
191.53
 30
0.0
 11
45.763699999999993
 21
191.52699999999999
 31
0.0
  0
LINE
  5
660
  8
_________1
 62
     7
 10
45.649399999999993
 20
191.53200000000001
 30
0.0
 11
45.71139999999999
 21
191.53
 31
0.0
  0
LINE
  5
661
  8
_________1
 62
     7
 10
45.5777
 20
191.53399999999999
 30
0.0
 11
45.649399999999993
 21
191.53200000000001
 31
0.0
  0
LINE
  5
662
  8
_________1
 62
     7
 10
45.497399999999992
 20
191.53599999999989
 30
0.0
 11
45.5777
 21
191.53399999999999
 31
0.0
  0
LINE
  5
663
  8
_________1
 62
     7
 10
45.408200000000001
 20
191.53800000000001
 30
0.0
 11
45.497399999999992
 21
191.53599999999989
 31
0.0
  0
LINE
  5
664
  8
_________1
 62
     7
 10
45.310399999999987
 20
191.53999999999999
 30
0.0
 11
45.408200000000001
 21
191.53800000000001
 31
0.0
  0
LINE
  5
665
  8
_________1
 62
     7
 10
45.205299999999987
 20
191.542
 30
0.0
 11
45.310399999999987
 21
191.53999999999999
 31
0.0
  0
LINE
  5
666
  8
_________1
 62
     7
 10
45.093299999999999
 20
191.54300000000001
 30
0.0
 11
45.205299999999987
 21
191.542
 31
0.0
  0
LINE
  5
667
  8
_________1
 62
     7
 10
44.9741
 20
191.54499999999999
 30
0.0
 11
45.093299999999999
 21
191.54300000000001
 31
0.0
  0
LINE
  5
668
  8
_________1
 62
     7
 10
44.849400000000003
 20
191.54599999999999
 30
0.0
 11
44.9741
 21
191.54499999999999
 31
0.0
  0
LINE
  5
669
  8
_________1
 62
     7
 10
44.719499999999989
 20
191.547
 30
0.0
 11
44.849400000000003
 21
191.54599999999999
 31
0.0
  0
LINE
  5
66A
  8
_________1
 62
     7
 10
44.585500000000003
 20
191.548
 30
0.0
 11
44.719499999999989
 21
191.547
 31
0.0
  0
LINE
  5
66B
  8
_________1
 62
     7
 10
44.447000000000003
 20
191.54900000000001
 30
0.0
 11
44.585500000000003
 21
191.548
 31
0.0
  0
LINE
  5
66C
  8
_________1
 62
     7
 10
44.305399999999992
 20
191.55000000000001
 30
0.0
 11
44.447000000000003
 21
191.54900000000001
 31
0.0
  0
LINE
  5
66D
  8
_________1
 62
     7
 10
44.161799999999992
 20
191.55000000000001
 30
0.0
 11
44.305399999999992
 21
191.55000000000001
 31
0.0
  0
LINE
  5
66E
  8
_________1
 62
     7
 10
44.0167
 20
191.55099999999999
 30
0.0
 11
44.161799999999992
 21
191.55000000000001
 31
0.0
  0
LINE
  5
66F
  8
_________1
 62
     7
 10
43.871000000000002
 20
191.55099999999999
 30
0.0
 11
44.0167
 21
191.55099999999999
 31
0.0
  0
LINE
  5
670
  8
_________1
 62
     7
 10
44.0122
 20
191.422
 30
0.0
 11
43.871000000000002
 21
191.422
 31
0.0
  0
LINE
  5
671
  8
_________1
 62
     7
 10
44.153500000000001
 20
191.422
 30
0.0
 11
44.0122
 21
191.422
 31
0.0
  0
LINE
  5
672
  8
_________1
 62
     7
 10
44.29229999999999
 20
191.423
 30
0.0
 11
44.153500000000001
 21
191.422
 31
0.0
  0
LINE
  5
673
  8
_________1
 62
     7
 10
44.29229999999999
 20
191.422
 30
0.0
 11
44.429400000000001
 21
191.423
 31
0.0
  0
LINE
  5
674
  8
_________1
 62
     7
 10
44.429400000000001
 20
191.423
 30
0.0
 11
44.563499999999991
 21
191.42400000000001
 31
0.0
  0
LINE
  5
675
  8
_________1
 62
     7
 10
44.693999999999988
 20
191.42500000000001
 30
0.0
 11
44.563499999999991
 21
191.42400000000001
 31
0.0
  0
LINE
  5
676
  8
_________1
 62
     7
 10
44.820099999999989
 20
191.42599999999999
 30
0.0
 11
44.693999999999988
 21
191.42500000000001
 31
0.0
  0
LINE
  5
677
  8
_________1
 62
     7
 10
44.820099999999989
 20
191.42599999999999
 30
0.0
 11
44.941000000000003
 21
191.42699999999999
 31
0.0
  0
LINE
  5
678
  8
_________1
 62
     7
 10
44.941000000000003
 20
191.42699999999999
 30
0.0
 11
45.056399999999989
 21
191.429
 31
0.0
  0
LINE
  5
679
  8
_________1
 62
     7
 10
45.165300000000002
 20
191.43000000000001
 30
0.0
 11
45.056399999999989
 21
191.429
 31
0.0
  0
LINE
  5
67A
  8
_________1
 62
     7
 10
45.267299999999992
 20
191.43199999999999
 30
0.0
 11
45.165300000000002
 21
191.43000000000001
 31
0.0
  0
LINE
  5
67B
  8
_________1
 62
     7
 10
45.267299999999992
 20
191.43199999999999
 30
0.0
 11
45.361699999999999
 21
191.434
 31
0.0
  0
LINE
  5
67C
  8
_________1
 62
     7
 10
45.361699999999999
 20
191.434
 30
0.0
 11
45.448500000000003
 21
191.43600000000001
 31
0.0
  0
LINE
  5
67D
  8
_________1
 62
     7
 10
45.526699999999991
 20
191.43799999999999
 30
0.0
 11
45.448500000000003
 21
191.43600000000001
 31
0.0
  0
LINE
  5
67E
  8
_________1
 62
     7
 10
45.526699999999991
 20
191.43799999999999
 30
0.0
 11
45.595999999999997
 21
191.44
 31
0.0
  0
LINE
  5
67F
  8
_________1
 62
     7
 10
45.595999999999997
 20
191.44
 30
0.0
 11
45.656199999999998
 21
191.44200000000001
 31
0.0
  0
LINE
  5
680
  8
_________1
 62
     7
 10
45.656199999999998
 20
191.44200000000001
 30
0.0
 11
45.70689999999999
 21
191.44399999999999
 31
0.0
  0
LINE
  5
681
  8
_________1
 62
     7
 10
45.747500000000002
 20
191.447
 30
0.0
 11
45.70689999999999
 21
191.44399999999999
 31
0.0
  0
LINE
  5
682
  8
_________1
 62
     7
 10
45.747500000000002
 20
191.447
 30
0.0
 11
45.778500000000001
 21
191.44900000000001
 31
0.0
  0
ARC
  5
683
  8
_________1
 62
     7
 10
45.807996000000003
 20
191.28666200000001
 30
0.0
 40
0.165283
 50
93.044955999999999
 51
100.263873
  0
LINE
  5
684
  8
_________1
 62
     7
 10
45.809899999999992
 20
191.45400000000001
 30
0.0
 11
45.799199999999999
 21
191.452
 31
0.0
  0
LINE
  5
685
  8
_________1
 62
     7
 10
45.809899999999992
 20
191.45699999999999
 30
0.0
 11
45.809899999999992
 21
191.45400000000001
 31
0.0
  0
LINE
  5
686
  8
_________1
 62
     7
 10
45.799199999999999
 20
191.459
 30
0.0
 11
45.809899999999992
 21
191.45699999999999
 31
0.0
  0
LINE
  5
687
  8
_________1
 62
     7
 10
45.7789
 20
191.46199999999999
 30
0.0
 11
45.799199999999999
 21
191.459
 31
0.0
  0
LINE
  5
688
  8
_________1
 62
     7
 10
45.747900000000001
 20
191.464
 30
0.0
 11
45.7789
 21
191.46199999999999
 31
0.0
  0
LINE
  5
689
  8
_________1
 62
     7
 10
45.70689999999999
 20
191.46700000000001
 30
0.0
 11
45.747900000000001
 21
191.464
 31
0.0
  0
LINE
  5
68A
  8
_________1
 62
     7
 10
45.656199999999998
 20
191.46899999999999
 30
0.0
 11
45.70689999999999
 21
191.46700000000001
 31
0.0
  0
LINE
  5
68B
  8
_________1
 62
     7
 10
45.596299999999999
 20
191.47099999999989
 30
0.0
 11
45.656199999999998
 21
191.46899999999999
 31
0.0
  0
LINE
  5
68C
  8
_________1
 62
     7
 10
45.526699999999991
 20
191.47300000000001
 30
0.0
 11
45.596299999999999
 21
191.47099999999989
 31
0.0
  0
LINE
  5
68D
  8
_________1
 62
     7
 10
45.448500000000003
 20
191.47499999999999
 30
0.0
 11
45.526699999999991
 21
191.47300000000001
 31
0.0
  0
LINE
  5
68E
  8
_________1
 62
     7
 10
45.361699999999999
 20
191.477
 30
0.0
 11
45.448500000000003
 21
191.47499999999999
 31
0.0
  0
LINE
  5
68F
  8
_________1
 62
     7
 10
45.267299999999992
 20
191.47900000000001
 30
0.0
 11
45.361699999999999
 21
191.477
 31
0.0
  0
LINE
  5
690
  8
_________1
 62
     7
 10
45.165300000000002
 20
191.48099999999999
 30
0.0
 11
45.267299999999992
 21
191.47900000000001
 31
0.0
  0
LINE
  5
691
  8
_________1
 62
     7
 10
45.056800000000003
 20
191.483
 30
0.0
 11
45.165300000000002
 21
191.48099999999999
 31
0.0
  0
LINE
  5
692
  8
_________1
 62
     7
 10
44.941000000000003
 20
191.48400000000001
 30
0.0
 11
45.056800000000003
 21
191.483
 31
0.0
  0
LINE
  5
693
  8
_________1
 62
     7
 10
44.820099999999989
 20
191.48500000000001
 30
0.0
 11
44.941000000000003
 21
191.48400000000001
 31
0.0
  0
LINE
  5
694
  8
_________1
 62
     7
 10
44.693999999999988
 20
191.48599999999999
 30
0.0
 11
44.820099999999989
 21
191.48500000000001
 31
0.0
  0
LINE
  5
695
  8
_________1
 62
     7
 10
44.563499999999991
 20
191.488
 30
0.0
 11
44.693999999999988
 21
191.48599999999999
 31
0.0
  0
LINE
  5
696
  8
_________1
 62
     7
 10
44.4298
 20
191.488
 30
0.0
 11
44.563499999999991
 21
191.488
 31
0.0
  0
LINE
  5
697
  8
_________1
 62
     7
 10
44.29229999999999
 20
191.489
 30
0.0
 11
44.4298
 21
191.488
 31
0.0
  0
LINE
  5
698
  8
_________1
 62
     7
 10
44.153500000000001
 20
191.489
 30
0.0
 11
44.29229999999999
 21
191.489
 31
0.0
  0
LINE
  5
699
  8
_________1
 62
     7
 10
44.0122
 20
191.49000000000001
 30
0.0
 11
44.153500000000001
 21
191.489
 31
0.0
  0
LINE
  5
69A
  8
_________1
 62
     7
 10
43.871000000000002
 20
191.49000000000001
 30
0.0
 11
44.0122
 21
191.49000000000001
 31
0.0
  0
LINE
  5
69B
  8
_________1
 62
     7
 10
43.728999999999999
 20
191.49000000000001
 30
0.0
 11
43.871000000000002
 21
191.49000000000001
 31
0.0
  0
LINE
  5
69C
  8
_________1
 62
     7
 10
43.588500000000003
 20
191.489
 30
0.0
 11
43.728999999999999
 21
191.49000000000001
 31
0.0
  0
LINE
  5
69D
  8
_________1
 62
     7
 10
43.449300000000001
 20
191.489
 30
0.0
 11
43.588500000000003
 21
191.489
 31
0.0
  0
LINE
  5
69E
  8
_________1
 62
     7
 10
43.312199999999997
 20
191.488
 30
0.0
 11
43.449300000000001
 21
191.489
 31
0.0
  0
LINE
  5
69F
  8
_________1
 62
     7
 10
43.177799999999991
 20
191.488
 30
0.0
 11
43.312199999999997
 21
191.488
 31
0.0
  0
LINE
  5
6A0
  8
_________1
 62
     7
 10
43.0473
 20
191.48599999999999
 30
0.0
 11
43.177799999999991
 21
191.488
 31
0.0
  0
LINE
  5
6A1
  8
_________1
 62
     7
 10
42.921199999999992
 20
191.48500000000001
 30
0.0
 11
43.0473
 21
191.48599999999999
 31
0.0
  0
LINE
  5
6A2
  8
_________1
 62
     7
 10
42.80019999999999
 20
191.48400000000001
 30
0.0
 11
42.921199999999992
 21
191.48500000000001
 31
0.0
  0
LINE
  5
6A3
  8
_________1
 62
     7
 10
42.684800000000003
 20
191.483
 30
0.0
 11
42.80019999999999
 21
191.48400000000001
 31
0.0
  0
LINE
  5
6A4
  8
_________1
 62
     7
 10
42.576000000000001
 20
191.48099999999999
 30
0.0
 11
42.684800000000003
 21
191.483
 31
0.0
  0
LINE
  5
6A5
  8
_________1
 62
     7
 10
42.47399999999999
 20
191.47900000000001
 30
0.0
 11
42.576000000000001
 21
191.48099999999999
 31
0.0
  0
LINE
  5
6A6
  8
_________1
 62
     7
 10
42.379600000000003
 20
191.477
 30
0.0
 11
42.47399999999999
 21
191.47900000000001
 31
0.0
  0
LINE
  5
6A7
  8
_________1
 62
     7
 10
42.2928
 20
191.47499999999999
 30
0.0
 11
42.379600000000003
 21
191.477
 31
0.0
  0
LINE
  5
6A8
  8
_________1
 62
     7
 10
42.21459999999999
 20
191.47300000000001
 30
0.0
 11
42.2928
 21
191.47499999999999
 31
0.0
  0
LINE
  5
6A9
  8
_________1
 62
     7
 10
42.145299999999992
 20
191.47099999999989
 30
0.0
 11
42.21459999999999
 21
191.47300000000001
 31
0.0
  0
LINE
  5
6AA
  8
_________1
 62
     7
 10
42.084999999999987
 20
191.46899999999999
 30
0.0
 11
42.145299999999992
 21
191.47099999999989
 31
0.0
  0
LINE
  5
6AB
  8
_________1
 62
     7
 10
42.034399999999991
 20
191.46700000000001
 30
0.0
 11
42.084999999999987
 21
191.46899999999999
 31
0.0
  0
LINE
  5
6AC
  8
_________1
 62
     7
 10
41.994100000000003
 20
191.464
 30
0.0
 11
42.034399999999991
 21
191.46700000000001
 31
0.0
  0
LINE
  5
6AD
  8
_________1
 62
     7
 10
41.96309999999999
 20
191.46199999999999
 30
0.0
 11
41.994100000000003
 21
191.464
 31
0.0
  0
LINE
  5
6AE
  8
_________1
 62
     7
 10
41.942100000000003
 20
191.459
 30
0.0
 11
41.96309999999999
 21
191.46199999999999
 31
0.0
  0
LINE
  5
6AF
  8
_________1
 62
     7
 10
41.931699999999999
 20
191.45699999999999
 30
0.0
 11
41.942100000000003
 21
191.459
 31
0.0
  0
LINE
  5
6B0
  8
_________1
 62
     7
 10
41.931699999999999
 20
191.45400000000001
 30
0.0
 11
41.931699999999999
 21
191.45699999999999
 31
0.0
  0
LINE
  5
6B1
  8
_________1
 62
     7
 10
41.942100000000003
 20
191.452
 30
0.0
 11
41.931699999999999
 21
191.45400000000001
 31
0.0
  0
ARC
  5
6B2
  8
_________1
 62
     7
 10
41.944834999999991
 20
191.38567499999999
 30
0.0
 40
0.066095
 50
74.287730999999994
 51
92.403401000000002
  0
LINE
  5
6B3
  8
_________1
 62
     7
 10
41.962699999999998
 20
191.44900000000001
 30
0.0
 11
41.993699999999997
 21
191.447
 31
0.0
  0
ARC
  5
6B4
  8
_________1
 62
     7
 10
42.12798699999999
 20
193.36606599999999
 30
0.0
 40
1.9238660000000001
 50
265.99866500000002
 51
267.21150799999998
  0
LINE
  5
6B5
  8
_________1
 62
     7
 10
42.034399999999991
 20
191.44399999999999
 30
0.0
 11
42.084999999999987
 21
191.44200000000001
 31
0.0
  0
LINE
  5
6B6
  8
_________1
 62
     7
 10
42.084999999999987
 20
191.44200000000001
 30
0.0
 11
42.145299999999992
 21
191.44
 31
0.0
  0
LINE
  5
6B7
  8
_________1
 62
     7
 10
42.145299999999992
 20
191.44
 30
0.0
 11
42.21459999999999
 21
191.43799999999999
 31
0.0
  0
ARC
  5
6B8
  8
_________1
 62
     7
 10
41.753382999999992
 20
172.508882
 30
0.0
 40
18.934322999999999
 50
88.367552000000003
 51
88.604281999999984
  0
LINE
  5
6B9
  8
_________1
 62
     7
 10
42.2928
 20
191.43600000000001
 30
0.0
 11
42.379600000000003
 21
191.434
 31
0.0
  0
LINE
  5
6BA
  8
_________1
 62
     7
 10
42.379600000000003
 20
191.434
 30
0.0
 11
42.47399999999999
 21
191.43199999999999
 31
0.0
  0
LINE
  5
6BB
  8
_________1
 62
     7
 10
42.576000000000001
 20
191.43000000000001
 30
0.0
 11
42.47399999999999
 21
191.43199999999999
 31
0.0
  0
ARC
  5
6BC
  8
_________1
 62
     7
 10
42.525890999999987
 20
183.17324400000001
 30
0.0
 40
8.2569160000000004
 50
88.897015999999994
 51
89.652514999999994
  0
LINE
  5
6BD
  8
_________1
 62
     7
 10
42.684800000000003
 20
191.429
 30
0.0
 11
42.80019999999999
 21
191.42699999999999
 31
0.0
  0
LINE
  5
6BE
  8
_________1
 62
     7
 10
42.80019999999999
 20
191.42699999999999
 30
0.0
 11
42.921199999999992
 21
191.42599999999999
 31
0.0
  0
LINE
  5
6BF
  8
_________1
 62
     7
 10
43.0473
 20
191.42500000000001
 30
0.0
 11
42.921199999999992
 21
191.42599999999999
 31
0.0
  0
LINE
  5
6C0
  8
_________1
 62
     7
 10
43.177799999999991
 20
191.42400000000001
 30
0.0
 11
43.0473
 21
191.42500000000001
 31
0.0
  0
LINE
  5
6C1
  8
_________1
 62
     7
 10
43.177799999999991
 20
191.42400000000001
 30
0.0
 11
43.311799999999991
 21
191.423
 31
0.0
  0
LINE
  5
6C2
  8
_________1
 62
     7
 10
43.311799999999991
 20
191.423
 30
0.0
 11
43.448999999999991
 21
191.422
 31
0.0
  0
LINE
  5
6C3
  8
_________1
 62
     7
 10
43.588500000000003
 20
191.422
 30
0.0
 11
43.449300000000001
 21
191.423
 31
0.0
  0
LINE
  5
6C4
  8
_________1
 62
     7
 10
43.728999999999999
 20
191.422
 30
0.0
 11
43.588500000000003
 21
191.422
 31
0.0
  0
LINE
  5
6C5
  8
_________1
 62
     7
 10
43.871000000000002
 20
191.422
 30
0.0
 11
43.728999999999999
 21
191.422
 31
0.0
  0
LINE
  5
6C6
  8
_________1
 62
     7
 10
39.3782
 20
146.755
 30
0.0
 11
39.37060000000001
 21
146.74799999999999
 31
0.0
  0
ARC
  5
6C7
  8
_________1
 62
     7
 10
45.117876000000003
 20
140.50172699999999
 30
0.0
 40
8.4882679999999997
 50
132.32593399999999
 51
132.54649699999999
  0
LINE
  5
6C8
  8
_________1
 62
     7
 10
39.44230000000001
 20
146.815
 30
0.0
 11
39.402299999999997
 21
146.77699999999999
 31
0.0
  0
LINE
  5
6C9
  8
_________1
 62
     7
 10
39.499099999999999
 20
146.86799999999999
 30
0.0
 11
39.44230000000001
 21
146.815
 31
0.0
  0
LINE
  5
6CA
  8
_________1
 62
     7
 10
39.573500000000003
 20
146.93700000000001
 30
0.0
 11
39.499099999999999
 21
146.86799999999999
 31
0.0
  0
ARC
  5
6CB
  8
_________1
 62
     7
 10
47.965938000000001
 20
138.03308699999999
 30
0.0
 40
12.235813
 50
132.71418700000001
 51
133.30543900000001
  0
ARC
  5
6CC
  8
_________1
 62
     7
 10
47.685141999999999
 20
138.448093
 30
0.0
 40
11.740655
 50
132.33756700000001
 51
133.08118400000001
  0
ARC
  5
6CD
  8
_________1
 62
     7
 10
79.783027000000004
 20
103.99566900000001
 30
0.0
 40
58.827692999999996
 50
132.67081099999999
 51
132.846757
  0
LINE
  5
6CE
  8
_________1
 62
     7
 10
40.064500000000002
 20
147.39099999999999
 30
0.0
 11
39.910499999999999
 21
147.249
 31
0.0
  0
LINE
  5
6CF
  8
_________1
 62
     7
 10
40.24219999999999
 20
147.55199999999999
 30
0.0
 11
40.064500000000002
 21
147.39099999999999
 31
0.0
  0
ARC
  5
6D0
  8
_________1
 62
     7
 10
73.569618999999989
 20
110.843431
 30
0.0
 40
49.580415000000002
 50
131.921311
 51
132.23617300000001
  0
ARC
  5
6D1
  8
_________1
 62
     7
 10
227.30326199999999
 20
-62.410982999999987
 30
0.0
 40
281.20682999999991
 50
131.58095299999999
 51
131.64310599999999
  0
ARC
  5
6D2
  8
_________1
 62
     7
 10
59.116126000000001
 20
127.048833
 30
0.0
 40
27.865382
 50
130.75169
 51
131.44353100000001
  0
ARC
  5
6D3
  8
_________1
 62
     7
 10
57.097110999999991
 20
129.52651399999999
 30
0.0
 40
24.670604999999998
 50
130.10627700000001
 51
130.95581000000001
  0
ARC
  5
6D4
  8
_________1
 62
     7
 10
51.503042999999998
 20
136.18698499999999
 30
0.0
 40
15.972602
 50
128.749292
 51
130.14967999999999
  0
ARC
  5
6D5
  8
_________1
 62
     7
 10
50.670602000000002
 20
137.3446689999999
 30
0.0
 40
14.548892
 50
127.51313399999999
 51
129.04621700000001
  0
ARC
  5
6D6
  8
_________1
 62
     7
 10
48.135086000000001
 20
140.62128999999999
 30
0.0
 40
10.405858
 50
125.51699499999999
 51
127.42542899999999
  0
ARC
  5
6D7
  8
_________1
 62
     7
 10
46.136746000000002
 20
143.43933200000001
 30
0.0
 40
6.9512159999999996
 50
123.045866
 51
125.604293
  0
ARC
  5
6D8
  8
_________1
 62
     7
 10
45.06996199999999
 20
145.13445899999999
 30
0.0
 40
4.9486660000000002
 50
120.152461
 51
123.395014
  0
ARC
  5
6D9
  8
_________1
 62
     7
 10
44.814151999999993
 20
145.59784200000001
 30
0.0
 40
4.419503999999999
 50
117.043919
 51
120.30234799999999
  0
ARC
  5
6DA
  8
_________1
 62
     7
 10
44.140954999999998
 20
146.91458700000001
 30
0.0
 40
2.9406490000000001
 50
112.646547
 51
117.026398
  0
ARC
  5
6DB
  8
_________1
 62
     7
 10
43.911906999999999
 20
147.490882
 30
0.0
 40
2.3206180000000001
 50
107.93075
 51
112.906077
  0
ARC
  5
6DC
  8
_________1
 62
     7
 10
43.802083999999986
 20
147.89634599999999
 30
0.0
 40
1.901144999999999
 50
103.049437
 51
108.543769
  0
ARC
  5
6DD
  8
_________1
 62
     7
 10
43.758459000000002
 20
148.15795800000001
 30
0.0
 40
1.6365229999999991
 50
97.784043000000025
 51
103.629617
  0
ARC
  5
6DE
  8
_________1
 62
     7
 10
43.751197999999988
 20
148.31178700000001
 30
0.0
 40
1.483190999999999
 50
92.213761000000005
 51
98.311008999999999
  0
ARC
  5
6DF
  8
_________1
 62
     7
 10
43.771076000000001
 20
148.37868499999999
 30
0.0
 40
1.417287999999999
 50
86.878720999999985
 51
93.121259000000009
  0
ARC
  5
6E0
  8
_________1
 62
     7
 10
43.747020999999997
 20
147.84095099999999
 30
0.0
 40
1.955541
 50
82.419343000000026
 51
87.032845999999992
  0
ARC
  5
6E1
  8
_________1
 62
     7
 10
43.680764000000003
 20
147.60996800000001
 30
0.0
 40
2.1935289999999998
 50
77.130475000000004
 51
81.49968299999999
  0
ARC
  5
6E2
  8
_________1
 62
     7
 10
43.741213999999992
 20
147.90458599999999
 30
0.0
 40
1.892858999999999
 50
71.419659999999993
 51
76.928015000000002
  0
ARC
  5
6E3
  8
_________1
 62
     7
 10
43.411934000000002
 20
146.90536299999999
 30
0.0
 40
2.944926999999999
 50
67.621509000000003
 51
71.54162500000001
  0
ARC
  5
6E4
  8
_________1
 62
     7
 10
43.280346999999992
 20
146.654224
 30
0.0
 40
3.2273559999999999
 50
63.168210000000002
 51
67.158805000000001
  0
ARC
  5
6E5
  8
_________1
 62
     7
 10
42.299818999999999
 20
144.81551200000001
 30
0.0
 40
5.310878999999999
 50
59.971134999999997
 51
62.682557999999993
  0
ARC
  5
6E6
  8
_________1
 62
     7
 10
41.831684999999993
 20
144.10093000000001
 30
0.0
 40
6.164000999999999
 50
56.924689999999998
 51
59.527796000000002
  0
ARC
  5
6E7
  8
_________1
 62
     7
 10
40.486373
 20
142.10362599999999
 30
0.0
 40
8.5719220000000007
 50
54.602634999999992
 51
56.675375000000003
  0
ARC
  5
6E8
  8
_________1
 62
     7
 10
40.264196999999989
 20
141.80546200000001
 30
0.0
 40
8.9436699999999991
 50
52.32572600000001
 51
54.548831999999997
  0
ARC
  5
6E9
  8
_________1
 62
     7
 10
37.417988999999999
 20
137.99453199999999
 30
0.0
 40
13.699749000000001
 50
51.017639999999993
 51
52.645103000000013
  0
ARC
  5
6EA
  8
_________1
 62
     7
 10
26.034911000000001
 20
124.057722
 30
0.0
 40
31.694367
 50
50.165723999999997
 51
50.870965000000012
  0
ARC
  5
6EB
  8
_________1
 62
     7
 10
30.441389000000001
 20
129.52304799999999
 30
0.0
 40
24.675165
 50
49.044249000000001
 51
49.893625
  0
ARC
  5
6EC
  8
_________1
 62
     7
 10
30.220103999999999
 20
129.132317
 30
0.0
 40
25.115455999999998
 50
48.480276000000003
 51
49.247276999999997
  0
ARC
  5
6ED
  8
_________1
 62
     7
 10
-65.785257999999999
 20
20.875530999999999
 30
0.0
 40
169.810394
 50
48.336489
 51
48.439413000000002
  0
ARC
  5
6EE
  8
_________1
 62
     7
 10
-1.154938999999999
 20
93.998381999999992
 30
0.0
 40
72.220539000000002
 50
47.861562999999997
 51
48.077922999999991
  0
ARC
  5
6EF
  8
_________1
 62
     7
 10
-67.246685999999997
 20
21.568860000000001
 30
0.0
 40
170.27196499999999
 50
47.641658
 51
47.722242999999999
  0
ARC
  5
6F0
  8
_________1
 62
     7
 10
100.138808
 20
204.77865600000001
 30
0.0
 40
77.889006999999992
 50
227.45898099999999
 51
227.61288400000001
  0
LINE
  5
6F1
  8
_________1
 62
     7
 10
47.763300000000001
 20
147.126
 30
0.0
 11
47.631
 21
147.249
 31
0.0
  0
ARC
  5
6F2
  8
_________1
 62
     7
 10
31.232195999999998
 20
129.05018699999999
 30
0.0
 40
24.495623999999999
 50
47.199822999999988
 51
47.556825999999987
  0
ARC
  5
6F3
  8
_________1
 62
     7
 10
204.84219999999999
 20
315.19896199999999
 30
0.0
 40
230.04688100000001
 50
226.97446299999999
 51
227.005911
  0
LINE
  5
6F4
  8
_________1
 62
     7
 10
48.042000000000002
 20
146.86799999999999
 30
0.0
 11
47.9679
 21
146.93700000000001
 31
0.0
  0
LINE
  5
6F5
  8
_________1
 62
     7
 10
48.09879999999999
 20
146.815
 30
0.0
 11
48.042000000000002
 21
146.86799999999999
 31
0.0
  0
LINE
  5
6F6
  8
_________1
 62
     7
 10
48.139499999999998
 20
146.77699999999999
 30
0.0
 11
48.09879999999999
 21
146.815
 31
0.0
  0
ARC
  5
6F7
  8
_________1
 62
     7
 10
47.739053999999989
 20
146.32839899999999
 30
0.0
 40
0.601565
 50
45.20347000000001
 51
48.267929000000002
  0
LINE
  5
6F8
  8
_________1
 62
     7
 10
48.171199999999999
 20
146.74799999999999
 30
0.0
 11
48.1629
 21
146.755
 31
0.0
  0
LINE
  5
6F9
  8
_________1
 62
     7
 10
46.263599999999997
 20
156.14400000000001
 30
0.0
 11
46.27089999999999
 21
156.148
 31
0.0
  0
LINE
  5
6FA
  8
_________1
 62
     7
 10
46.241900000000001
 20
156.13300000000001
 30
0.0
 11
46.263599999999997
 21
156.14400000000001
 31
0.0
  0
ARC
  5
6FB
  8
_________1
 62
     7
 10
45.257240000000003
 20
158.021657
 30
0.0
 40
2.1292680000000002
 50
296.46304300000003
 51
297.54515199999997
  0
ARC
  5
6FC
  8
_________1
 62
     7
 10
41.129333000000003
 20
166.34382099999999
 30
0.0
 40
11.418939
 50
296.11188199999998
 51
296.39714800000002
  0
ARC
  5
6FD
  8
_________1
 62
     7
 10
41.626721999999987
 20
165.2560409999999
 30
0.0
 40
10.223319999999999
 50
295.87922900000001
 51
296.29198500000001
  0
ARC
  5
6FE
  8
_________1
 62
     7
 10
40.077328999999992
 20
168.67329599999999
 30
0.0
 40
13.974492
 50
295.10906799999998
 51
295.479332
  0
ARC
  5
6FF
  8
_________1
 62
     7
 10
43.821570999999992
 20
160.649023
 30
0.0
 40
5.1196789999999988
 50
294.07197599999989
 51
295.27272799999997
  0
ARC
  5
700
  8
_________1
 62
     7
 10
43.30312399999999
 20
161.75852499999999
 30
0.0
 40
6.3441919999999987
 50
293.14537200000001
 51
294.25993399999999
  0
ARC
  5
701
  8
_________1
 62
     7
 10
43.316897999999988
 20
161.643846
 30
0.0
 40
6.2334129999999988
 50
292.16879399999999
 51
293.44328400000001
  0
ARC
  5
702
  8
_________1
 62
     7
 10
42.546889
 20
163.58459999999999
 30
0.0
 40
8.3212740000000007
 50
290.98843299999999
 51
292.03639099999998
  0
ARC
  5
703
  8
_________1
 62
     7
 10
42.976973000000001
 20
162.59754100000001
 30
0.0
 40
7.2458149999999986
 50
289.31613700000008
 51
290.60882700000002
  0
ARC
  5
704
  8
_________1
 62
     7
 10
42.896740000000001
 20
162.97913700000001
 30
0.0
 40
7.632636999999999
 50
287.64318500000002
 51
288.93699099999998
  0
ARC
  5
705
  8
_________1
 62
     7
 10
43.60271199999999
 20
160.8154889999999
 30
0.0
 40
5.3568169999999986
 50
285.55512599999997
 51
287.461479
  0
ARC
  5
706
  8
_________1
 62
     7
 10
43.888303000000001
 20
159.74684199999999
 30
0.0
 40
4.2507409999999997
 50
283.25836800000002
 51
285.70936399999999
  0
ARC
  5
707
  8
_________1
 62
     7
 10
43.813997999999991
 20
159.96692100000001
 30
0.0
 40
4.4820479999999998
 50
281.19305800000001
 51
283.53770400000002
  0
ARC
  5
708
  8
_________1
 62
     7
 10
43.71238499999999
 20
160.565743
 30
0.0
 40
5.0892319999999991
 50
278.94685700000002
 51
281.006618
  0
ARC
  5
709
  8
_________1
 62
     7
 10
43.784089999999999
 20
160.24633900000001
 30
0.0
 40
4.7626099999999987
 50
276.49700200000001
 51
278.69230299999998
  0
LINE
  5
70A
  8
_________1
 62
     7
 10
44.141800000000003
 20
155.49799999999999
 30
0.0
 11
44.323
 21
155.51400000000001
 31
0.0
  0
LINE
  5
70B
  8
_________1
 62
     7
 10
43.960900000000002
 20
155.49000000000001
 30
0.0
 11
44.141800000000003
 21
155.49799999999999
 31
0.0
  0
LINE
  5
70C
  8
_________1
 62
     7
 10
43.7804
 20
155.49000000000001
 30
0.0
 11
43.960900000000002
 21
155.49000000000001
 31
0.0
  0
LINE
  5
70D
  8
_________1
 62
     7
 10
43.599499999999999
 20
155.49799999999999
 30
0.0
 11
43.7804
 21
155.49000000000001
 31
0.0
  0
LINE
  5
70E
  8
_________1
 62
     7
 10
43.418300000000002
 20
155.51400000000001
 30
0.0
 11
43.599499999999999
 21
155.49799999999999
 31
0.0
  0
ARC
  5
70F
  8
_________1
 62
     7
 10
44.012411
 20
160.66049099999989
 30
0.0
 40
5.180356999999999
 50
261.39624199999997
 51
263.41449299999999
  0
ARC
  5
710
  8
_________1
 62
     7
 10
44.168374
 20
161.37073100000001
 30
0.0
 40
5.9061300000000001
 50
259.152873
 51
260.93100800000002
  0
ARC
  5
711
  8
_________1
 62
     7
 10
44.309615999999991
 20
161.69991400000001
 30
0.0
 40
6.2564830000000002
 50
256.77328399999999
 51
258.44981300000001
  0
ARC
  5
712
  8
_________1
 62
     7
 10
43.868590999999988
 20
159.807289
 30
0.0
 40
4.3131579999999996
 50
254.30839300000011
 51
256.72391499999998
  0
ARC
  5
713
  8
_________1
 62
     7
 10
44.375409999999988
 20
161.61462700000001
 30
0.0
 40
6.1902129999999991
 50
252.666878
 51
254.31655699999999
  0
ARC
  5
714
  8
_________1
 62
     7
 10
45.217292999999991
 20
164.10689400000001
 30
0.0
 40
8.820333999999999
 50
251.15013999999999
 51
252.269724
  0
ARC
  5
715
  8
_________1
 62
     7
 10
45.003165000000003
 20
163.25513699999999
 30
0.0
 40
7.9454070000000003
 50
249.448106
 51
250.62697
  0
ARC
  5
716
  8
_________1
 62
     7
 10
46.918438999999999
 20
167.958572
 30
0.0
 40
13.022634
 50
248.152796
 51
248.82242000000011
  0
ARC
  5
717
  8
_________1
 62
     7
 10
44.330564000000003
 20
161.420727
 30
0.0
 40
5.9913869999999996
 50
246.530993
 51
247.85696899999999
  0
ARC
  5
718
  8
_________1
 62
     7
 10
46.576168999999993
 20
166.628443
 30
0.0
 40
11.662625999999999
 50
245.99422200000001
 51
246.60051100000001
  0
ARC
  5
719
  8
_________1
 62
     7
 10
44.810715999999992
 20
162.58867699999999
 30
0.0
 40
7.2541089999999988
 50
244.90394900000001
 51
245.751386
  0
ARC
  5
71A
  8
_________1
 62
     7
 10
57.652381000000013
 20
189.809529
 30
0.0
 40
37.351979999999998
 50
244.63655700000001
 51
244.775083
  0
ARC
  5
71B
  8
_________1
 62
     7
 10
49.128515999999991
 20
171.41221100000001
 30
0.0
 40
17.077662
 50
243.79086799999999
 51
244.037958
  0
LINE
  5
71C
  8
_________1
 62
     7
 10
41.535200000000003
 20
156.11500000000001
 30
0.0
 11
41.586199999999991
 21
156.09
 31
0.0
  0
LINE
  5
71D
  8
_________1
 62
     7
 10
41.499399999999987
 20
156.13399999999999
 30
0.0
 11
41.535200000000003
 21
156.11500000000001
 31
0.0
  0
LINE
  5
71E
  8
_________1
 62
     7
 10
41.477699999999999
 20
156.14400000000001
 30
0.0
 11
41.499399999999987
 21
156.13300000000001
 31
0.0
  0
LINE
  5
71F
  8
_________1
 62
     7
 10
41.470399999999991
 20
156.148
 30
0.0
 11
41.477699999999999
 21
156.14400000000001
 31
0.0
  0
LINE
  5
720
  8
_________1
 62
     7
 10
43.870600000000003
 20
191.83000000000001
 30
0.0
 11
43.99049999999999
 21
191.833
 31
0.0
  0
ARC
  5
721
  8
_________1
 62
     7
 10
43.889392000000001
 20
194.00211200000001
 30
0.0
 40
2.171381999999999
 50
272.669691
 51
275.851494
  0
ARC
  5
722
  8
_________1
 62
     7
 10
43.859546000000002
 20
194.37634199999999
 30
0.0
 40
2.5467189999999991
 50
275.66110800000001
 51
278.386842
  0
ARC
  5
723
  8
_________1
 62
     7
 10
43.847653000000001
 20
194.40455900000001
 30
0.0
 40
2.576379999999999
 50
278.55697099999998
 51
281.2716430000001
  0
ARC
  5
724
  8
_________1
 62
     7
 10
43.867669999999997
 20
194.29331099999999
 30
0.0
 40
2.4633660000000002
 50
281.32079199999998
 51
284.18839600000001
  0
ARC
  5
725
  8
_________1
 62
     7
 10
43.859786
 20
194.32380800000001
 30
0.0
 40
2.4948649999999999
 50
284.192272
 51
287.04323599999998
  0
ARC
  5
726
  8
_________1
 62
     7
 10
43.84236099999999
 20
194.363721
 30
0.0
 40
2.538138
 50
287.15523200000001
 51
290.010783
  0
ARC
  5
727
  8
_________1
 62
     7
 10
43.717981999999992
 20
194.65249399999999
 30
0.0
 40
2.8520970000000001
 50
290.37345900000003
 51
292.94275399999998
  0
ARC
  5
728
  8
_________1
 62
     7
 10
43.852459000000003
 20
194.317262
 30
0.0
 40
2.4909720000000002
 50
293.10002900000001
 51
296.089583
  0
ARC
  5
729
  8
_________1
 62
     7
 10
44.064421000000003
 20
193.897628
 30
0.0
 40
2.0208879999999998
 50
295.924599
 51
299.63465600000001
  0
ARC
  5
72A
  8
_________1
 62
     7
 10
44.116872999999991
 20
193.862291
 30
0.0
 40
1.9644379999999999
 50
298.81451499999997
 51
302.64949799999999
  0
ARC
  5
72B
  8
_________1
 62
     7
 10
44.192753000000003
 20
193.78543300000001
 30
0.0
 40
1.858922999999999
 50
301.95827100000002
 51
306.00567100000001
  0
ARC
  5
72C
  8
_________1
 62
     7
 10
43.945132000000001
 20
194.16848400000001
 30
0.0
 40
2.3144969999999998
 50
305.390084
 51
308.593794
  0
ARC
  5
72D
  8
_________1
 62
     7
 10
44.188352999999999
 20
193.88985
 30
0.0
 40
1.945068
 50
308.1139950000001
 51
311.7814029999999
  0
ARC
  5
72E
  8
_________1
 62
     7
 10
43.877355999999999
 20
194.25784899999999
 30
0.0
 40
2.426733
 50
311.46770099999998
 51
314.21918399999998
  0
ARC
  5
72F
  8
_________1
 62
     7
 10
43.874346000000003
 20
194.264837
 30
0.0
 40
2.433841999999999
 50
314.15525300000002
 51
316.63868100000008
  0
ARC
  5
730
  8
_________1
 62
     7
 10
43.895414000000002
 20
194.232789
 30
0.0
 40
2.396536999999999
 50
316.84988099999998
 51
319.013576
  0
ARC
  5
731
  8
_________1
 62
     7
 10
44.184905999999998
 20
194.00260299999999
 30
0.0
 40
2.0270990000000002
 50
318.55815999999999
 51
320.69286
  0
ARC
  5
732
  8
_________1
 62
     7
 10
44.340350999999998
 20
193.89421300000001
 30
0.0
 40
1.8382169999999991
 50
320.23770400000001
 51
322.13953700000002
  0
LINE
  5
733
  8
_________1
 62
     7
 10
45.791600000000003
 20
192.76599999999999
 30
0.0
 11
45.820199999999993
 21
192.803
 31
0.0
  0
ARC
  5
734
  8
_________1
 62
     7
 10
45.428527000000003
 20
193.121599
 30
0.0
 40
0.504767
 50
320.896728
 51
324.91760599999998
  0
ARC
  5
735
  8
_________1
 62
     7
 10
46.536455999999987
 20
192.33462499999999
 30
0.0
 40
0.854227
 50
142.79756900000001
 51
144.433696
  0
LINE
  5
736
  8
_________1
 62
     7
 10
45.865699999999997
 20
192.864
 30
0.0
 11
45.856099999999991
 21
192.851
 31
0.0
  0
LINE
  5
737
  8
_________1
 62
     7
 10
45.87019999999999
 20
192.869
 30
0.0
 11
45.865699999999997
 21
192.864
 31
0.0
  0
LINE
  5
738
  8
_________1
 62
     7
 10
43.724600000000002
 20
191.55099999999999
 30
0.0
 11
43.871000000000002
 21
191.55099999999999
 31
0.0
  0
LINE
  5
739
  8
_________1
 62
     7
 10
43.579500000000003
 20
191.55000000000001
 30
0.0
 11
43.724600000000002
 21
191.55099999999999
 31
0.0
  0
LINE
  5
73A
  8
_________1
 62
     7
 10
43.43589999999999
 20
191.55000000000001
 30
0.0
 11
43.579500000000003
 21
191.55000000000001
 31
0.0
  0
LINE
  5
73B
  8
_________1
 62
     7
 10
43.2943
 20
191.54900000000001
 30
0.0
 11
43.43589999999999
 21
191.55000000000001
 31
0.0
  0
LINE
  5
73C
  8
_________1
 62
     7
 10
43.156100000000002
 20
191.548
 30
0.0
 11
43.2943
 21
191.54900000000001
 31
0.0
  0
LINE
  5
73D
  8
_________1
 62
     7
 10
43.021799999999992
 20
191.547
 30
0.0
 11
43.156100000000002
 21
191.548
 31
0.0
  0
LINE
  5
73E
  8
_________1
 62
     7
 10
42.8919
 20
191.54599999999999
 30
0.0
 11
43.021799999999992
 21
191.547
 31
0.0
  0
LINE
  5
73F
  8
_________1
 62
     7
 10
42.767200000000003
 20
191.54499999999999
 30
0.0
 11
42.8919
 21
191.54599999999999
 31
0.0
  0
LINE
  5
740
  8
_________1
 62
     7
 10
42.648299999999992
 20
191.54300000000001
 30
0.0
 11
42.767200000000003
 21
191.54499999999999
 31
0.0
  0
LINE
  5
741
  8
_________1
 62
     7
 10
42.536000000000001
 20
191.542
 30
0.0
 11
42.648299999999992
 21
191.54300000000001
 31
0.0
  0
LINE
  5
742
  8
_________1
 62
     7
 10
42.430900000000001
 20
191.53999999999999
 30
0.0
 11
42.536000000000001
 21
191.542
 31
0.0
  0
LINE
  5
743
  8
_________1
 62
     7
 10
42.333399999999997
 20
191.53800000000001
 30
0.0
 11
42.430900000000001
 21
191.53999999999999
 31
0.0
  0
LINE
  5
744
  8
_________1
 62
     7
 10
42.243899999999989
 20
191.53599999999989
 30
0.0
 11
42.333399999999997
 21
191.53800000000001
 31
0.0
  0
LINE
  5
745
  8
_________1
 62
     7
 10
42.163600000000002
 20
191.53399999999999
 30
0.0
 11
42.243899999999989
 21
191.53599999999989
 31
0.0
  0
LINE
  5
746
  8
_________1
 62
     7
 10
42.091900000000003
 20
191.53200000000001
 30
0.0
 11
42.163600000000002
 21
191.53399999999999
 31
0.0
  0
LINE
  5
747
  8
_________1
 62
     7
 10
42.029899999999991
 20
191.53
 30
0.0
 11
42.091900000000003
 21
191.53200000000001
 31
0.0
  0
LINE
  5
748
  8
_________1
 62
     7
 10
41.977499999999999
 20
191.52699999999999
 30
0.0
 11
42.029899999999991
 21
191.53
 31
0.0
  0
LINE
  5
749
  8
_________1
 62
     7
 10
41.935499999999998
 20
191.52500000000001
 30
0.0
 11
41.977499999999999
 21
191.52699999999999
 31
0.0
  0
LINE
  5
74A
  8
_________1
 62
     7
 10
41.903799999999997
 20
191.52199999999999
 30
0.0
 11
41.935499999999998
 21
191.52500000000001
 31
0.0
  0
LINE
  5
74B
  8
_________1
 62
     7
 10
41.8825
 20
191.52000000000001
 30
0.0
 11
41.903799999999997
 21
191.52199999999999
 31
0.0
  0
LINE
  5
74C
  8
_________1
 62
     7
 10
41.8718
 20
191.517
 30
0.0
 11
41.8825
 21
191.52000000000001
 31
0.0
  0
LINE
  5
74D
  8
_________1
 62
     7
 10
41.8718
 20
191.51599999999999
 30
0.0
 11
41.8718
 21
191.517
 31
0.0
  0
LINE
  5
74E
  8
_________1
 62
     7
 10
113.94499999999999
 20
191.76400000000001
 30
0.0
 11
113.949
 21
191.761
 31
0.0
  0
LINE
  5
74F
  8
_________1
 62
     7
 10
113.934
 20
191.773
 30
0.0
 11
113.94499999999999
 21
191.76400000000001
 31
0.0
  0
LINE
  5
750
  8
_________1
 62
     7
 10
113.916
 20
191.78899999999999
 30
0.0
 11
113.934
 21
191.773
 31
0.0
  0
ARC
  5
751
  8
_________1
 62
     7
 10
113.458161
 20
191.27605500000001
 30
0.0
 40
0.6871960000000001
 50
48.19462
 51
50.986455999999997
  0
LINE
  5
752
  8
_________1
 62
     7
 10
113.858
 20
191.839
 30
0.0
 11
113.89100000000001
 21
191.81
 31
0.0
  0
ARC
  5
753
  8
_________1
 62
     7
 10
110.48030300000001
 20
187.86783
 30
0.0
 40
5.2128389999999989
 50
49.616830999999991
 51
50.210754999999999
  0
ARC
  5
754
  8
_________1
 62
     7
 10
111.678614
 20
189.36624499999999
 30
0.0
 40
3.294794
 50
49.547367999999999
 51
50.687249999999999
  0
LINE
  5
755
  8
_________1
 62
     7
 10
113.70699999999999
 20
191.965
 30
0.0
 11
113.765
 21
191.916
 31
0.0
  0
ARC
  5
756
  8
_________1
 62
     7
 10
118.175079
 20
197.48325299999999
 30
0.0
 40
7.1002850000000004
 50
230.28874099999999
 51
231.00778199999999
  0
ARC
  5
757
  8
_________1
 62
     7
 10
116.394509
 20
195.528614
 30
0.0
 40
4.4606300000000001
 50
230.535528
 51
231.84173200000001
  0
ARC
  5
758
  8
_________1
 62
     7
 10
109.916903
 20
187.55737199999999
 30
0.0
 40
5.8108539999999991
 50
51.183208999999998
 51
52.307938999999998
  0
ARC
  5
759
  8
_________1
 62
     7
 10
108.56010499999999
 20
185.84553199999999
 30
0.0
 40
7.9950640000000002
 50
52.114466
 51
53.016164000000011
  0
ARC
  5
75A
  8
_________1
 62
     7
 10
105.353318
 20
181.63505000000001
 30
0.0
 40
13.287618999999999
 50
52.892769999999992
 51
53.482821999999992
  0
ARC
  5
75B
  8
_________1
 62
     7
 10
104.91439099999999
 20
180.60580200000001
 30
0.0
 40
14.378339
 50
54.517796999999987
 51
55.099032000000001
  0
ARC
  5
75C
  8
_________1
 62
     7
 10
111.02963800000001
 20
189.38377500000001
 30
0.0
 40
3.6802619999999999
 50
54.989610999999989
 51
57.340137000000013
  0
ARC
  5
75D
  8
_________1
 62
     7
 10
110.009092
 20
187.787588
 30
0.0
 40
5.5748119999999997
 50
57.362707999999998
 51
58.905323000000003
  0
ARC
  5
75E
  8
_________1
 62
     7
 10
109.845017
 20
187.353274
 30
0.0
 40
6.0320410000000004
 50
59.701354000000002
 51
61.078973000000012
  0
ARC
  5
75F
  8
_________1
 62
     7
 10
110.848731
 20
189.001048
 30
0.0
 40
4.1051789999999988
 50
62.218901000000002
 51
64.137123000000003
  0
ARC
  5
760
  8
_________1
 62
     7
 10
111.335706
 20
189.91423399999999
 30
0.0
 40
3.071288
 50
64.880571000000003
 51
67.257363999999995
  0
ARC
  5
761
  8
_________1
 62
     7
 10
111.66732399999999
 20
190.620059
 30
0.0
 40
2.2923770000000001
 50
68.081401999999997
 51
71.040671000000003
  0
ARC
  5
762
  8
_________1
 62
     7
 10
111.66189900000001
 20
190.49799999999999
 30
0.0
 40
2.4098229999999989
 50
71.861597000000003
 51
74.463441000000003
  0
ARC
  5
763
  8
_________1
 62
     7
 10
111.800258
 20
190.852532
 30
0.0
 40
2.031549
 50
75.544822999999994
 51
78.437069999999991
  0
LINE
  5
764
  8
_________1
 62
     7
 10
112.11
 20
192.85900000000001
 30
0.0
 11
112.20699999999999
 21
192.84299999999999
 31
0.0
  0
LINE
  5
765
  8
_________1
 62
     7
 10
112.015
 20
192.86699999999999
 30
0.0
 11
112.11
 21
192.85900000000001
 31
0.0
  0
LINE
  5
766
  8
_________1
 62
     7
 10
111.919
 20
192.869
 30
0.0
 11
112.015
 21
192.86699999999999
 31
0.0
  0
LINE
  5
767
  8
_________1
 62
     7
 10
111.824
 20
192.863
 30
0.0
 11
111.919
 21
192.869
 31
0.0
  0
LINE
  5
768
  8
_________1
 62
     7
 10
111.727
 20
192.851
 30
0.0
 11
111.824
 21
192.863
 31
0.0
  0
ARC
  5
769
  8
_________1
 62
     7
 10
111.918076
 20
191.59567100000001
 30
0.0
 40
1.269871999999999
 50
98.644051000000019
 51
103.30040700000001
  0
ARC
  5
76A
  8
_________1
 62
     7
 10
111.963661
 20
191.36035699999999
 30
0.0
 40
1.5093939999999999
 50
102.929405
 51
107.07320799999999
  0
ARC
  5
76B
  8
_________1
 62
     7
 10
112.09451300000001
 20
190.8824929999999
 30
0.0
 40
2.004672999999999
 50
106.638408
 51
110.020432
  0
ARC
  5
76C
  8
_________1
 62
     7
 10
112.147859
 20
190.75075899999999
 30
0.0
 40
2.146714999999999
 50
110.1545
 51
113.563115
  0
ARC
  5
76D
  8
_________1
 62
     7
 10
112.241913
 20
190.50333999999989
 30
0.0
 40
2.4111370000000001
 50
113.26140599999999
 51
116.51069200000001
  0
ARC
  5
76E
  8
_________1
 62
     7
 10
112.647363
 20
189.661979
 30
0.0
 40
3.3450329999999999
 50
116.292519
 51
118.78166
  0
ARC
  5
76F
  8
_________1
 62
     7
 10
112.949781
 20
189.12634399999999
 30
0.0
 40
3.9601079999999991
 50
118.885305
 51
121.06045
  0
ARC
  5
770
  8
_________1
 62
     7
 10
112.916985
 20
189.12381400000001
 30
0.0
 40
3.945463999999999
 50
120.633523
 51
122.82176
  0
ARC
  5
771
  8
_________1
 62
     7
 10
113.346665
 20
188.40469899999999
 30
0.0
 40
4.7827650000000004
 50
122.4780149999999
 51
124.22715100000001
  0
ARC
  5
772
  8
_________1
 62
     7
 10
114.57551100000001
 20
186.52495400000001
 30
0.0
 40
7.0282809999999989
 50
123.890598
 51
125.00771899999999
  0
ARC
  5
773
  8
_________1
 62
     7
 10
117.128157
 20
182.9607649999999
 30
0.0
 40
11.412131
 50
125.239062
 51
125.872632
  0
LINE
  5
774
  8
_________1
 62
     7
 10
110.349
 20
192.14099999999999
 30
0.0
 11
110.44
 21
192.209
 31
0.0
  0
LINE
  5
775
  8
_________1
 62
     7
 10
110.26900000000001
 20
192.08000000000001
 30
0.0
 11
110.349
 21
192.14099999999999
 31
0.0
  0
ARC
  5
776
  8
_________1
 62
     7
 10
113.137305
 20
188.24240800000001
 30
0.0
 40
4.7914099999999991
 50
126.778791
 51
127.84583499999999
  0
ARC
  5
777
  8
_________1
 62
     7
 10
111.742453
 20
189.97882200000001
 30
0.0
 40
2.5646840000000002
 50
127.039171
 51
128.75582900000001
  0
ARC
  5
778
  8
_________1
 62
     7
 10
114.73147
 20
186.03513000000001
 30
0.0
 40
7.5124550000000001
 50
127.704295
 51
128.204139
  0
ARC
  5
779
  8
_________1
 62
     7
 10
111.291774
 20
190.35216700000001
 30
0.0
 40
1.993015999999999
 50
127.25492800000001
 51
128.81420700000001
  0
ARC
  5
77A
  8
_________1
 62
     7
 10
114.018154
 20
186.93878799999999
 30
0.0
 40
6.3615659999999998
 50
128.677763
 51
129.068343
  0
ARC
  5
77B
  8
_________1
 62
     7
 10
110.54328
 20
191.18513999999999
 30
0.0
 40
0.8749590000000002
 50
127.652283
 51
129.85094599999999
  0
LINE
  5
77C
  8
_________1
 62
     7
 10
109.96299999999999
 20
191.84200000000001
 30
0.0
 11
109.983
 21
191.857
 31
0.0
  0
LINE
  5
77D
  8
_________1
 62
     7
 10
109.952
 20
191.833
 30
0.0
 11
109.96299999999999
 21
191.84200000000001
 31
0.0
  0
LINE
  5
77E
  8
_________1
 62
     7
 10
109.94799999999999
 20
191.83099999999999
 30
0.0
 11
109.952
 21
191.833
 31
0.0
  0
LINE
  5
77F
  8
_________1
 62
     7
 10
43.713900000000002
 20
201.36000000000001
 30
0.0
 11
43.871000000000002
 21
201.35900000000001
 31
0.0
  0
LINE
  5
780
  8
_________1
 62
     7
 10
43.55749999999999
 20
201.36000000000001
 30
0.0
 11
43.713900000000002
 21
201.36000000000001
 31
0.0
  0
LINE
  5
781
  8
_________1
 62
     7
 10
43.403100000000002
 20
201.36000000000001
 30
0.0
 11
43.55749999999999
 21
201.36000000000001
 31
0.0
  0
LINE
  5
782
  8
_________1
 62
     7
 10
43.250900000000001
 20
201.36099999999999
 30
0.0
 11
43.403100000000002
 21
201.36000000000001
 31
0.0
  0
LINE
  5
783
  8
_________1
 62
     7
 10
43.101700000000001
 20
201.36199999999999
 30
0.0
 11
43.250900000000001
 21
201.36099999999999
 31
0.0
  0
LINE
  5
784
  8
_________1
 62
     7
 10
42.956699999999998
 20
201.363
 30
0.0
 11
43.101700000000001
 21
201.36199999999999
 31
0.0
  0
LINE
  5
785
  8
_________1
 62
     7
 10
42.816099999999992
 20
201.364
 30
0.0
 11
42.956699999999998
 21
201.363
 31
0.0
  0
LINE
  5
786
  8
_________1
 62
     7
 10
42.681399999999989
 20
201.36500000000001
 30
0.0
 11
42.816099999999992
 21
201.364
 31
0.0
  0
LINE
  5
787
  8
_________1
 62
     7
 10
42.552199999999999
 20
201.36699999999999
 30
0.0
 11
42.681399999999989
 21
201.36500000000001
 31
0.0
  0
LINE
  5
788
  8
_________1
 62
     7
 10
42.429900000000004
 20
201.369
 30
0.0
 11
42.552199999999999
 21
201.36699999999999
 31
0.0
  0
LINE
  5
789
  8
_________1
 62
     7
 10
42.314799999999998
 20
201.37100000000001
 30
0.0
 11
42.429900000000004
 21
201.369
 31
0.0
  0
LINE
  5
78A
  8
_________1
 62
     7
 10
42.207999999999991
 20
201.37299999999999
 30
0.0
 11
42.314799999999998
 21
201.37100000000001
 31
0.0
  0
LINE
  5
78B
  8
_________1
 62
     7
 10
42.10949999999999
 20
201.375
 30
0.0
 11
42.207999999999991
 21
201.37299999999999
 31
0.0
  0
LINE
  5
78C
  8
_________1
 62
     7
 10
42.0199
 20
201.37700000000001
 30
0.0
 11
42.10949999999999
 21
201.375
 31
0.0
  0
LINE
  5
78D
  8
_________1
 62
     7
 10
41.939700000000002
 20
201.37899999999999
 30
0.0
 11
42.0199
 21
201.37700000000001
 31
0.0
  0
LINE
  5
78E
  8
_________1
 62
     7
 10
41.869399999999992
 20
201.38200000000001
 30
0.0
 11
41.939700000000002
 21
201.37899999999999
 31
0.0
  0
LINE
  5
78F
  8
_________1
 62
     7
 10
41.809399999999989
 20
201.38399999999999
 30
0.0
 11
41.869399999999992
 21
201.38200000000001
 31
0.0
  0
LINE
  5
790
  8
_________1
 62
     7
 10
41.759799999999998
 20
201.387
 30
0.0
 11
41.809399999999989
 21
201.38399999999999
 31
0.0
  0
LINE
  5
791
  8
_________1
 62
     7
 10
41.720899999999993
 20
201.38999999999999
 30
0.0
 11
41.759799999999998
 21
201.387
 31
0.0
  0
LINE
  5
792
  8
_________1
 62
     7
 10
41.692999999999998
 20
201.392
 30
0.0
 11
41.720899999999993
 21
201.38999999999999
 31
0.0
  0
LINE
  5
793
  8
_________1
 62
     7
 10
41.676099999999991
 20
201.39500000000001
 30
0.0
 11
41.692999999999998
 21
201.392
 31
0.0
  0
LINE
  5
794
  8
_________1
 62
     7
 10
41.670900000000003
 20
201.39699999999999
 30
0.0
 11
41.676099999999991
 21
201.39500000000001
 31
0.0
  0
ARC
  5
795
  8
_________1
 62
     7
 10
44.036777999999998
 20
303.15093899999999
 30
0.0
 40
80.114219999999989
 50
269.881192
 51
270.00093600000002
  0
ARC
  5
796
  8
_________1
 62
     7
 10
44.203530000000001
 20
302.49529999999999
 30
0.0
 40
79.458753000000002
 50
269.8807030000001
 51
270.00093800000002
  0
LINE
  5
797
  8
_________1
 62
     7
 10
44.369500000000002
 20
223.036
 30
0.0
 11
44.204799999999999
 21
223.03700000000001
 31
0.0
  0
LINE
  5
798
  8
_________1
 62
     7
 10
44.5321
 20
223.036
 30
0.0
 11
44.369500000000002
 21
223.036
 31
0.0
  0
LINE
  5
799
  8
_________1
 62
     7
 10
44.691600000000001
 20
223.035
 30
0.0
 11
44.5321
 21
223.036
 31
0.0
  0
LINE
  5
79A
  8
_________1
 62
     7
 10
44.846600000000002
 20
223.03299999999999
 30
0.0
 11
44.691600000000001
 21
223.03399999999999
 31
0.0
  0
ARC
  5
79B
  8
_________1
 62
     7
 10
44.402090000000001
 20
157.958395
 30
0.0
 40
65.076397999999983
 50
89.475727000000006
 51
89.608585999999988
  0
LINE
  5
79C
  8
_________1
 62
     7
 10
45.142600000000002
 20
223.03100000000001
 30
0.0
 11
44.997500000000002
 21
223.03200000000001
 31
0.0
  0
LINE
  5
79D
  8
_________1
 62
     7
 10
45.281399999999991
 20
223.029
 30
0.0
 11
45.142600000000002
 21
223.03100000000001
 31
0.0
  0
ARC
  5
79E
  8
_________1
 62
     7
 10
47.821088000000003
 20
395.28735799999998
 30
0.0
 40
172.27711099999999
 50
269.15533700000009
 51
269.19922500000001
  0
ARC
  5
79F
  8
_________1
 62
     7
 10
46.965253999999987
 20
321.041876
 30
0.0
 40
98.02708299999999
 50
269.09311000000002
 51
269.16601200000002
  0
LINE
  5
7A0
  8
_________1
 62
     7
 10
45.654200000000003
 20
223.023
 30
0.0
 11
45.5381
 21
223.02500000000001
 31
0.0
  0
LINE
  5
7A1
  8
_________1
 62
     7
 10
45.762
 20
223.02099999999999
 30
0.0
 11
45.654200000000003
 21
223.023
 31
0.0
  0
ARC
  5
7A2
  8
_________1
 62
     7
 10
45.486041999999991
 20
209.73160300000001
 30
0.0
 40
13.292134000000001
 50
88.385503999999997
 51
88.810348000000005
  0
ARC
  5
7A3
  8
_________1
 62
     7
 10
45.597273999999992
 20
211.72629900000001
 30
0.0
 40
11.29523
 50
88.215145999999976
 51
88.664436000000009
  0
LINE
  5
7A4
  8
_________1
 62
     7
 10
46.028299999999987
 20
223.01400000000001
 30
0.0
 11
45.949100000000001
 21
223.01599999999999
 31
0.0
  0
ARC
  5
7A5
  8
_________1
 62
     7
 10
45.860394999999997
 20
218.049848
 30
0.0
 40
4.9664440000000001
 50
87.282723000000004
 51
88.066349000000002
  0
ARC
  5
7A6
  8
_________1
 62
     7
 10
46.033687999999998
 20
221.11138
 30
0.0
 40
1.900345999999999
 50
86.389029000000008
 51
88.125729000000007
  0
LINE
  5
7A7
  8
_________1
 62
     7
 10
46.153399999999991
 20
223.00800000000001
 30
0.0
 11
46.1995
 21
223.005
 31
0.0
  0
ARC
  5
7A8
  8
_________1
 62
     7
 10
46.188029
 20
222.66023200000001
 30
0.0
 40
0.345157
 50
82.289929999999998
 51
88.088879000000006
  0
LINE
  5
7A9
  8
_________1
 62
     7
 10
46.23429999999999
 20
223.00200000000001
 30
0.0
 11
46.25739999999999
 21
223.0
 31
0.0
  0
LINE
  5
7AA
  8
_________1
 62
     7
 10
46.269100000000002
 20
222.99700000000001
 30
0.0
 11
46.25739999999999
 21
223.0
 31
0.0
  0
LINE
  5
7AB
  8
_________1
 62
     7
 10
46.269499999999987
 20
222.995
 30
0.0
 11
46.269100000000002
 21
222.99700000000001
 31
0.0
  0
LINE
  5
7AC
  8
_________1
 62
     7
 10
43.703200000000002
 20
223.03700000000001
 30
0.0
 11
43.871000000000002
 21
223.03700000000001
 31
0.0
  0
LINE
  5
7AD
  8
_________1
 62
     7
 10
43.536499999999997
 20
223.03700000000001
 30
0.0
 11
43.703200000000002
 21
223.03700000000001
 31
0.0
  0
LINE
  5
7AE
  8
_________1
 62
     7
 10
43.3718
 20
223.036
 30
0.0
 11
43.536499999999997
 21
223.03700000000001
 31
0.0
  0
LINE
  5
7AF
  8
_________1
 62
     7
 10
43.209200000000003
 20
223.036
 30
0.0
 11
43.3718
 21
223.036
 31
0.0
  0
LINE
  5
7B0
  8
_________1
 62
     7
 10
43.049699999999987
 20
223.035
 30
0.0
 11
43.209200000000003
 21
223.036
 31
0.0
  0
LINE
  5
7B1
  8
_________1
 62
     7
 10
42.894599999999997
 20
223.03399999999999
 30
0.0
 11
43.049699999999987
 21
223.035
 31
0.0
  0
LINE
  5
7B2
  8
_________1
 62
     7
 10
42.743699999999997
 20
223.03200000000001
 30
0.0
 11
42.894599999999997
 21
223.03399999999999
 31
0.0
  0
LINE
  5
7B3
  8
_________1
 62
     7
 10
42.598700000000001
 20
223.03100000000001
 30
0.0
 11
42.743699999999997
 21
223.03200000000001
 31
0.0
  0
LINE
  5
7B4
  8
_________1
 62
     7
 10
42.45989999999999
 20
223.029
 30
0.0
 11
42.598700000000001
 21
223.03100000000001
 31
0.0
  0
LINE
  5
7B5
  8
_________1
 62
     7
 10
42.3279
 20
223.02699999999999
 30
0.0
 11
42.45989999999999
 21
223.029
 31
0.0
  0
LINE
  5
7B6
  8
_________1
 62
     7
 10
42.203200000000002
 20
223.02500000000001
 30
0.0
 11
42.3279
 21
223.02699999999999
 31
0.0
  0
LINE
  5
7B7
  8
_________1
 62
     7
 10
42.087099999999992
 20
223.023
 30
0.0
 11
42.203200000000002
 21
223.02500000000001
 31
0.0
  0
LINE
  5
7B8
  8
_________1
 62
     7
 10
41.979300000000002
 20
223.02099999999999
 30
0.0
 11
42.087099999999992
 21
223.023
 31
0.0
  0
LINE
  5
7B9
  8
_________1
 62
     7
 10
41.881100000000004
 20
223.01900000000001
 30
0.0
 11
41.979300000000002
 21
223.02099999999999
 31
0.0
  0
LINE
  5
7BA
  8
_________1
 62
     7
 10
41.792199999999987
 20
223.01599999999999
 30
0.0
 11
41.881100000000004
 21
223.01900000000001
 31
0.0
  0
LINE
  5
7BB
  8
_________1
 62
     7
 10
41.713299999999997
 20
223.01400000000001
 30
0.0
 11
41.792199999999987
 21
223.01599999999999
 31
0.0
  0
LINE
  5
7BC
  8
_________1
 62
     7
 10
41.645400000000002
 20
223.011
 30
0.0
 11
41.713299999999997
 21
223.01400000000001
 31
0.0
  0
LINE
  5
7BD
  8
_________1
 62
     7
 10
41.587899999999991
 20
223.00800000000001
 30
0.0
 11
41.645400000000002
 21
223.011
 31
0.0
  0
LINE
  5
7BE
  8
_________1
 62
     7
 10
41.542099999999991
 20
223.005
 30
0.0
 11
41.587899999999991
 21
223.00800000000001
 31
0.0
  0
LINE
  5
7BF
  8
_________1
 62
     7
 10
41.506899999999987
 20
223.00299999999999
 30
0.0
 11
41.542099999999991
 21
223.005
 31
0.0
  0
LINE
  5
7C0
  8
_________1
 62
     7
 10
41.483899999999998
 20
223.0
 30
0.0
 11
41.506899999999987
 21
223.00299999999999
 31
0.0
  0
LINE
  5
7C1
  8
_________1
 62
     7
 10
41.472099999999998
 20
222.99700000000001
 30
0.0
 11
41.483899999999998
 21
223.0
 31
0.0
  0
LINE
  5
7C2
  8
_________1
 62
     7
 10
41.471800000000002
 20
222.995
 30
0.0
 11
41.472099999999998
 21
222.99700000000001
 31
0.0
  0
LINE
  5
7C3
  8
_________1
 62
     7
 10
42.432299999999991
 20
223.03200000000001
 30
0.0
 11
42.552199999999999
 21
223.03
 31
0.0
  0
LINE
  5
7C4
  8
_________1
 62
     7
 10
42.298999999999992
 20
223.03399999999999
 30
0.0
 11
42.432299999999991
 21
223.03200000000001
 31
0.0
  0
LINE
  5
7C5
  8
_________1
 62
     7
 10
42.1736
 20
223.036
 30
0.0
 11
42.298999999999992
 21
223.03399999999999
 31
0.0
  0
LINE
  5
7C6
  8
_________1
 62
     7
 10
42.056800000000003
 20
223.03800000000001
 30
0.0
 11
42.1736
 21
223.036
 31
0.0
  0
LINE
  5
7C7
  8
_________1
 62
     7
 10
41.949300000000001
 20
223.03999999999999
 30
0.0
 11
42.056800000000003
 21
223.03800000000001
 31
0.0
  0
LINE
  5
7C8
  8
_________1
 62
     7
 10
41.851500000000001
 20
223.04300000000001
 30
0.0
 11
41.949300000000001
 21
223.03999999999999
 31
0.0
  0
LINE
  5
7C9
  8
_________1
 62
     7
 10
41.764000000000003
 20
223.04499999999999
 30
0.0
 11
41.851500000000001
 21
223.04300000000001
 31
0.0
  0
LINE
  5
7CA
  8
_________1
 62
     7
 10
41.6875
 20
223.048
 30
0.0
 11
41.764000000000003
 21
223.04499999999999
 31
0.0
  0
LINE
  5
7CB
  8
_________1
 62
     7
 10
41.622
 20
223.05099999999999
 30
0.0
 11
41.6875
 21
223.048
 31
0.0
  0
LINE
  5
7CC
  8
_________1
 62
     7
 10
41.567599999999999
 20
223.054
 30
0.0
 11
41.622
 21
223.05099999999999
 31
0.0
  0
LINE
  5
7CD
  8
_________1
 62
     7
 10
41.525500000000001
 20
223.05600000000001
 30
0.0
 11
41.567599999999999
 21
223.054
 31
0.0
  0
LINE
  5
7CE
  8
_________1
 62
     7
 10
41.494900000000001
 20
223.059
 30
0.0
 11
41.525500000000001
 21
223.05600000000001
 31
0.0
  0
LINE
  5
7CF
  8
_________1
 62
     7
 10
41.476599999999998
 20
223.06200000000001
 30
0.0
 11
41.494900000000001
 21
223.059
 31
0.0
  0
LINE
  5
7D0
  8
_________1
 62
     7
 10
41.470399999999991
 20
223.065
 30
0.0
 11
41.476599999999998
 21
223.06200000000001
 31
0.0
  0
LINE
  5
7D1
  8
_________1
 62
     7
 10
46.264699999999998
 20
223.06200000000001
 30
0.0
 11
46.27089999999999
 21
223.065
 31
0.0
  0
LINE
  5
7D2
  8
_________1
 62
     7
 10
46.246400000000001
 20
223.059
 30
0.0
 11
46.264699999999998
 21
223.06200000000001
 31
0.0
  0
LINE
  5
7D3
  8
_________1
 62
     7
 10
46.215699999999998
 20
223.05600000000001
 30
0.0
 11
46.246400000000001
 21
223.059
 31
0.0
  0
LINE
  5
7D4
  8
_________1
 62
     7
 10
46.173699999999997
 20
223.054
 30
0.0
 11
46.215699999999998
 21
223.05600000000001
 31
0.0
  0
LINE
  5
7D5
  8
_________1
 62
     7
 10
46.119300000000003
 20
223.05099999999999
 30
0.0
 11
46.173699999999997
 21
223.054
 31
0.0
  0
LINE
  5
7D6
  8
_________1
 62
     7
 10
46.053800000000003
 20
223.048
 30
0.0
 11
46.119300000000003
 21
223.05099999999999
 31
0.0
  0
LINE
  5
7D7
  8
_________1
 62
     7
 10
45.9773
 20
223.04499999999999
 30
0.0
 11
46.053800000000003
 21
223.048
 31
0.0
  0
LINE
  5
7D8
  8
_________1
 62
     7
 10
45.889800000000001
 20
223.04300000000001
 30
0.0
 11
45.9773
 21
223.04499999999999
 31
0.0
  0
LINE
  5
7D9
  8
_________1
 62
     7
 10
45.792000000000002
 20
223.03999999999999
 30
0.0
 11
45.889800000000001
 21
223.04300000000001
 31
0.0
  0
LINE
  5
7DA
  8
_________1
 62
     7
 10
45.6845
 20
223.03800000000001
 30
0.0
 11
45.792000000000002
 21
223.03999999999999
 31
0.0
  0
LINE
  5
7DB
  8
_________1
 62
     7
 10
45.567700000000002
 20
223.036
 30
0.0
 11
45.6845
 21
223.03800000000001
 31
0.0
  0
LINE
  5
7DC
  8
_________1
 62
     7
 10
45.442300000000003
 20
223.03399999999999
 30
0.0
 11
45.567700000000002
 21
223.036
 31
0.0
  0
LINE
  5
7DD
  8
_________1
 62
     7
 10
45.30899999999999
 20
223.03200000000001
 30
0.0
 11
45.442300000000003
 21
223.03399999999999
 31
0.0
  0
LINE
  5
7DE
  8
_________1
 62
     7
 10
45.189100000000003
 20
223.03
 30
0.0
 11
45.30899999999999
 21
223.03200000000001
 31
0.0
  0
LINE
  5
7DF
  8
_________1
 62
     7
 10
46.06519999999999
 20
201.39500000000001
 30
0.0
 11
46.070300000000003
 21
201.39699999999999
 31
0.0
  0
LINE
  5
7E0
  8
_________1
 62
     7
 10
46.04829999999999
 20
201.392
 30
0.0
 11
46.06519999999999
 21
201.39500000000001
 31
0.0
  0
LINE
  5
7E1
  8
_________1
 62
     7
 10
46.020400000000002
 20
201.38999999999999
 30
0.0
 11
46.04829999999999
 21
201.392
 31
0.0
  0
LINE
  5
7E2
  8
_________1
 62
     7
 10
45.98149999999999
 20
201.387
 30
0.0
 11
46.020400000000002
 21
201.38999999999999
 31
0.0
  0
LINE
  5
7E3
  8
_________1
 62
     7
 10
45.931899999999992
 20
201.38399999999999
 30
0.0
 11
45.98149999999999
 21
201.387
 31
0.0
  0
LINE
  5
7E4
  8
_________1
 62
     7
 10
45.871899999999989
 20
201.38200000000001
 30
0.0
 11
45.931899999999992
 21
201.38399999999999
 31
0.0
  0
LINE
  5
7E5
  8
_________1
 62
     7
 10
45.801600000000001
 20
201.37899999999999
 30
0.0
 11
45.871899999999989
 21
201.38200000000001
 31
0.0
  0
LINE
  5
7E6
  8
_________1
 62
     7
 10
45.721699999999991
 20
201.37700000000001
 30
0.0
 11
45.801600000000001
 21
201.37899999999999
 31
0.0
  0
LINE
  5
7E7
  8
_________1
 62
     7
 10
45.631799999999998
 20
201.375
 30
0.0
 11
45.721699999999991
 21
201.37700000000001
 31
0.0
  0
LINE
  5
7E8
  8
_________1
 62
     7
 10
45.5336
 20
201.37299999999999
 30
0.0
 11
45.631799999999998
 21
201.375
 31
0.0
  0
LINE
  5
7E9
  8
_________1
 62
     7
 10
45.426799999999993
 20
201.37100000000001
 30
0.0
 11
45.5336
 21
201.37299999999999
 31
0.0
  0
LINE
  5
7EA
  8
_________1
 62
     7
 10
45.311399999999992
 20
201.369
 30
0.0
 11
45.426799999999993
 21
201.37100000000001
 31
0.0
  0
LINE
  5
7EB
  8
_________1
 62
     7
 10
45.189100000000003
 20
201.36699999999999
 30
0.0
 11
45.311399999999992
 21
201.369
 31
0.0
  0
LINE
  5
7EC
  8
_________1
 62
     7
 10
45.059899999999992
 20
201.36500000000001
 30
0.0
 11
45.189100000000003
 21
201.36699999999999
 31
0.0
  0
LINE
  5
7ED
  8
_________1
 62
     7
 10
44.92519999999999
 20
201.364
 30
0.0
 11
45.059899999999992
 21
201.36500000000001
 31
0.0
  0
LINE
  5
7EE
  8
_________1
 62
     7
 10
44.784599999999998
 20
201.363
 30
0.0
 11
44.92519999999999
 21
201.364
 31
0.0
  0
LINE
  5
7EF
  8
_________1
 62
     7
 10
44.639600000000002
 20
201.36199999999999
 30
0.0
 11
44.784599999999998
 21
201.363
 31
0.0
  0
LINE
  5
7F0
  8
_________1
 62
     7
 10
44.490400000000001
 20
201.36099999999999
 30
0.0
 11
44.639600000000002
 21
201.36199999999999
 31
0.0
  0
LINE
  5
7F1
  8
_________1
 62
     7
 10
44.338099999999997
 20
201.36000000000001
 30
0.0
 11
44.490400000000001
 21
201.36099999999999
 31
0.0
  0
LINE
  5
7F2
  8
_________1
 62
     7
 10
44.183799999999991
 20
201.36000000000001
 30
0.0
 11
44.338099999999997
 21
201.36000000000001
 31
0.0
  0
LINE
  5
7F3
  8
_________1
 62
     7
 10
44.028100000000002
 20
201.36000000000001
 30
0.0
 11
44.183799999999991
 21
201.36000000000001
 31
0.0
  0
LINE
  5
7F4
  8
_________1
 62
     7
 10
43.871000000000002
 20
201.35900000000001
 30
0.0
 11
44.028100000000002
 21
201.36000000000001
 31
0.0
  0
LINE
  5
7F5
  8
_________1
 62
     7
 10
44.041899999999991
 20
223.107
 30
0.0
 11
43.871000000000002
 21
223.107
 31
0.0
  0
LINE
  5
7F6
  8
_________1
 62
     7
 10
44.212400000000002
 20
223.107
 30
0.0
 11
44.041899999999991
 21
223.107
 31
0.0
  0
LINE
  5
7F7
  8
_________1
 62
     7
 10
44.38089999999999
 20
223.10599999999999
 30
0.0
 11
44.212400000000002
 21
223.107
 31
0.0
  0
LINE
  5
7F8
  8
_________1
 62
     7
 10
44.546599999999991
 20
223.10599999999999
 30
0.0
 11
44.38089999999999
 21
223.10599999999999
 31
0.0
  0
LINE
  5
7F9
  8
_________1
 62
     7
 10
44.709499999999998
 20
223.10499999999999
 30
0.0
 11
44.546599999999991
 21
223.10599999999999
 31
0.0
  0
LINE
  5
7FA
  8
_________1
 62
     7
 10
44.868000000000002
 20
223.10300000000001
 30
0.0
 11
44.709499999999998
 21
223.10499999999999
 31
0.0
  0
LINE
  5
7FB
  8
_________1
 62
     7
 10
44.867699999999992
 20
223.10300000000001
 30
0.0
 11
45.020600000000002
 21
223.102
 31
0.0
  0
LINE
  5
7FC
  8
_________1
 62
     7
 10
45.168399999999998
 20
223.101
 30
0.0
 11
45.020600000000002
 21
223.102
 31
0.0
  0
LINE
  5
7FD
  8
_________1
 62
     7
 10
45.30899999999999
 20
223.09899999999999
 30
0.0
 11
45.168399999999998
 21
223.101
 31
0.0
  0
ARC
  5
7FE
  8
_________1
 62
     7
 10
47.586277000000003
 20
378.646095
 30
0.0
 40
155.56420499999999
 50
269.16122899999999
 51
269.21033899999998
  0
LINE
  5
7FF
  8
_________1
 62
     7
 10
45.567700000000002
 20
223.095
 30
0.0
 11
45.442300000000003
 21
223.09700000000001
 31
0.0
  0
LINE
  5
800
  8
_________1
 62
     7
 10
45.6845
 20
223.09299999999999
 30
0.0
 11
45.567700000000002
 21
223.095
 31
0.0
  0
ARC
  5
801
  8
_________1
 62
     7
 10
45.373559999999991
 20
206.837084
 30
0.0
 40
16.258420000000001
 50
88.525278999999998
 51
88.904168999999996
  0
ARC
  5
802
  8
_________1
 62
     7
 10
45.526666999999989
 20
210.339913
 30
0.0
 40
12.752966000000001
 50
88.368200999999999
 51
88.807911000000004
  0
LINE
  5
803
  8
_________1
 62
     7
 10
45.889800000000001
 20
223.08799999999999
 30
0.0
 11
45.9773
 21
223.08500000000001
 31
0.0
  0
ARC
  5
804
  8
_________1
 62
     7
 10
45.831546000000003
 20
217.97707399999999
 30
0.0
 40
5.1101299999999998
 50
87.507125000000002
 51
88.365216000000004
  0
ARC
  5
805
  8
_________1
 62
     7
 10
45.905633000000002
 20
218.784468
 30
0.0
 40
4.3004519999999991
 50
87.152519999999996
 51
88.025400999999988
  0
ARC
  5
806
  8
_________1
 62
     7
 10
45.960374000000002
 20
219.402559
 30
0.0
 40
3.680483999999999
 50
86.677176000000017
 51
87.525650999999996
  0
ARC
  5
807
  8
_________1
 62
     7
 10
45.810897999999987
 20
217.56647599999999
 30
0.0
 40
5.522308999999999
 50
85.795943000000008
 51
86.233080999999999
  0
ARC
  5
808
  8
_________1
 62
     7
 10
46.193720999999996
 20
222.68147500000001
 30
0.0
 40
0.393068
 50
82.299029000000004
 51
86.789908999999994
  0
LINE
  5
809
  8
_________1
 62
     7
 10
46.246400000000001
 20
223.071
 30
0.0
 11
46.264699999999998
 21
223.06800000000001
 31
0.0
  0
LINE
  5
80A
  8
_________1
 62
     7
 10
46.27089999999999
 20
223.065
 30
0.0
 11
46.264699999999998
 21
223.06800000000001
 31
0.0
  0
LINE
  5
80B
  8
_________1
 62
     7
 10
41.472099999999998
 20
201.59899999999999
 30
0.0
 11
41.471800000000002
 21
201.59800000000001
 31
0.0
  0
LINE
  5
80C
  8
_________1
 62
     7
 10
41.483899999999998
 20
201.602
 30
0.0
 11
41.472099999999998
 21
201.59899999999999
 31
0.0
  0
LINE
  5
80D
  8
_________1
 62
     7
 10
41.483899999999998
 20
201.602
 30
0.0
 11
41.506899999999987
 21
201.60499999999999
 31
0.0
  0
ARC
  5
80E
  8
_________1
 62
     7
 10
41.552516999999987
 20
201.271332
 30
0.0
 40
0.336414
 50
91.835680999999994
 51
97.785469999999975
  0
LINE
  5
80F
  8
_________1
 62
     7
 10
41.541699999999992
 20
201.608
 30
0.0
 11
41.587899999999991
 21
201.61000000000001
 31
0.0
  0
ARC
  5
810
  8
_________1
 62
     7
 10
48.019877000000001
 20
67.944811000000001
 30
0.0
 40
133.82018199999999
 50
92.73026999999999
 51
92.754931999999997
  0
ARC
  5
811
  8
_________1
 62
     7
 10
38.517775
 20
279.46881100000002
 30
0.0
 40
77.918524000000005
 50
272.30049100000002
 51
272.350438
  0
ARC
  5
812
  8
_________1
 62
     7
 10
42.217204999999993
 20
186.42286299999989
 30
0.0
 40
15.201333
 50
91.602094999999977
 51
91.89959300000001
  0
ARC
  5
813
  8
_________1
 62
     7
 10
41.26234199999999
 20
221.293012
 30
0.0
 40
19.681892000000001
 50
271.542663
 51
271.80051900000001
  0
LINE
  5
814
  8
_________1
 62
     7
 10
41.88069999999999
 20
201.62100000000001
 30
0.0
 11
41.979300000000002
 21
201.62299999999999
 31
0.0
  0
LINE
  5
815
  8
_________1
 62
     7
 10
42.087099999999992
 20
201.626
 30
0.0
 11
41.979300000000002
 21
201.624
 31
0.0
  0
ARC
  5
816
  8
_________1
 62
     7
 10
42.682909000000002
 20
171.342635
 30
0.0
 40
30.288713000000001
 50
90.906813999999983
 51
91.127121999999986
  0
ARC
  5
817
  8
_________1
 62
     7
 10
44.466760000000001
 20
57.161039000000002
 30
0.0
 40
144.48424199999999
 50
90.848187999999993
 51
90.897512000000006
  0
LINE
  5
818
  8
_________1
 62
     7
 10
42.45989999999999
 20
201.63200000000001
 30
0.0
 11
42.3279
 21
201.63
 31
0.0
  0
LINE
  5
819
  8
_________1
 62
     7
 10
42.598700000000001
 20
201.63300000000001
 30
0.0
 11
42.45989999999999
 21
201.63200000000001
 31
0.0
  0
LINE
  5
81A
  8
_________1
 62
     7
 10
42.743699999999997
 20
201.63499999999999
 30
0.0
 11
42.598700000000001
 21
201.63300000000001
 31
0.0
  0
LINE
  5
81B
  8
_________1
 62
     7
 10
42.894599999999997
 20
201.636
 30
0.0
 11
42.743699999999997
 21
201.63499999999999
 31
0.0
  0
ARC
  5
81C
  8
_________1
 62
     7
 10
42.437907000000003
 20
270.325107
 30
0.0
 40
68.690974999999995
 50
270.38097699999997
 51
270.51029299999999
  0
LINE
  5
81D
  8
_________1
 62
     7
 10
43.049699999999987
 20
201.637
 30
0.0
 11
43.209200000000003
 21
201.63800000000001
 31
0.0
  0
LINE
  5
81E
  8
_________1
 62
     7
 10
43.3718
 20
201.63900000000001
 30
0.0
 11
43.209200000000003
 21
201.63800000000001
 31
0.0
  0
LINE
  5
81F
  8
_________1
 62
     7
 10
43.536499999999997
 20
201.63900000000001
 30
0.0
 11
43.3718
 21
201.63900000000001
 31
0.0
  0
LINE
  5
820
  8
_________1
 62
     7
 10
43.536799999999992
 20
201.63900000000001
 30
0.0
 11
43.703600000000002
 21
201.63900000000001
 31
0.0
  0
LINE
  5
821
  8
_________1
 62
     7
 10
43.871000000000002
 20
201.63999999999999
 30
0.0
 11
43.703200000000002
 21
201.63999999999999
 31
0.0
  0
LINE
  5
822
  8
_________1
 62
     7
 10
41.6706
 20
201.398
 30
0.0
 11
41.670900000000003
 21
201.39699999999999
 31
0.0
  0
LINE
  5
823
  8
_________1
 62
     7
 10
41.676099999999991
 20
201.40100000000001
 30
0.0
 11
41.6706
 21
201.398
 31
0.0
  0
LINE
  5
824
  8
_________1
 62
     7
 10
41.692999999999998
 20
201.40299999999999
 30
0.0
 11
41.676099999999991
 21
201.40100000000001
 31
0.0
  0
ARC
  5
825
  8
_________1
 62
     7
 10
41.743782999999993
 20
201.00625400000001
 30
0.0
 40
0.399919
 50
93.282122999999999
 51
97.298017999999999
  0
ARC
  5
826
  8
_________1
 62
     7
 10
41.92644099999999
 20
198.77839
 30
0.0
 40
2.6351559999999998
 50
93.625286000000017
 51
94.473856999999995
  0
ARC
  5
827
  8
_________1
 62
     7
 10
41.920290000000001
 20
198.80472700000001
 30
0.0
 40
2.6084869999999989
 50
92.435862000000014
 51
93.527040000000014
  0
ARC
  5
828
  8
_________1
 62
     7
 10
41.993868999999997
 20
197.572385
 30
0.0
 40
3.8429009999999999
 50
91.856507999999991
 51
92.750992000000011
  0
LINE
  5
829
  8
_________1
 62
     7
 10
41.939700000000002
 20
201.416
 30
0.0
 11
41.869399999999992
 21
201.41300000000001
 31
0.0
  0
ARC
  5
82A
  8
_________1
 62
     7
 10
46.985618000000002
 20
21.977191000000001
 30
0.0
 40
179.50959599999999
 50
91.585140000000024
 51
91.610770999999986
  0
ARC
  5
82B
  8
_________1
 62
     7
 10
42.551195999999997
 20
183.349795
 30
0.0
 40
18.076105999999999
 50
91.400184999999993
 51
91.684207000000001
  0
LINE
  5
82C
  8
_________1
 62
     7
 10
42.207999999999991
 20
201.423
 30
0.0
 11
42.10949999999999
 21
201.42099999999999
 31
0.0
  0
LINE
  5
82D
  8
_________1
 62
     7
 10
42.314799999999998
 20
201.42500000000001
 30
0.0
 11
42.207999999999991
 21
201.423
 31
0.0
  0
ARC
  5
82E
  8
_________1
 62
     7
 10
41.579979999999999
 20
254.35638399999999
 30
0.0
 40
52.936847999999998
 50
270.795389
 51
270.91994499999998
  0
ARC
  5
82F
  8
_________1
 62
     7
 10
41.633626999999997
 20
262.303742
 30
0.0
 40
60.882589000000003
 50
270.74938500000002
 51
270.8644930000001
  0
ARC
  5
830
  8
_________1
 62
     7
 10
41.683467999999998
 20
271.42803400000003
 30
0.0
 40
70.005341999999999
 50
270.71103499999998
 51
270.81678099999999
  0
LINE
  5
831
  8
_________1
 62
     7
 10
42.681399999999989
 20
201.43000000000001
 30
0.0
 11
42.816099999999992
 21
201.43100000000001
 31
0.0
  0
LINE
  5
832
  8
_________1
 62
     7
 10
42.816099999999992
 20
201.43100000000001
 30
0.0
 11
42.956699999999998
 21
201.43199999999999
 31
0.0
  0
LINE
  5
833
  8
_________1
 62
     7
 10
43.101700000000001
 20
201.434
 30
0.0
 11
42.956699999999998
 21
201.43299999999999
 31
0.0
  0
LINE
  5
834
  8
_________1
 62
     7
 10
43.250900000000001
 20
201.435
 30
0.0
 11
43.101700000000001
 21
201.434
 31
0.0
  0
LINE
  5
835
  8
_________1
 62
     7
 10
43.403100000000002
 20
201.435
 30
0.0
 11
43.250900000000001
 21
201.435
 31
0.0
  0
LINE
  5
836
  8
_________1
 62
     7
 10
43.55749999999999
 20
201.43600000000001
 30
0.0
 11
43.403100000000002
 21
201.435
 31
0.0
  0
LINE
  5
837
  8
_________1
 62
     7
 10
43.713900000000002
 20
201.43600000000001
 30
0.0
 11
43.55749999999999
 21
201.43600000000001
 31
0.0
  0
ARC
  5
838
  8
_________1
 62
     7
 10
43.869433000000001
 20
131.21181999999999
 30
0.0
 40
70.224013999999997
 50
89.999004999999997
 51
90.126900000000006
  0
ARC
  5
839
  8
_________1
 62
     7
 10
44.026522
 20
271.96379400000001
 30
0.0
 40
70.528131999999999
 50
269.87337400000001
 51
270.00099699999998
  0
LINE
  5
83A
  8
_________1
 62
     7
 10
44.183799999999991
 20
201.43600000000001
 30
0.0
 11
44.028100000000002
 21
201.43600000000001
 31
0.0
  0
LINE
  5
83B
  8
_________1
 62
     7
 10
44.338099999999997
 20
201.435
 30
0.0
 11
44.183799999999991
 21
201.43600000000001
 31
0.0
  0
LINE
  5
83C
  8
_________1
 62
     7
 10
44.490400000000001
 20
201.435
 30
0.0
 11
44.338099999999997
 21
201.435
 31
0.0
  0
LINE
  5
83D
  8
_________1
 62
     7
 10
44.639600000000002
 20
201.434
 30
0.0
 11
44.490400000000001
 21
201.435
 31
0.0
  0
LINE
  5
83E
  8
_________1
 62
     7
 10
44.784599999999998
 20
201.43299999999999
 30
0.0
 11
44.639600000000002
 21
201.434
 31
0.0
  0
LINE
  5
83F
  8
_________1
 62
     7
 10
44.784599999999998
 20
201.43199999999999
 30
0.0
 11
44.92519999999999
 21
201.43100000000001
 31
0.0
  0
LINE
  5
840
  8
_________1
 62
     7
 10
44.92519999999999
 20
201.43100000000001
 30
0.0
 11
45.059899999999992
 21
201.43000000000001
 31
0.0
  0
ARC
  5
841
  8
_________1
 62
     7
 10
44.191169000000002
 20
131.42985400000001
 30
0.0
 40
70.005341999999999
 50
89.183218999999994
 51
89.288965000000005
  0
ARC
  5
842
  8
_________1
 62
     7
 10
44.392820999999998
 20
140.550701
 30
0.0
 40
60.882589000000003
 50
89.135507000000004
 51
89.250614999999996
  0
ARC
  5
843
  8
_________1
 62
     7
 10
44.551909999999999
 20
146.84913700000001
 30
0.0
 40
54.582506999999993
 50
89.081932999999978
 51
89.202732999999995
  0
LINE
  5
844
  8
_________1
 62
     7
 10
45.5336
 20
201.423
 30
0.0
 11
45.426799999999993
 21
201.42500000000001
 31
0.0
  0
LINE
  5
845
  8
_________1
 62
     7
 10
45.5336
 20
201.423
 30
0.0
 11
45.632100000000001
 21
201.42099999999999
 31
0.0
  0
ARC
  5
846
  8
_________1
 62
     7
 10
45.367502999999999
 20
189.93965600000001
 30
0.0
 40
11.483889
 50
88.234251999999998
 51
88.68131600000001
  0
ARC
  5
847
  8
_________1
 62
     7
 10
45.590330999999992
 20
195.28146899999999
 30
0.0
 40
6.1380220000000003
 50
88.027228000000008
 51
88.776821999999996
  0
ARC
  5
848
  8
_________1
 62
     7
 10
45.699519999999993
 20
197.68141399999999
 30
0.0
 40
3.7358349999999989
 50
87.355165999999997
 51
88.433786999999995
  0
ARC
  5
849
  8
_________1
 62
     7
 10
45.703176999999997
 20
196.47285199999999
 30
0.0
 40
4.9432970000000003
 50
87.348546999999996
 51
88.043913000000003
  0
ARC
  5
84A
  8
_________1
 62
     7
 10
45.831732000000002
 20
199.01098500000001
 30
0.0
 40
2.4019590000000002
 50
86.426028000000002
 51
87.611031000000011
  0
ARC
  5
84B
  8
_________1
 62
     7
 10
45.834796999999988
 20
199.06028800000001
 30
0.0
 40
2.3525619999999989
 50
85.475156000000027
 51
86.425662000000003
  0
ARC
  5
84C
  8
_________1
 62
     7
 10
46.000973999999999
 20
201.04380499999999
 30
0.0
 40
0.362233
 50
82.492958999999985
 51
86.926860000000005
  0
LINE
  5
84D
  8
_________1
 62
     7
 10
46.06519999999999
 20
201.40100000000001
 30
0.0
 11
46.04829999999999
 21
201.40299999999999
 31
0.0
  0
LINE
  5
84E
  8
_________1
 62
     7
 10
46.070700000000002
 20
201.398
 30
0.0
 11
46.06519999999999
 21
201.40100000000001
 31
0.0
  0
LINE
  5
84F
  8
_________1
 62
     7
 10
46.070300000000003
 20
201.39699999999999
 30
0.0
 11
46.070700000000002
 21
201.398
 31
0.0
  0
LINE
  5
850
  8
_________1
 62
     7
 10
44.0381
 20
201.63999999999999
 30
0.0
 11
43.871000000000002
 21
201.63999999999999
 31
0.0
  0
LINE
  5
851
  8
_________1
 62
     7
 10
44.0381
 20
201.63900000000001
 30
0.0
 11
44.204799999999999
 21
201.63900000000001
 31
0.0
  0
LINE
  5
852
  8
_________1
 62
     7
 10
44.369500000000002
 20
201.63900000000001
 30
0.0
 11
44.204799999999999
 21
201.63900000000001
 31
0.0
  0
LINE
  5
853
  8
_________1
 62
     7
 10
44.5321
 20
201.63800000000001
 30
0.0
 11
44.369500000000002
 21
201.63900000000001
 31
0.0
  0
LINE
  5
854
  8
_________1
 62
     7
 10
44.5321
 20
201.63800000000001
 30
0.0
 11
44.691600000000001
 21
201.637
 31
0.0
  0
ARC
  5
855
  8
_________1
 62
     7
 10
44.23487999999999
 20
132.94740100000001
 30
0.0
 40
68.690974999999995
 50
89.489706999999996
 51
89.619022999999999
  0
LINE
  5
856
  8
_________1
 62
     7
 10
44.997500000000002
 20
201.63499999999999
 30
0.0
 11
44.846600000000002
 21
201.636
 31
0.0
  0
LINE
  5
857
  8
_________1
 62
     7
 10
45.142600000000002
 20
201.63300000000001
 30
0.0
 11
44.997500000000002
 21
201.63499999999999
 31
0.0
  0
LINE
  5
858
  8
_________1
 62
     7
 10
45.281399999999991
 20
201.63200000000001
 30
0.0
 11
45.142600000000002
 21
201.63300000000001
 31
0.0
  0
LINE
  5
859
  8
_________1
 62
     7
 10
45.413699999999992
 20
201.63
 30
0.0
 11
45.281399999999991
 21
201.63200000000001
 31
0.0
  0
ARC
  5
85A
  8
_________1
 62
     7
 10
47.676575999999997
 20
346.09596499999998
 30
0.0
 40
144.48424199999999
 50
269.10248799999999
 51
269.15181200000001
  0
LINE
  5
85B
  8
_________1
 62
     7
 10
45.537700000000001
 20
201.62799999999999
 30
0.0
 11
45.654200000000003
 21
201.625
 31
0.0
  0
LINE
  5
85C
  8
_________1
 62
     7
 10
45.762
 20
201.624
 30
0.0
 11
45.654200000000003
 21
201.626
 31
0.0
  0
ARC
  5
85D
  8
_________1
 62
     7
 10
45.486041999999991
 20
188.33398
 30
0.0
 40
13.292134000000001
 50
88.385503999999997
 51
88.810348000000005
  0
ARC
  5
85E
  8
_________1
 62
     7
 10
45.749992999999989
 20
196.31450000000001
 30
0.0
 40
5.3074890000000003
 50
87.850295999999986
 51
88.806522000000001
  0
ARC
  5
85F
  8
_________1
 62
     7
 10
45.731852000000003
 20
193.220135
 30
0.0
 40
8.4009270000000011
 50
87.979977000000005
 51
88.518294999999995
  0
ARC
  5
860
  8
_________1
 62
     7
 10
45.860394999999997
 20
196.65222499999999
 30
0.0
 40
4.9664440000000001
 50
87.282723000000004
 51
88.066349000000002
  0
ARC
  5
861
  8
_________1
 62
     7
 10
45.949388999999996
 20
197.95400100000001
 30
0.0
 40
3.6620140000000001
 50
86.806774999999988
 51
87.707982999999999
  0
LINE
  5
862
  8
_________1
 62
     7
 10
46.153399999999991
 20
201.61000000000001
 30
0.0
 11
46.1995
 21
201.608
 31
0.0
  0
ARC
  5
863
  8
_________1
 62
     7
 10
46.194139999999997
 20
201.33521999999999
 30
0.0
 40
0.272407
 50
81.514630999999994
 51
88.864178000000024
  0
LINE
  5
864
  8
_________1
 62
     7
 10
46.23429999999999
 20
201.60499999999999
 30
0.0
 11
46.25739999999999
 21
201.602
 31
0.0
  0
LINE
  5
865
  8
_________1
 62
     7
 10
46.269100000000002
 20
201.59899999999999
 30
0.0
 11
46.25739999999999
 21
201.602
 31
0.0
  0
LINE
  5
866
  8
_________1
 62
     7
 10
46.269499999999987
 20
201.59800000000001
 30
0.0
 11
46.269100000000002
 21
201.59899999999999
 31
0.0
  0
LINE
  5
867
  8
_________1
 62
     7
 10
62.471200000000003
 20
248.10300000000001
 30
0.0
 11
62.499400000000001
 21
248.10400000000001
 31
0.0
  0
LINE
  5
868
  8
_________1
 62
     7
 10
62.499400000000001
 20
248.10400000000001
 30
0.0
 11
62.527000000000001
 21
248.10599999999999
 31
0.0
  0
ARC
  5
869
  8
_________1
 62
     7
 10
62.433813000000001
 20
248.801501
 30
0.0
 40
0.701225
 50
277.63535899999999
 51
279.85698400000001
  0
ARC
  5
86A
  8
_________1
 62
     7
 10
62.473351999999998
 20
248.50704099999999
 30
0.0
 40
0.404505
 50
281.47954299999998
 51
285.09020700000002
  0
ARC
  5
86B
  8
_________1
 62
     7
 10
62.516199999999991
 20
248.36605299999999
 30
0.0
 40
0.257266
 50
284.050837
 51
289.502207
  0
ARC
  5
86C
  8
_________1
 62
     7
 10
62.428046999999999
 20
248.56343200000001
 30
0.0
 40
0.4730640000000001
 50
291.58617600000002
 51
294.213572
  0
ARC
  5
86D
  8
_________1
 62
     7
 10
62.472318999999992
 20
248.4196
 30
0.0
 40
0.324262
 50
297.50434200000012
 51
300.99332399999997
  0
LINE
  5
86E
  8
_________1
 62
     7
 10
62.653100000000002
 20
248.15199999999999
 30
0.0
 11
62.639299999999999
 21
248.142
 31
0.0
  0
LINE
  5
86F
  8
_________1
 62
     7
 10
62.662700000000001
 20
248.16300000000001
 30
0.0
 11
62.653100000000002
 21
248.15199999999999
 31
0.0
  0
LINE
  5
870
  8
_________1
 62
     7
 10
62.668900000000001
 20
248.17500000000001
 30
0.0
 11
62.662700000000001
 21
248.16300000000001
 31
0.0
  0
LINE
  5
871
  8
_________1
 62
     7
 10
62.671000000000006
 20
248.18700000000001
 30
0.0
 11
62.668900000000001
 21
248.17500000000001
 31
0.0
  0
ARC
  5
872
  8
_________1
 62
     7
 10
62.473892999999997
 20
251.65460300000001
 30
0.0
 40
0.374511
 50
86.091234999999998
 51
90.416182000000006
  0
ARC
  5
873
  8
_________1
 62
     7
 10
62.473345000000002
 20
251.57151500000001
 30
0.0
 40
0.4574720000000001
 50
83.266560999999996
 51
86.73213100000001
  0
ARC
  5
874
  8
_________1
 62
     7
 10
62.464796999999997
 20
251.551794
 30
0.0
 40
0.478099
 50
79.264448000000002
 51
82.526332999999994
  0
ARC
  5
875
  8
_________1
 62
     7
 10
62.509618000000003
 20
251.77152599999999
 30
0.0
 40
0.253883
 50
74.21986600000001
 51
79.965299000000002
  0
ARC
  5
876
  8
_________1
 62
     7
 10
62.514767999999997
 20
251.767403
 30
0.0
 40
0.256521
 50
70.098845999999995
 51
75.577299999999994
  0
ARC
  5
877
  8
_________1
 62
     7
 10
62.528202
 20
251.80582100000001
 30
0.0
 40
0.215826
 50
64.219699000000006
 51
69.980553
  0
ARC
  5
878
  8
_________1
 62
     7
 10
62.54313599999999
 20
251.836254
 30
0.0
 40
0.181926
 50
58.091986999999989
 51
64.286411999999999
  0
LINE
  5
879
  8
_________1
 62
     7
 10
62.653100000000002
 20
251.97999999999999
 30
0.0
 11
62.639299999999999
 21
251.99100000000001
 31
0.0
  0
LINE
  5
87A
  8
_________1
 62
     7
 10
62.662700000000001
 20
251.96899999999999
 30
0.0
 11
62.653100000000002
 21
251.97999999999999
 31
0.0
  0
LINE
  5
87B
  8
_________1
 62
     7
 10
62.668900000000001
 20
251.95699999999999
 30
0.0
 11
62.662700000000001
 21
251.96899999999999
 31
0.0
  0
LINE
  5
87C
  8
_________1
 62
     7
 10
62.671000000000006
 20
251.94499999999999
 30
0.0
 11
62.668900000000001
 21
251.95699999999999
 31
0.0
  0
LINE
  5
87D
  8
_________1
 62
     7
 10
41.476599999999998
 20
223.06800000000001
 30
0.0
 11
41.470399999999991
 21
223.065
 31
0.0
  0
LINE
  5
87E
  8
_________1
 62
     7
 10
41.476599999999998
 20
223.06800000000001
 30
0.0
 11
41.494900000000001
 21
223.071
 31
0.0
  0
ARC
  5
87F
  8
_________1
 62
     7
 10
41.54436299999999
 20
222.714944
 30
0.0
 40
0.359476
 50
93.000115000000008
 51
97.910907000000009
  0
ARC
  5
880
  8
_________1
 62
     7
 10
41.982271999999988
 20
216.82170400000001
 30
0.0
 40
6.2688819999999987
 50
93.792928999999987
 51
94.178006999999994
  0
ARC
  5
881
  8
_________1
 62
     7
 10
39.597246000000013
 20
262.52984199999997
 30
0.0
 40
39.502157000000011
 50
272.85906
 51
272.93811299999999
  0
ARC
  5
882
  8
_________1
 62
     7
 10
35.742564000000002
 20
363.49518699999999
 30
0.0
 40
140.538613
 50
272.39768500000002
 51
272.42439400000001
  0
LINE
  5
883
  8
_________1
 62
     7
 10
41.764000000000003
 20
223.08500000000001
 30
0.0
 11
41.6875
 21
223.08199999999999
 31
0.0
  0
ARC
  5
884
  8
_________1
 62
     7
 10
41.247360999999991
 20
242.06335899999999
 30
0.0
 40
18.985264999999998
 50
271.55922299999997
 51
271.82342299999999
  0
ARC
  5
885
  8
_________1
 62
     7
 10
42.247143999999992
 20
209.02010999999999
 30
0.0
 40
14.073161000000001
 50
91.212692999999987
 51
91.611155000000011
  0
ARC
  5
886
  8
_________1
 62
     7
 10
42.367669999999997
 20
206.83934500000001
 30
0.0
 40
16.256157999999999
 50
91.095785000000006
 51
91.474727999999999
  0
LINE
  5
887
  8
_________1
 62
     7
 10
42.1736
 20
223.095
 30
0.0
 11
42.056800000000003
 21
223.09299999999999
 31
0.0
  0
LINE
  5
888
  8
_________1
 62
     7
 10
42.298999999999992
 20
223.09700000000001
 30
0.0
 11
42.1736
 21
223.095
 31
0.0
  0
ARC
  5
889
  8
_________1
 62
     7
 10
44.576278000000002
 20
67.549128999999994
 30
0.0
 40
155.56420499999999
 50
90.789660999999981
 51
90.838770999999994
  0
LINE
  5
88A
  8
_________1
 62
     7
 10
42.573199999999993
 20
223.101
 30
0.0
 11
42.432299999999991
 21
223.09899999999999
 31
0.0
  0
LINE
  5
88B
  8
_________1
 62
     7
 10
42.720700000000001
 20
223.102
 30
0.0
 11
42.573199999999993
 21
223.101
 31
0.0
  0
LINE
  5
88C
  8
_________1
 62
     7
 10
42.720700000000001
 20
223.102
 30
0.0
 11
42.873600000000003
 21
223.10300000000001
 31
0.0
  0
LINE
  5
88D
  8
_________1
 62
     7
 10
43.031799999999997
 20
223.10499999999999
 30
0.0
 11
42.873600000000003
 21
223.10300000000001
 31
0.0
  0
LINE
  5
88E
  8
_________1
 62
     7
 10
43.19469999999999
 20
223.10599999999999
 30
0.0
 11
43.031799999999997
 21
223.10499999999999
 31
0.0
  0
LINE
  5
88F
  8
_________1
 62
     7
 10
43.360399999999991
 20
223.10599999999999
 30
0.0
 11
43.19469999999999
 21
223.10599999999999
 31
0.0
  0
LINE
  5
890
  8
_________1
 62
     7
 10
43.5289
 20
223.107
 30
0.0
 11
43.360399999999991
 21
223.10599999999999
 31
0.0
  0
LINE
  5
891
  8
_________1
 62
     7
 10
43.69939999999999
 20
223.107
 30
0.0
 11
43.5289
 21
223.107
 31
0.0
  0
LINE
  5
892
  8
_________1
 62
     7
 10
43.871000000000002
 20
223.107
 30
0.0
 11
43.69939999999999
 21
223.107
 31
0.0
  0
LINE
  5
893
  8
_________1
 62
     7
 10
45.066399999999987
 20
223.06700000000001
 30
0.0
 11
45.070599999999999
 21
223.065
 31
0.0
  0
LINE
  5
894
  8
_________1
 62
     7
 10
45.054400000000001
 20
223.06899999999999
 30
0.0
 11
45.066399999999987
 21
223.06700000000001
 31
0.0
  0
LINE
  5
895
  8
_________1
 62
     7
 10
45.034100000000002
 20
223.06999999999999
 30
0.0
 11
45.054400000000001
 21
223.06899999999999
 31
0.0
  0
LINE
  5
896
  8
_________1
 62
     7
 10
45.005800000000001
 20
223.072
 30
0.0
 11
45.034100000000002
 21
223.06999999999999
 31
0.0
  0
LINE
  5
897
  8
_________1
 62
     7
 10
44.9696
 20
223.07400000000001
 30
0.0
 11
45.005800000000001
 21
223.072
 31
0.0
  0
LINE
  5
898
  8
_________1
 62
     7
 10
44.925899999999992
 20
223.07499999999999
 30
0.0
 11
44.9696
 21
223.07400000000001
 31
0.0
  0
LINE
  5
899
  8
_________1
 62
     7
 10
44.875599999999999
 20
223.077
 30
0.0
 11
44.925899999999992
 21
223.07499999999999
 31
0.0
  0
LINE
  5
89A
  8
_________1
 62
     7
 10
44.817700000000002
 20
223.078
 30
0.0
 11
44.875599999999999
 21
223.077
 31
0.0
  0
LINE
  5
89B
  8
_________1
 62
     7
 10
44.753599999999999
 20
223.08000000000001
 30
0.0
 11
44.817700000000002
 21
223.078
 31
0.0
  0
LINE
  5
89C
  8
_________1
 62
     7
 10
44.683300000000003
 20
223.08099999999999
 30
0.0
 11
44.753599999999999
 21
223.08000000000001
 31
0.0
  0
LINE
  5
89D
  8
_________1
 62
     7
 10
44.607599999999991
 20
223.08199999999999
 30
0.0
 11
44.683300000000003
 21
223.08099999999999
 31
0.0
  0
LINE
  5
89E
  8
_________1
 62
     7
 10
44.526899999999991
 20
223.083
 30
0.0
 11
44.607599999999991
 21
223.08199999999999
 31
0.0
  0
LINE
  5
89F
  8
_________1
 62
     7
 10
44.4422
 20
223.084
 30
0.0
 11
44.526899999999991
 21
223.083
 31
0.0
  0
LINE
  5
8A0
  8
_________1
 62
     7
 10
44.352600000000002
 20
223.08500000000001
 30
0.0
 11
44.4422
 21
223.084
 31
0.0
  0
LINE
  5
8A1
  8
_________1
 62
     7
 10
44.260299999999987
 20
223.08500000000001
 30
0.0
 11
44.352600000000002
 21
223.08500000000001
 31
0.0
  0
LINE
  5
8A2
  8
_________1
 62
     7
 10
44.165199999999999
 20
223.08600000000001
 30
0.0
 11
44.260299999999987
 21
223.08500000000001
 31
0.0
  0
LINE
  5
8A3
  8
_________1
 62
     7
 10
44.067999999999998
 20
223.08600000000001
 30
0.0
 11
44.165199999999999
 21
223.08600000000001
 31
0.0
  0
LINE
  5
8A4
  8
_________1
 62
     7
 10
43.970199999999998
 20
223.08600000000001
 30
0.0
 11
44.067999999999998
 21
223.08600000000001
 31
0.0
  0
LINE
  5
8A5
  8
_________1
 62
     7
 10
43.871000000000002
 20
223.08600000000001
 30
0.0
 11
43.970199999999998
 21
223.08600000000001
 31
0.0
  0
LINE
  5
8A6
  8
_________1
 62
     7
 10
43.771399999999993
 20
223.08600000000001
 30
0.0
 11
43.871000000000002
 21
223.08600000000001
 31
0.0
  0
LINE
  5
8A7
  8
_________1
 62
     7
 10
43.673200000000001
 20
223.08600000000001
 30
0.0
 11
43.771399999999993
 21
223.08600000000001
 31
0.0
  0
LINE
  5
8A8
  8
_________1
 62
     7
 10
43.576099999999997
 20
223.08600000000001
 30
0.0
 11
43.673200000000001
 21
223.08600000000001
 31
0.0
  0
LINE
  5
8A9
  8
_________1
 62
     7
 10
43.481000000000002
 20
223.08500000000001
 30
0.0
 11
43.576099999999997
 21
223.08600000000001
 31
0.0
  0
LINE
  5
8AA
  8
_________1
 62
     7
 10
43.3887
 20
223.08500000000001
 30
0.0
 11
43.481000000000002
 21
223.08500000000001
 31
0.0
  0
LINE
  5
8AB
  8
_________1
 62
     7
 10
43.299799999999991
 20
223.084
 30
0.0
 11
43.3887
 21
223.08500000000001
 31
0.0
  0
LINE
  5
8AC
  8
_________1
 62
     7
 10
43.214300000000001
 20
223.083
 30
0.0
 11
43.299799999999991
 21
223.084
 31
0.0
  0
LINE
  5
8AD
  8
_________1
 62
     7
 10
43.13369999999999
 20
223.08199999999999
 30
0.0
 11
43.214300000000001
 21
223.083
 31
0.0
  0
LINE
  5
8AE
  8
_________1
 62
     7
 10
43.057899999999997
 20
223.08099999999999
 30
0.0
 11
43.13369999999999
 21
223.08199999999999
 31
0.0
  0
LINE
  5
8AF
  8
_________1
 62
     7
 10
42.987699999999997
 20
223.08000000000001
 30
0.0
 11
43.057899999999997
 21
223.08099999999999
 31
0.0
  0
LINE
  5
8B0
  8
_________1
 62
     7
 10
42.9236
 20
223.078
 30
0.0
 11
42.987699999999997
 21
223.08000000000001
 31
0.0
  0
LINE
  5
8B1
  8
_________1
 62
     7
 10
42.866399999999999
 20
223.077
 30
0.0
 11
42.9236
 21
223.078
 31
0.0
  0
LINE
  5
8B2
  8
_________1
 62
     7
 10
42.81539999999999
 20
223.07499999999999
 30
0.0
 11
42.866399999999999
 21
223.077
 31
0.0
  0
LINE
  5
8B3
  8
_________1
 62
     7
 10
42.771999999999991
 20
223.07400000000001
 30
0.0
 11
42.81539999999999
 21
223.07499999999999
 31
0.0
  0
LINE
  5
8B4
  8
_________1
 62
     7
 10
42.735500000000002
 20
223.072
 30
0.0
 11
42.771999999999991
 21
223.07400000000001
 31
0.0
  0
LINE
  5
8B5
  8
_________1
 62
     7
 10
42.707199999999993
 20
223.06999999999999
 30
0.0
 11
42.735500000000002
 21
223.072
 31
0.0
  0
LINE
  5
8B6
  8
_________1
 62
     7
 10
42.686900000000001
 20
223.06899999999999
 30
0.0
 11
42.707199999999993
 21
223.06999999999999
 31
0.0
  0
LINE
  5
8B7
  8
_________1
 62
     7
 10
42.674799999999991
 20
223.06700000000001
 30
0.0
 11
42.686900000000001
 21
223.06899999999999
 31
0.0
  0
LINE
  5
8B8
  8
_________1
 62
     7
 10
42.670699999999989
 20
223.065
 30
0.0
 11
42.674799999999991
 21
223.06700000000001
 31
0.0
  0
ARC
  5
8B9
  8
_________1
 62
     7
 10
153.5197
 20
166.081706
 30
0.0
 40
0.860993
 50
18.596062
 51
100.730282
  0
ARC
  5
8BA
  8
_________1
 62
     7
 10
153.634029
 20
166.11138600000001
 30
0.0
 40
0.8612209999999999
 50
108.595733
 51
190.72438600000001
  0
LINE
  5
8BB
  8
_________1
 62
     7
 10
152.78800000000001
 20
165.95099999999999
 30
0.0
 11
155.28299999999999
 21
156.41300000000001
 31
0.0
  0
ARC
  5
8BC
  8
_________1
 62
     7
 10
154.353298
 20
156.202034
 30
0.0
 40
0.953775
 50
307.33567900000008
 51
12.766814999999999
  0
LINE
  5
8BD
  8
_________1
 62
     7
 10
154.33600000000001
 20
166.35599999999999
 30
0.0
 11
156.83099999999999
 21
156.81800000000001
 31
0.0
  0
INSERT
  5
8BE
  8
_________1
 62
     7
  2
AIGNBL0201002C
 10
0.0
 20
0.0
 30
0.0
  0
LINE
  5
8BF
  8
_________1
 62
     7
 10
141.11099999999999
 20
156.89500000000001
 30
0.0
 11
138.43000000000001
 21
157.78999999999999
 31
0.0
  0
ARC
  5
8C0
  8
_________1
  6
AIGENLINE002
 62
     7
 10
143.030497
 20
156.18998400000001
 30
0.0
 40
0.8621870000000002
 50
75.531724999999994
 51
157.53593000000001
  0
ARC
  5
8C1
  8
_________1
  6
AIGENLINE002
 62
     7
 10
143.06781599999999
 20
156.30363700000001
 30
0.0
 40
0.861545
 50
165.49460500000001
 51
247.573069
  0
LINE
  5
8C2
  8
_________1
  6
AIGENLINE002
 62
     7
 10
142.739
 20
155.50800000000001
 30
0.0
 11
152.09
 21
152.38200000000001
 31
0.0
  0
LINE
  5
8C3
  8
_________1
  6
AIGENLINE002
 62
     7
 10
143.24600000000001
 20
157.024
 30
0.0
 11
152.59700000000001
 21
153.90000000000001
 31
0.0
  0
INSERT
  5
8C4
  8
_________1
 62
     7
  2
AIGNBL0201002D
 10
0.0
 20
0.0
 30
0.0
  0
INSERT
  5
8C5
  8
_________1
 62
     7
  2
AIGNBL0201002E
 10
0.0
 20
0.0
 30
0.0
  0
INSERT
  5
8C6
  8
_________1
 62
     7
  2
AIGNBL0201002F
 10
0.0
 20
0.0
 30
0.0
  0
LINE
  5
8C7
  8
_________1
 62
     7
 10
168.95099999999999
 20
164.18000000000001
 30
0.0
 11
170.755
 21
166.16999999999999
 31
0.0
  0
ARC
  5
8C8
  8
_________1
  6
AIGENLINE002
 62
     7
 10
167.623334
 20
162.624877
 30
0.0
 40
0.8623920000000001
 50
51.810611999999999
 51
133.79219900000001
  0
ARC
  5
8C9
  8
_________1
  6
AIGENLINE002
 62
     7
 10
167.53404900000001
 20
162.70611
 30
0.0
 40
0.862195
 50
321.76620800000001
 51
43.783496999999997
  0
LINE
  5
8CA
  8
_________1
  6
AIGENLINE002
 62
     7
 10
168.21199999999999
 20
162.173
 30
0.0
 11
161.59
 21
154.86799999999999
 31
0.0
  0
LINE
  5
8CB
  8
_________1
  6
AIGENLINE002
 62
     7
 10
167.02699999999999
 20
163.24700000000001
 30
0.0
 11
160.405
 21
155.94300000000001
 31
0.0
  0
ARC
  5
8CC
  8
_________1
 62
     7
 10
157.74438699999999
 20
157.088416
 30
0.0
 40
0.9522719999999999
 50
196.51136099999999
 51
262.053473
  0
INSERT
  5
8CD
  8
_________1
 62
     7
  2
AIGNBL02010030
 10
0.0
 20
0.0
 30
0.0
  0
ARC
  5
8CE
  8
_________1
 62
     7
 10
43.671267
 20
250.63972999999999
 30
0.0
 40
32.671731000000001
 50
270.349648
 51
308.30542200000002
  0
ARC
  5
8CF
  8
_________1
 62
     7
 10
44.050041999999991
 20
250.583416
 30
0.0
 40
32.615302
 50
231.6609950000001
 51
269.68485099999998
  0
ARC
  5
8D0
  8
_________1
 62
     7
 10
142.21681799999999
 20
56.016647999999989
 30
0.0
 40
12.823447
 50
168.13548299999999
 51
188.770059
  0
ARC
  5
8D1
  8
_________1
 62
     7
 10
146.366354
 20
54.894466000000001
 30
0.0
 40
17.116807999999999
 50
153.35932600000001
 51
167.315112
  0
ARC
  5
8D2
  8
_________1
 62
     7
 10
155.41132200000001
 20
50.064174000000001
 30
0.0
 40
27.368651
 50
144.394791
 51
152.811273
  0
ARC
  5
8D3
  8
_________1
 62
     7
 10
172.97122100000001
 20
37.195370000000011
 30
0.0
 40
49.138452000000001
 50
140.05117300000001
 51
144.11536699999999
  0
ARC
  5
8D4
  8
_________1
 62
     7
 10
280.86041899999998
 20
-54.012272000000003
 30
0.0
 40
190.41408799999999
 50
139.07566600000001
 51
139.85694599999999
  0
LINE
  5
8D5
  8
_________1
 62
     7
 10
138.68899999999999
 20
72.716099999999983
 30
0.0
 11
136.989
 21
70.720699999999994
 31
0.0
  0
ARC
  5
8D6
  8
_________1
 62
     7
 10
93.471193000000014
 20
109.12526699999999
 30
0.0
 40
58.054406
 50
321.15938700000009
 51
331.03999199999998
  0
ARC
  5
8D7
  8
_________1
 62
     7
 10
91.638466000000008
 20
110.080333
 30
0.0
 40
62.618467000000003
 50
328.148753
 51
330.84684600000003
  0
ARC
  5
8D8
  8
_________1
 62
     7
 10
99.759461000000016
 20
104.682348
 30
0.0
 40
52.872570000000003
 50
320.60947599999997
 51
328.47340100000002
  0
LINE
  5
8D9
  8
_________1
 62
     7
 10
138.87799999999999
 20
69.082899999999995
 30
0.0
 11
140.62100000000001
 21
71.129300000000001
 31
0.0
  0
ARC
  5
8DA
  8
_________1
 62
     7
 10
273.05756400000001
 20
-47.671578999999987
 30
0.0
 40
177.86481000000001
 50
138.97239099999999
 51
139.72193200000001
  0
ARC
  5
8DB
  8
_________1
 62
     7
 10
170.418373
 20
39.011591000000003
 30
0.0
 40
43.51984199999999
 50
139.42701400000001
 51
144.068512
  0
ARC
  5
8DC
  8
_________1
 62
     7
 10
155.00729799999999
 20
50.121856000000001
 30
0.0
 40
24.521547000000002
 50
143.95802399999999
 51
149.66618500000001
  0
ARC
  5
8DD
  8
_________1
 62
     7
 10
147.06215
 20
54.594428000000001
 30
0.0
 40
15.406046
 50
149.09966800000001
 51
160.71505400000001
  0
ARC
  5
8DE
  8
_________1
 62
     7
 10
142.32418000000001
 20
56.085872999999992
 30
0.0
 40
10.442541
 50
159.853418
 51
186.32661300000001
  0
ARC
  5
8DF
  8
_________1
 62
     7
 10
80.779952000000009
 20
119.907653
 30
0.0
 40
74.494140000000002
 50
329.47618499999999
 51
346.05407300000002
  0
ARC
  5
8E0
  8
_________1
 62
     7
 10
93.744593000000009
 20
117.076481
 30
0.0
 40
61.23048
 50
345.70144900000003
 51
356.48809899999998
  0
ARC
  5
8E1
  8
_________1
 62
     7
 10
80.697333000000015
 20
119.90228399999999
 30
0.0
 40
77.061224999999993
 50
329.394113
 51
348.92828600000001
  0
INSERT
  5
8E2
  8
_________1
 62
     7
  2
AIGNBL02010031
 10
0.0
 20
0.0
 30
0.0
  0
INSERT
  5
8E3
  8
_________1
 62
     7
  2
AIGNBL02010032
 10
0.0
 20
0.0
 30
0.0
  0
INSERT
  5
8E4
  8
_________1
 62
     7
  2
AIGNBL02010033
 10
0.0
 20
0.0
 30
0.0
  0
LINE
  5
8E5
  8
_________1
 62
     7
 10
37.235700000000001
 20
156.148
 30
0.0
 11
31.1754
 21
156.148
 31
0.0
  0
LINE
  5
8E6
  8
_________1
 62
     7
 10
37.235700000000001
 20
146.74799999999999
 30
0.0
 11
31.1754
 21
146.74799999999999
 31
0.0
  0
INSERT
  5
8E7
  8
_________1
 62
     7
  2
AIGNBL02010034
 10
0.0
 20
0.0
 30
0.0
  0
INSERT
  5
8E8
  8
_________1
 62
     7
  2
AIGNBL02010036
 10
0.0
 20
0.0
 30
0.0
  0
INSERT
  5
8E9
  8
_________1
 62
     7
  2
AIGNBL02010037
 10
0.0
 20
0.0
 30
0.0
  0
INSERT
  5
8EA
  8
_________1
 62
     7
  2
AIGNBL02010038
 10
0.0
 20
0.0
 30
0.0
  0
INSERT
  5
8EB
  8
_________1
 62
     7
  2
AIGNBL02010039
 10
0.0
 20
0.0
 30
0.0
  0
INSERT
  5
8EC
  8
_________1
 62
     7
  2
AIGNBL0201003A
 10
0.0
 20
0.0
 30
0.0
  0
INSERT
  5
8ED
  8
_________1
 62
     7
  2
AIGNBL0201003B
 10
0.0
 20
0.0
 30
0.0
  0
INSERT
  5
8EE
  8
_________1
 62
     7
  2
AIGNBL0201003C
 10
0.0
 20
0.0
 30
0.0
  0
LINE
  5
8EF
  8
_________1
 62
     7
 10
145.23599999999999
 20
243.953
 30
0.0
 11
151.297
 21
243.953
 31
0.0
  0
INSERT
  5
8F0
  8
_________1
 62
     7
  2
AIGNBL0201003D
 10
0.0
 20
0.0
 30
0.0
  0
LINE
  5
8F1
  8
_________1
  6
AIGENLINE001
 62
     7
 10
157.40899999999999
 20
256.387
 30
0.0
 11
157.40899999999999
 21
243.23500000000001
 31
0.0
  0
ARC
  5
8F2
  8
_________1
 62
     7
 10
157.275204
 20
249.93128100000001
 30
0.0
 40
3.636995999999999
 50
2.118552999999999
 51
87.884256000000008
  0
ARC
  5
8F3
  8
_________1
 62
     7
 10
157.409389
 20
250.06564499999999
 30
0.0
 40
3.5001540000000002
 50
89.998589999999993
 51
179.99856
  0
ARC
  5
8F4
  8
_________1
 62
     7
 10
157.40938799999989
 20
250.06581700000001
 30
0.0
 40
3.500151999999999
 50
180.00142
 51
270.00143000000003
  0
ARC
  5
8F5
  8
_________1
 62
     7
 10
157.27581599999999
 20
250.199569
 30
0.0
 40
3.6363620000000001
 50
272.10646400000002
 51
357.89072599999997
  0
LINE
  5
8F6
  8
_________1
  6
AIGENLINE001
 62
     7
 10
150.471
 20
250.066
 30
0.0
 11
164.18700000000001
 21
250.066
 31
0.0
  0
LINE
  5
8F7
  8
_________1
 62
     7
 10
142.209
 20
140.096
 30
0.0
 11
142.209
 21
154.958
 31
0.0
  0
LINE
  5
8F8
  8
_________1
 62
     7
 10
166.19799999999989
 20
140.203
 30
0.0
 11
168.40899999999999
 21
140.79599999999999
 31
0.0
  0
LINE
  5
8F9
  8
_________1
 62
     7
 10
168.40899999999999
 20
140.79599999999999
 30
0.0
 11
166.19799999999989
 21
141.38800000000001
 31
0.0
  0
LINE
  5
8FA
  8
_________1
 62
     7
 10
166.19799999999989
 20
141.38800000000001
 30
0.0
 11
166.19799999999989
 21
140.203
 31
0.0
  0
LINE
  5
8FB
  8
_________1
 62
     7
 10
155.19800000000001
 20
140.203
 30
0.0
 11
157.40899999999999
 21
140.79599999999999
 31
0.0
  0
LINE
  5
8FC
  8
_________1
 62
     7
 10
157.40899999999999
 20
140.79599999999999
 30
0.0
 11
155.19800000000001
 21
141.38800000000001
 31
0.0
  0
LINE
  5
8FD
  8
_________1
 62
     7
 10
155.19800000000001
 20
141.38800000000001
 30
0.0
 11
155.19800000000001
 21
140.203
 31
0.0
  0
LINE
  5
8FE
  8
_________1
 62
     7
 10
159.62100000000001
 20
141.38800000000001
 30
0.0
 11
157.40899999999999
 21
140.79599999999999
 31
0.0
  0
LINE
  5
8FF
  8
_________1
 62
     7
 10
157.40899999999999
 20
140.79599999999999
 30
0.0
 11
159.62100000000001
 21
140.203
 31
0.0
  0
LINE
  5
900
  8
_________1
 62
     7
 10
159.62100000000001
 20
140.203
 30
0.0
 11
159.62100000000001
 21
141.38800000000001
 31
0.0
  0
LINE
  5
901
  8
_________1
 62
     7
 10
144.41999999999999
 20
141.38800000000001
 30
0.0
 11
142.209
 21
140.79599999999999
 31
0.0
  0
LINE
  5
902
  8
_________1
 62
     7
 10
142.209
 20
140.79599999999999
 30
0.0
 11
144.41999999999999
 21
140.203
 31
0.0
  0
LINE
  5
903
  8
_________1
 62
     7
 10
144.41999999999999
 20
140.203
 30
0.0
 11
144.41999999999999
 21
141.38800000000001
 31
0.0
  0
INSERT
  5
904
  8
_________1
 62
     7
  2
AIGNBL0201003E
 10
0.0
 20
0.0
 30
0.0
  0
LINE
  5
905
  8
_________1
 62
     7
 10
108.702
 20
197.21700000000001
 30
0.0
 11
108.702
 21
207.72
 31
0.0
  0
LINE
  5
906
  8
_________1
 62
     7
 10
157.40899999999999
 20
186.375
 30
0.0
 11
157.40899999999999
 21
207.72
 31
0.0
  0
LINE
  5
907
  8
_________1
 62
     7
 10
168.40899999999999
 20
140.096
 30
0.0
 11
168.40899999999999
 21
161.441
 31
0.0
  0
TEXT
  5
908
  8
_________2
 62
     7
 10
51.1419
 20
41.261499999999991
 30
0.0
 40
4.2168199999999993
  1
※水受けトレイ（別売）が必要です。
 41
0.5
  0
TEXT
  5
909
  8
_________2
 62
     7
 10
24.586400000000001
 20
0.707627
 30
0.0
 40
3.9357000000000002
  1
（社）日本水道協会認証品
 41
0.5
  0
TEXT
  5
90A
  8
_________2
 62
     7
 10
109.179
 20
25.2761
 30
0.0
 40
3.9357000000000002
  1
リベロ キッチン用湯水混合栓
 41
0.5
  0
TEXT
  5
90B
  8
_________2
 62
     7
 10
109.179
 20
20.3565
 30
0.0
 40
3.9357000000000002
  1
（スパウト引出しタイプ）
 41
0.5
  0
LINE
  5
90C
  8
_________2
 62
     7
 10
205.30099999999999
 20
127.411
 30
0.0
 11
183.55099999999999
 21
127.411
 31
0.0
  0
LINE
  5
90D
  8
_________2
 62
     7
 10
100.3
 20
-4.0910799999999998
 30
0.0
 11
100.3
 21
-21.071000000000002
 31
0.0
  0
LINE
  5
90E
  8
_________2
 62
     7
 10
100.3
 20
275.93099999999998
 30
0.0
 11
100.3
 21
258.911
 31
0.0
  0
LINE
  5
90F
  8
_________2
 62
     7
 10
17.049199999999999
 20
127.411
 30
0.0
 11
-4.7012099999999988
 21
127.411
 31
0.0
  0
INSERT
  5
910
  8
_________2
 62
     7
  2
AIGNBL03010002
 10
0.0
 20
0.0
 30
0.0
  0
TEXT
  5
911
  8
_________2
 62
     7
 10
104.605
 20
1.6794899999999999
 30
0.0
 40
3.0923400000000001
  1
図番
 41
0.5
  0
LINE
  5
912
  8
_________2
 62
     7
 10
103.55
 20
5.9087199999999989
 30
0.0
 11
183.55099999999999
 21
5.9087199999999989
 31
0.0
  0
TEXT
  5
913
  8
_________2
 62
     7
 10
104.605
 20
11.6793
 30
0.0
 40
3.0923400000000001
  1
品番
 41
0.5
  0
TEXT
  5
914
  8
_________2
 62
     7
 10
104.605
 20
31.8184
 30
0.0
 40
3.0923400000000001
  1
名称
 41
0.5
  0
TEXT
  5
915
  8
_________2
 62
     7
 10
91.844758333333345
 20
26.822299999999998
 30
0.0
 40
3.6545800000000002
  1
mm
 41
0.5
 72
     1
 11
93.367500000000007
 21
26.822299999999998
 31
0.0
  0
TEXT
  5
916
  8
_________2
 62
     7
 10
85.642899999999983
 20
31.8184
 30
0.0
 40
3.0923400000000001
  1
単位
 41
0.5
  0
TEXT
  5
917
  8
_________2
 62
     7
 10
85.642899999999983
 20
19.410799999999998
 30
0.0
 40
3.0923400000000001
  1
尺度
 41
0.5
  0
TEXT
  5
918
  8
_________2
 62
     7
 10
90.548458666666676
 20
13.2182
 30
0.0
 40
3.6545800000000002
  1
1 ： 5
 41
0.5
 72
     1
 11
93.959400000000016
 21
13.2182
 31
0.0
  0
TEXT
  5
919
  8
_________2
 62
     7
 10
134.69467499999999
 20
9.1082000000000001
 30
0.0
 40
3.9357000000000002
  1
KW0231103S
 41
0.5
 72
     1
 11
143.55000000000001
 21
9.1082000000000001
 31
0.0
  0
TEXT
  5
91A
  8
_________2
 62
     7
 10
134.69467499999999
 20
-0.8926299999999999
 30
0.0
 40
3.9357000000000002
  1
KW0231103S
 41
0.5
 72
     1
 11
143.55000000000001
 21
-0.8926299999999999
 31
0.0
  0
TEXT
  5
91B
  8
_________2
 62
     7
 10
39.364090666666669
 20
13.603400000000001
 30
0.0
 40
3.6545800000000002
  1
平井
 41
0.5
 72
     1
 11
41.313200000000002
 21
13.603400000000001
 31
0.0
  0
TEXT
  5
91C
  8
_________2
 62
     7
 10
20.790090666666661
 20
13.603400000000001
 30
0.0
 40
3.6545800000000002
  1
石原
 41
0.5
 72
     1
 11
22.7392
 21
13.603400000000001
 31
0.0
  0
TEXT
  5
91D
  8
_________2
 62
     7
 10
67.785399999999996
 20
13.2182
 30
0.0
 40
3.6545800000000002
  1
17.03.27
 41
0.5
  0
TEXT
  5
91E
  8
_________2
 62
     7
 10
66.592699999999994
 20
19.410799999999998
 30
0.0
 40
3.0923400000000001
  1
日付
 41
0.5
  0
TEXT
  5
91F
  8
_________2
 62
     7
 10
29.638999999999999
 20
19.410799999999998
 30
0.0
 40
3.0923400000000001
  1
検図
 41
0.5
  0
TEXT
  5
920
  8
_________2
 62
     7
 10
18.020700000000001
 20
5.21143
 30
0.0
 40
3.0923400000000001
  1
備考
 41
0.5
  0
TEXT
  5
921
  8
_________2
 62
     7
 10
18.020700000000001
 20
19.410799999999998
 30
0.0
 40
3.0923400000000001
  1
製図
 41
0.5
  0
TEXT
  5
922
  8
_________2
 62
     7
 10
23.788165333333339
 20
27.936800000000002
 30
0.0
 40
4.4979399999999989
  1
セラトレーディング株式会社
 41
0.5
 72
     1
 11
41.180199999999999
 21
27.936800000000002
 31
0.0
  0
LINE
  5
923
  8
_________2
 62
     7
 10
183.55099999999999
 20
-4.0910799999999998
 30
0.0
 11
17.049199999999999
 21
-4.0910799999999998
 31
0.0
  0
LINE
  5
924
  8
_________2
 62
     7
 10
17.049199999999999
 20
-4.0910799999999998
 30
0.0
 11
17.049199999999999
 21
258.911
 31
0.0
  0
LINE
  5
925
  8
_________2
 62
     7
 10
17.049199999999999
 20
258.911
 30
0.0
 11
183.55099999999999
 21
258.911
 31
0.0
  0
LINE
  5
926
  8
_________2
 62
     7
 10
183.55099999999999
 20
258.911
 30
0.0
 11
183.55099999999999
 21
-4.0910799999999998
 31
0.0
  0
LINE
  5
927
  8
_________2
 62
     7
 10
65.549599999999998
 20
9.4092999999999982
 30
0.0
 11
65.549599999999998
 21
35.909100000000002
 31
0.0
  0
LINE
  5
928
  8
_________2
 62
     7
 10
84.549400000000006
 20
9.4092999999999982
 30
0.0
 11
84.549400000000006
 21
35.909100000000002
 31
0.0
  0
LINE
  5
929
  8
_________2
 62
     7
 10
103.55
 20
-4.0910799999999998
 30
0.0
 11
103.55
 21
35.909100000000002
 31
0.0
  0
LINE
  5
92A
  8
_________2
 62
     7
 10
28.548999999999999
 20
9.4092999999999982
 30
0.0
 11
28.548999999999999
 21
23.409199999999998
 31
0.0
  0
LINE
  5
92B
  8
_________2
 62
     7
 10
17.049199999999999
 20
9.4092999999999982
 30
0.0
 11
103.55
 21
9.4092999999999982
 31
0.0
  0
LINE
  5
92C
  8
_________2
 62
     7
 10
17.049199999999999
 20
23.409199999999998
 30
0.0
 11
103.55
 21
23.409199999999998
 31
0.0
  0
LINE
  5
92D
  8
_________2
 62
     7
 10
103.55
 20
15.9085
 30
0.0
 11
183.55099999999999
 21
15.9085
 31
0.0
  0
LINE
  5
92E
  8
_________2
 62
     7
 10
17.049199999999999
 20
35.909100000000002
 30
0.0
 11
183.55099999999999
 21
35.909100000000002
 31
0.0
  0
ENDSEC
  0
EOF
