  0
SECTION
  2
HEADER
  9
$ACADVER
  1
AC1009
  9
$INSBASE
 10
0.0
 20
0.0
 30
0.0
  9
$EXTMIN
 10
-4.7012099999999988
 20
-21.071000000000002
 30
0.0
  9
$EXTMAX
 10
205.30099999999999
 20
275.93099999999998
 30
0.0
  9
$LIMMIN
 10
0.0
 20
0.0
  9
$LIMMAX
 10
12.0
 20
9.0
  9
$ORTHOMODE
 70
     0
  9
$REGENMODE
 70
     1
  9
$FILLMODE
 70
     1
  9
$QTEXTMODE
 70
     0
  9
$MIRRTEXT
 70
     1
  9
$DRAGMODE
 70
     2
  9
$LTSCALE
 40
1.0
  9
$OSMODE
 70
    37
  9
$ATTMODE
 70
     1
  9
$TEXTSIZE
 40
0.0
  9
$TRACEWID
 40
0.05
  9
$TEXTSTYLE
  7
STANDARD
  9
$CLAYER
  8
0
  9
$CELTYPE
  6
CONTINUOUS
  9
$CECOLOR
 62
   256
  9
$DIMSCALE
 40
1.0
  9
$DIMASZ
 40
0.18
  9
$DIMEXO
 40
0.0625
  9
$DIMDLI
 40
0.38
  9
$DIMRND
 40
0.0
  9
$DIMDLE
 40
0.0
  9
$DIMEXE
 40
0.18
  9
$DIMTP
 40
0.0
  9
$DIMTM
 40
0.0
  9
$DIMTXT
 40
0.18
  9
$DIMCEN
 40
0.09
  9
$DIMTSZ
 40
0.0
  9
$DIMTOL
 70
     0
  9
$DIMLIM
 70
     0
  9
$DIMTIH
 70
     1
  9
$DIMTOH
 70
     1
  9
$DIMSE1
 70
     0
  9
$DIMSE2
 70
     0
  9
$DIMTAD
 70
     0
  9
$DIMZIN
 70
     0
  9
$DIMBLK
  1

  9
$DIMASO
 70
     1
  9
$DIMSHO
 70
     1
  9
$DIMPOST
  1

  9
$DIMAPOST
  1

  9
$DIMALT
 70
     0
  9
$DIMALTD
 70
     2
  9
$DIMALTF
 40
25.399999999999999
  9
$DIMLFAC
 40
1.0
  9
$DIMTOFL
 70
     0
  9
$DIMTVP
 40
0.0
  9
$DIMTIX
 70
     0
  9
$DIMSOXD
 70
     0
  9
$DIMSAH
 70
     0
  9
$DIMBLK1
  1

  9
$DIMBLK2
  1

  9
$DIMSTYLE
  2
STANDARD
  9
$DIMCLRD
 70
     0
  9
$DIMCLRE
 70
     0
  9
$DIMCLRT
 70
     0
  9
$DIMTFAC
 40
1.0
  9
$DIMGAP
 40
0.09
  9
$LUNITS
 70
     2
  9
$LUPREC
 70
     4
  9
$SKETCHINC
 40
0.1
  9
$FILLETRAD
 40
0.0
  9
$AUNITS
 70
     0
  9
$AUPREC
 70
     0
  9
$MENU
  1
.
  9
$ELEVATION
 40
0.0
  9
$PELEVATION
 40
0.0
  9
$THICKNESS
 40
0.0
  9
$LIMCHECK
 70
     0
  9
$BLIPMODE
 70
     0
  9
$CHAMFERA
 40
0.0
  9
$CHAMFERB
 40
0.0
  9
$SKPOLY
 70
     0
  9
$TDCREATE
 40
2444972.375
  9
$TDUPDATE
 40
2457850.2558667129
  9
$TDINDWG
 40
0.0000308565
  9
$TDUSRTIMER
 40
0.0000308565
  9
$USRTIMER
 70
     1
  9
$ANGBASE
 50
0.0
  9
$ANGDIR
 70
     0
  9
$PDMODE
 70
     0
  9
$PDSIZE
 40
0.0
  9
$PLINEWID
 40
0.0
  9
$COORDS
 70
     1
  9
$SPLFRAME
 70
     0
  9
$SPLINETYPE
 70
     6
  9
$SPLINESEGS
 70
     8
  9
$ATTDIA
 70
     1
  9
$ATTREQ
 70
     1
  9
$HANDLING
 70
     1
  9
$HANDSEED
  5
78B
  9
$SURFTAB1
 70
     6
  9
$SURFTAB2
 70
     6
  9
$SURFTYPE
 70
     6
  9
$SURFU
 70
     6
  9
$SURFV
 70
     6
  9
$UCSNAME
  2

  9
$UCSORG
 10
0.0
 20
0.0
 30
0.0
  9
$UCSXDIR
 10
1.0
 20
0.0
 30
0.0
  9
$UCSYDIR
 10
0.0
 20
1.0
 30
0.0
  9
$PUCSNAME
  2

  9
$PUCSORG
 10
0.0
 20
0.0
 30
0.0
  9
$PUCSXDIR
 10
1.0
 20
0.0
 30
0.0
  9
$PUCSYDIR
 10
0.0
 20
1.0
 30
0.0
  9
$USERI1
 70
     0
  9
$USERI2
 70
     0
  9
$USERI3
 70
     0
  9
$USERI4
 70
     0
  9
$USERI5
 70
     0
  9
$USERR1
 40
0.0
  9
$USERR2
 40
0.0
  9
$USERR3
 40
0.0
  9
$USERR4
 40
0.0
  9
$USERR5
 40
0.0
  9
$WORLDVIEW
 70
     1
  9
$SHADEDGE
 70
     3
  9
$SHADEDIF
 70
    70
  9
$TILEMODE
 70
     1
  9
$MAXACTVP
 70
    48
  9
$PLIMCHECK
 70
     0
  9
$PEXTMIN
 10
1.0000000000000000E+020
 20
1.0000000000000000E+020
 30
1.0000000000000000E+020
  9
$PEXTMAX
 10
-1.0000000000000000E+020
 20
-1.0000000000000000E+020
 30
-1.0000000000000000E+020
  9
$PLIMMIN
 10
0.0
 20
0.0
  9
$PLIMMAX
 10
12.0
 20
9.0
  9
$UNITMODE
 70
     0
  9
$VISRETAIN
 70
     1
  9
$PLINEGEN
 70
     0
  9
$PSLTSCALE
 70
     1
  0
ENDSEC
  0
SECTION
  2
TABLES
  0
TABLE
  2
VPORT
 70
     1
  0
VPORT
  2
*ACTIVE
 70
     0
 10
0.0
 20
0.0
 11
1.0
 21
1.0
 12
173.05850873675899
 22
127.42999999999989
 13
0.0
 23
0.0
 14
1.0
 24
1.0
 15
0.0
 25
0.0
 16
0.0
 26
0.0
 36
1.0
 17
0.0
 27
0.0
 37
0.0
 40
289.64129411868203
 41
2.1063583815028899
 42
50.0
 43
0.0
 44
0.0
 50
0.0
 51
0.0
 71
     0
 72
   100
 73
     1
 74
     1
 75
     0
 76
     0
 77
     0
 78
     0
  0
ENDTAB
  0
TABLE
  2
LTYPE
 70
     3
  0
LTYPE
  2
CONTINUOUS
 70
     0
  3
Solid line
 72
    65
 73
     0
 40
0.0
  0
LTYPE
  2
AIGENLINE001
 70
     0
  3
generate AI->DXF Converter
 72
    65
 73
     4
 40
5.8561449999999988
 49
3.5278
 49
-0.776115
 49
0.776115
 49
-0.776115
  0
LTYPE
  2
AIGENLINE002
 70
     0
  3
generate AI->DXF Converter
 72
    65
 73
     6
 40
7.4083750000000004
 49
3.5278
 49
-0.776115
 49
0.776115
 49
-0.776115
 49
0.776115
 49
-0.776115
  0
ENDTAB
  0
TABLE
  2
LAYER
 70
     4
  0
LAYER
  2
0
 70
     0
 62
     7
  6
CONTINUOUS
  0
LAYER
  2
____
 70
     0
 62
     7
  6
CONTINUOUS
  0
LAYER
  2
_________1
 70
     0
 62
     7
  6
CONTINUOUS
  0
LAYER
  2
_________2
 70
     0
 62
     7
  6
CONTINUOUS
  0
ENDTAB
  0
TABLE
  2
STYLE
 70
     1
  0
STYLE
  2
STANDARD
 70
     0
 40
0.0
 41
0.0
 50
0.0
 71
     0
 42
0.0
  3
TXT
  4
EXTFONT.SHX
  0
ENDTAB
  0
TABLE
  2
VIEW
 70
     0
  0
ENDTAB
  0
TABLE
  2
UCS
 70
     0
  0
ENDTAB
  0
TABLE
  2
APPID
 70
     3
  0
APPID
  2
ACAD
 70
     0
  0
APPID
  2
ACAD_NAV_VCDISPLAY
 70
     0
  0
APPID
  2
ACAD_MLEADERVER
 70
     0
  0
ENDTAB
  0
TABLE
  2
DIMSTYLE
 70
     1
  0
DIMSTYLE
  2
STANDARD
 70
     0
  3

  4

  5

  6

  7

 40
1.0
 41
0.18
 42
0.0625
 43
0.38
 44
0.18
 45
0.0
 46
0.0
 47
0.0
 48
0.0
140
0.18
141
0.09
142
0.0
143
25.399999999999999
144
1.0
145
0.0
146
1.0
147
0.09
 71
     0
 72
     0
 73
     1
 74
     1
 75
     0
 76
     0
 77
     0
 78
     0
170
     0
171
     2
172
     0
173
     0
174
     0
175
     0
176
     0
177
     0
178
     0
  0
ENDTAB
  0
ENDSEC
  0
SECTION
  2
BLOCKS
  0
BLOCK
  8
0
  2
$MODEL_SPACE
 70
     0
 10
0.0
 20
0.0
 30
0.0
  3
$MODEL_SPACE
  1

  0
ENDBLK
  5
1A
  8
0
  0
BLOCK
 67
     1
  8
0
  2
$PAPER_SPACE
 70
     0
 10
0.0
 20
0.0
 30
0.0
  3
$PAPER_SPACE
  1

  0
ENDBLK
  5
17
 67
     1
  8
0
  0
BLOCK
  8
_________1
  2
AIGNBL0203001F
 70
     0
 10
0.0
 20
0.0
 30
0.0
  3
AIGNBL0203001F
  1

  0
LINE
  5
27
  8
_________1
 62
     7
 10
54.865600000000001
 20
57.294400000000003
 30
0.0
 11
52.654800000000002
 21
56.702199999999998
 31
0.0
  0
LINE
  5
28
  8
_________1
 62
     7
 10
52.654800000000002
 20
56.702199999999998
 30
0.0
 11
54.865600000000001
 21
56.10990000000001
 31
0.0
  0
LINE
  5
29
  8
_________1
 62
     7
 10
54.865600000000001
 20
56.10990000000001
 30
0.0
 11
54.865600000000001
 21
57.294400000000003
 31
0.0
  0
LINE
  5
2A
  8
_________1
 62
     7
 10
47.694200000000002
 20
56.10990000000001
 30
0.0
 11
49.904899999999998
 21
56.702199999999998
 31
0.0
  0
LINE
  5
2B
  8
_________1
 62
     7
 10
49.904899999999998
 20
56.702199999999998
 30
0.0
 11
47.694200000000002
 21
57.294400000000003
 31
0.0
  0
LINE
  5
2C
  8
_________1
 62
     7
 10
47.694200000000002
 20
57.294400000000003
 30
0.0
 11
47.694200000000002
 21
56.10990000000001
 31
0.0
  0
LINE
  5
2D
  8
_________1
 62
     7
 10
40.989699999999999
 20
56.702199999999998
 30
0.0
 11
55.792999999999992
 21
56.702199999999998
 31
0.0
  0
ENDBLK
  5
2E
  8
_________1
  0
BLOCK
  8
_________1
  2
AIGNBL02030025
 70
     0
 10
0.0
 20
0.0
 30
0.0
  3
AIGNBL02030025
  1

  0
LINE
  5
31
  8
_________1
 62
     7
 10
134.208
 20
128.14099999999999
 30
0.0
 11
133.61500000000001
 21
130.35300000000001
 31
0.0
  0
LINE
  5
32
  8
_________1
 62
     7
 10
133.61500000000001
 20
130.35300000000001
 30
0.0
 11
133.023
 21
128.14099999999999
 31
0.0
  0
LINE
  5
33
  8
_________1
 62
     7
 10
133.023
 20
128.14099999999999
 30
0.0
 11
134.208
 21
128.14099999999999
 31
0.0
  0
LINE
  5
34
  8
_________1
 62
     7
 10
133.03700000000001
 20
127.563
 30
0.0
 11
133.63
 21
125.351
 31
0.0
  0
LINE
  5
35
  8
_________1
 62
     7
 10
133.63
 20
125.351
 30
0.0
 11
134.22200000000001
 21
127.563
 31
0.0
  0
LINE
  5
36
  8
_________1
 62
     7
 10
134.22200000000001
 20
127.563
 30
0.0
 11
133.03700000000001
 21
127.563
 31
0.0
  0
LINE
  5
37
  8
_________1
 62
     7
 10
133.62299999999999
 20
130.352
 30
0.0
 11
133.62299999999999
 21
125.352
 31
0.0
  0
ENDBLK
  5
38
  8
_________1
  0
BLOCK
  8
_________1
  2
AIGNBL02020004
 70
     0
 10
0.0
 20
0.0
 30
0.0
  3
AIGNBL02020004
  1

  0
LINE
  5
3B
  8
_________1
 62
     7
 10
149.19499999999999
 20
124.35299999999999
 30
0.0
 11
149.69499999999999
 21
124.68600000000001
 31
0.0
  0
LINE
  5
3C
  8
_________1
 62
     7
 10
149.19499999999999
 20
121.18600000000001
 30
0.0
 11
149.19499999999999
 21
124.35299999999999
 31
0.0
  0
LINE
  5
3D
  8
_________1
 62
     7
 10
148.1939999999999
 20
121.18600000000001
 30
0.0
 11
148.1939999999999
 21
124.68600000000001
 31
0.0
  0
LINE
  5
3E
  8
_________1
 62
     7
 10
147.69499999999999
 20
121.18600000000001
 30
0.0
 11
147.69499999999999
 21
124.68600000000001
 31
0.0
  0
LINE
  5
3F
  8
_________1
 62
     7
 10
146.86099999999999
 20
121.18600000000001
 30
0.0
 11
146.86099999999999
 21
124.68600000000001
 31
0.0
  0
LINE
  5
40
  8
_________1
 62
     7
 10
145.69399999999999
 20
121.18600000000001
 30
0.0
 11
145.69399999999999
 21
124.68600000000001
 31
0.0
  0
LINE
  5
41
  8
_________1
 62
     7
 10
145.19399999999999
 20
121.18600000000001
 30
0.0
 11
145.19399999999999
 21
124.68600000000001
 31
0.0
  0
LINE
  5
42
  8
_________1
 62
     7
 10
145.02799999999999
 20
121.18600000000001
 30
0.0
 11
145.02799999999999
 21
124.68600000000001
 31
0.0
  0
LINE
  5
43
  8
_________1
 62
     7
 10
143.19499999999999
 20
121.18600000000001
 30
0.0
 11
143.19499999999999
 21
124.68600000000001
 31
0.0
  0
LINE
  5
44
  8
_________1
 62
     7
 10
142.86099999999999
 20
121.18600000000001
 30
0.0
 11
140.86099999999999
 21
124.68600000000001
 31
0.0
  0
LINE
  5
45
  8
_________1
 62
     7
 10
142.36199999999999
 20
121.18600000000001
 30
0.0
 11
140.36099999999999
 21
124.68600000000001
 31
0.0
  0
LINE
  5
46
  8
_________1
 62
     7
 10
141.69499999999999
 20
121.18600000000001
 30
0.0
 11
141.69499999999999
 21
122.352
 31
0.0
  0
LINE
  5
47
  8
_________1
 62
     7
 10
140.36099999999999
 20
121.18600000000001
 30
0.0
 11
149.19499999999999
 21
121.18600000000001
 31
0.0
  0
LINE
  5
48
  8
_________1
 62
     7
 10
140.36099999999999
 20
121.18600000000001
 30
0.0
 11
140.36099999999999
 21
124.68600000000001
 31
0.0
  0
ENDBLK
  5
49
  8
_________1
  0
BLOCK
  8
_________1
  2
AIGNBL02020007
 70
     0
 10
0.0
 20
0.0
 30
0.0
  3
AIGNBL02020007
  1

  0
ARC
  5
4C
  8
_________1
 62
     7
 10
144.096428
 20
87.303399999999996
 30
0.0
 40
0.32149
 50
232.98717300000001
 51
241.74473500000011
  0
ARC
  5
4D
  8
_________1
 62
     7
 10
143.98513700000001
 20
87.15615600000001
 30
0.0
 40
0.136919
 50
214.70408699999999
 51
233.08140700000001
  0
ARC
  5
4E
  8
_________1
 62
     7
 10
143.927437
 20
87.115955999999997
 30
0.0
 40
0.066596
 50
181.45142100000001
 51
214.53373199999999
  0
ARC
  5
4F
  8
_________1
 62
     7
 10
143.92765499999999
 20
87.113556000000003
 30
0.0
 40
0.066797
 50
134.078463
 51
179.38895600000001
  0
ARC
  5
50
  8
_________1
 62
     7
 10
144.01387
 20
87.041586999999979
 30
0.0
 40
0.178868
 50
122.63243900000001
 51
137.8837419999999
  0
ARC
  5
51
  8
_________1
 62
     7
 10
144.13816199999999
 20
86.851628000000005
 30
0.0
 40
0.405872
 50
112.691104
 51
122.948291
  0
ARC
  5
52
  8
_________1
 62
     7
 10
144.31587999999999
 20
86.435931000000025
 30
0.0
 40
0.857957
 50
105.841052
 51
112.931611
  0
ARC
  5
53
  8
_________1
 62
     7
 10
144.52312800000001
 20
85.720358000000004
 30
0.0
 40
1.602932
 50
100.72427500000001
 51
105.985738
  0
ARC
  5
54
  8
_________1
 62
     7
 10
144.760345
 20
84.462963000000002
 30
0.0
 40
2.8825079999999992
 50
92.729383000000013
 51
100.706266
  0
ARC
  5
55
  8
_________1
 62
     7
 10
144.85891000000001
 20
83.183328999999986
 30
0.0
 40
4.1655530000000001
 50
89.971517000000006
 51
93.245433000000006
  0
ARC
  5
56
  8
_________1
 62
     7
 10
144.86085
 20
83.484389000000007
 30
0.0
 40
3.8644919999999989
 50
81.091071000000014
 51
89.998063999999999
  0
ARC
  5
57
  8
_________1
 62
     7
 10
145.213581
 20
85.828839999999985
 30
0.0
 40
1.4937709999999991
 50
69.833065000000005
 51
80.531212999999994
  0
ARC
  5
58
  8
_________1
 62
     7
 10
145.56420600000001
 20
86.814571999999998
 30
0.0
 40
0.44772
 50
58.160249
 51
68.462581999999998
  0
ARC
  5
59
  8
_________1
 62
     7
 10
145.70182
 20
87.034588999999997
 30
0.0
 40
0.188214
 50
42.416659000000003
 51
58.415444999999998
  0
ARC
  5
5A
  8
_________1
 62
     7
 10
145.784648
 20
87.109403999999998
 30
0.0
 40
0.076604
 50
3.6407980000000002
 51
42.891742999999991
  0
ARC
  5
5B
  8
_________1
 62
     7
 10
145.79343299999999
 20
87.115036000000003
 30
0.0
 40
0.067669
 50
312.9548660000001
 51
359.35042900000002
  0
ARC
  5
5C
  8
_________1
 62
     7
 10
145.68987999999999
 20
87.206593999999996
 30
0.0
 40
0.20568
 50
296.77896500000003
 51
316.69022799999999
  0
ARC
  5
5D
  8
_________1
 62
     7
 10
143.92765499999999
 20
89.544087000000005
 30
0.0
 40
0.066797
 50
134.078463
 51
179.38895600000001
  0
ARC
  5
5E
  8
_________1
 62
     7
 10
144.01387
 20
89.472116999999997
 30
0.0
 40
0.178868
 50
122.63243900000001
 51
137.8837419999999
  0
ARC
  5
5F
  8
_________1
 62
     7
 10
144.13816199999999
 20
89.282157999999995
 30
0.0
 40
0.405872
 50
112.691104
 51
122.948291
  0
ARC
  5
60
  8
_________1
 62
     7
 10
144.31587999999999
 20
88.866461999999984
 30
0.0
 40
0.857957
 50
105.841052
 51
112.931611
  0
ARC
  5
61
  8
_________1
 62
     7
 10
144.52312800000001
 20
88.150887999999995
 30
0.0
 40
1.602932
 50
100.72427500000001
 51
105.985738
  0
ARC
  5
62
  8
_________1
 62
     7
 10
144.760345
 20
86.893493000000007
 30
0.0
 40
2.8825079999999992
 50
92.729383000000013
 51
100.706266
  0
ARC
  5
63
  8
_________1
 62
     7
 10
144.85891000000001
 20
85.613858999999991
 30
0.0
 40
4.1655530000000001
 50
89.971517000000006
 51
93.245433000000006
  0
ARC
  5
64
  8
_________1
 62
     7
 10
144.86085
 20
85.914918999999983
 30
0.0
 40
3.8644919999999989
 50
81.091071000000014
 51
89.998063999999999
  0
ARC
  5
65
  8
_________1
 62
     7
 10
145.213581
 20
88.25936999999999
 30
0.0
 40
1.4937709999999991
 50
69.833065000000005
 51
80.531212999999994
  0
ARC
  5
66
  8
_________1
 62
     7
 10
145.56420600000001
 20
89.245102000000003
 30
0.0
 40
0.44772
 50
58.160249
 51
68.462581999999998
  0
ARC
  5
67
  8
_________1
 62
     7
 10
145.70182
 20
89.465119000000001
 30
0.0
 40
0.188214
 50
42.416659000000003
 51
58.415444999999998
  0
ARC
  5
68
  8
_________1
 62
     7
 10
145.784648
 20
89.539933999999988
 30
0.0
 40
0.076604
 50
3.6407980000000002
 51
42.891742999999991
  0
LINE
  5
69
  8
_________1
 62
     7
 10
143.86099999999999
 20
89.544799999999995
 30
0.0
 11
143.86099999999999
 21
87.1143
 31
0.0
  0
LINE
  5
6A
  8
_________1
 62
     7
 10
145.86099999999999
 20
89.544799999999995
 30
0.0
 11
145.86099999999999
 21
87.1143
 31
0.0
  0
ENDBLK
  5
6B
  8
_________1
  0
BLOCK
  8
_________1
  2
AIGNBL02020008
 70
     0
 10
0.0
 20
0.0
 30
0.0
  3
AIGNBL02020008
  1

  0
ARC
  5
6E
  8
_________1
 62
     7
 10
144.13440800000001
 20
90.248157999999975
 30
0.0
 40
0.9208429999999999
 50
241.4209330000001
 51
252.67399
  0
ARC
  5
6F
  8
_________1
 62
     7
 10
143.82894899999999
 20
89.668491000000003
 30
0.0
 40
0.265835
 50
225.97369699999999
 51
239.46892800000001
  0
ARC
  5
70
  8
_________1
 62
     7
 10
143.716329
 20
89.554603
 30
0.0
 40
0.105693
 50
185.32233500000001
 51
226.96334200000001
  0
ARC
  5
71
  8
_________1
 62
     7
 10
143.69094999999999
 20
89.544371999999996
 30
0.0
 40
0.07986
 50
139.07555600000001
 51
179.69380699999999
  0
ARC
  5
72
  8
_________1
 62
     7
 10
143.77788699999999
 20
89.480237000000002
 30
0.0
 40
0.187752
 50
126.094565
 51
141.66754
  0
ARC
  5
73
  8
_________1
 62
     7
 10
143.90016600000001
 20
89.315831000000003
 30
0.0
 40
0.392642
 50
116.035208
 51
126.379441
  0
ARC
  5
74
  8
_________1
 62
     7
 10
144.07565199999999
 20
88.963009999999997
 30
0.0
 40
0.7866900000000001
 50
109.258893
 51
116.240353
  0
ARC
  5
75
  8
_________1
 62
     7
 10
144.28957199999999
 20
88.354896999999994
 30
0.0
 40
1.431330999999999
 50
103.89270399999999
 51
109.313727
  0
ARC
  5
76
  8
_________1
 62
     7
 10
144.59636699999999
 20
87.096511000000007
 30
0.0
 40
2.7265719999999991
 50
95.548119
 51
103.801845
  0
ARC
  5
77
  8
_________1
 62
     7
 10
144.843636
 20
85.053524999999979
 30
0.0
 40
4.7841399999999989
 50
89.792275000000004
 51
96.130057999999991
  0
ARC
  5
78
  8
_________1
 62
     7
 10
144.86237800000001
 20
84.927094999999994
 30
0.0
 40
4.9105389999999991
 50
81.981842
 51
90.016304000000005
  0
ARC
  5
79
  8
_________1
 62
     7
 10
145.21921800000001
 20
87.568689000000006
 30
0.0
 40
2.245045999999999
 50
72.643856999999997
 51
81.596071999999992
  0
ARC
  5
7A
  8
_________1
 62
     7
 10
145.630728
 20
88.927702999999994
 30
0.0
 40
0.8252489999999999
 50
63.873274000000002
 51
71.766641000000021
  0
ARC
  5
7B
  8
_________1
 62
     7
 10
145.826053
 20
89.323525999999987
 30
0.0
 40
0.383858
 50
52.607525000000003
 51
64.032022999999995
  0
ARC
  5
7C
  8
_________1
 62
     7
 10
145.953653
 20
89.489869999999996
 30
0.0
 40
0.174211
 50
36.325659999999999
 51
52.726443999999987
  0
ARC
  5
7D
  8
_________1
 62
     7
 10
146.025249
 20
89.541972999999999
 30
0.0
 40
0.085666
 50
1.89049
 51
36.616149999999998
  0
ARC
  5
7E
  8
_________1
 62
     7
 10
146.030935
 20
89.545237999999998
 30
0.0
 40
0.079935
 50
318.288838
 51
359.68552200000011
  0
ARC
  5
7F
  8
_________1
 62
     7
 10
145.94480799999999
 20
89.609045999999992
 30
0.0
 40
0.186936
 50
306.61195700000002
 51
321.25487299999998
  0
ARC
  5
80
  8
_________1
 62
     7
 10
145.82483400000001
 20
89.768775000000005
 30
0.0
 40
0.386702
 50
296.33500400000003
 51
306.76620400000002
  0
ARC
  5
81
  8
_________1
 62
     7
 10
145.62124600000001
 20
90.178942000000006
 30
0.0
 40
0.844616
 50
286.49769500000002
 51
296.369012
  0
ARC
  5
82
  8
_________1
 62
     7
 10
143.690935
 20
91.974902999999998
 30
0.0
 40
0.079845
 50
139.071439
 51
179.694006
  0
ARC
  5
83
  8
_________1
 62
     7
 10
143.77776399999999
 20
91.910914000000005
 30
0.0
 40
0.187561
 50
126.09038200000001
 51
141.68046200000001
  0
ARC
  5
84
  8
_________1
 62
     7
 10
143.90016600000001
 20
91.746362000000005
 30
0.0
 40
0.392642
 50
116.035208
 51
126.379441
  0
ARC
  5
85
  8
_________1
 62
     7
 10
144.07565199999999
 20
91.393540000000002
 30
0.0
 40
0.7866900000000001
 50
109.258893
 51
116.240353
  0
ARC
  5
86
  8
_________1
 62
     7
 10
144.29089500000001
 20
90.780991000000014
 30
0.0
 40
1.435954999999999
 50
103.901439
 51
109.304991
  0
ARC
  5
87
  8
_________1
 62
     7
 10
144.59636699999999
 20
89.527040999999997
 30
0.0
 40
2.7265719999999991
 50
95.548119
 51
103.801845
  0
ARC
  5
88
  8
_________1
 62
     7
 10
144.843389
 20
87.488827999999998
 30
0.0
 40
4.779367999999999
 50
89.789107999999985
 51
96.133226000000008
  0
ARC
  5
89
  8
_________1
 62
     7
 10
144.86237800000001
 20
87.357624999999985
 30
0.0
 40
4.9105389999999991
 50
81.981842
 51
90.016304000000005
  0
ARC
  5
8A
  8
_________1
 62
     7
 10
145.21956
 20
90.000567000000004
 30
0.0
 40
2.243662
 50
72.641964999999999
 51
81.599680000000006
  0
ARC
  5
8B
  8
_________1
 62
     7
 10
145.63030900000001
 20
91.357303000000002
 30
0.0
 40
0.8262679999999999
 50
63.875566999999997
 51
71.759320000000002
  0
ARC
  5
8C
  8
_________1
 62
     7
 10
145.82583099999999
 20
91.753655000000009
 30
0.0
 40
0.384317
 50
52.618015
 51
64.028404000000009
  0
ARC
  5
8D
  8
_________1
 62
     7
 10
145.95312999999999
 20
91.919891000000007
 30
0.0
 40
0.174937
 50
36.359943999999999
 51
52.692160000000001
  0
ARC
  5
8E
  8
_________1
 62
     7
 10
146.02520699999999
 20
91.972493999999998
 30
0.0
 40
0.085708
 50
1.8955799999999989
 51
36.607083000000003
  0
LINE
  5
8F
  8
_________1
 62
     7
 10
143.61099999999999
 20
91.975300000000004
 30
0.0
 11
143.61099999999999
 21
89.544799999999995
 31
0.0
  0
LINE
  5
90
  8
_________1
 62
     7
 10
146.11099999999999
 20
91.975300000000004
 30
0.0
 11
146.11099999999999
 21
89.544799999999995
 31
0.0
  0
ENDBLK
  5
91
  8
_________1
  0
BLOCK
  8
_________1
  2
AIGNBL0202000C
 70
     0
 10
0.0
 20
0.0
 30
0.0
  3
AIGNBL0202000C
  1

  0
LINE
  5
94
  8
_________1
 62
     7
 10
60.734999999999999
 20
174.46799999999999
 30
0.0
 11
62.946800000000003
 21
175.06099999999989
 31
0.0
  0
LINE
  5
95
  8
_________1
 62
     7
 10
62.946800000000003
 20
175.06099999999989
 30
0.0
 11
60.734999999999999
 21
175.654
 31
0.0
  0
LINE
  5
96
  8
_________1
 62
     7
 10
60.734999999999999
 20
175.654
 30
0.0
 11
60.734999999999999
 21
174.46799999999999
 31
0.0
  0
LINE
  5
97
  8
_________1
 62
     7
 10
53.490600000000001
 20
175.63900000000001
 30
0.0
 11
51.278799999999997
 21
175.047
 31
0.0
  0
LINE
  5
98
  8
_________1
 62
     7
 10
51.278799999999997
 20
175.047
 30
0.0
 11
53.490600000000001
 21
174.45400000000001
 31
0.0
  0
LINE
  5
99
  8
_________1
 62
     7
 10
53.490600000000001
 20
174.45400000000001
 30
0.0
 11
53.490600000000001
 21
175.63900000000001
 31
0.0
  0
LINE
  5
9A
  8
_________1
 62
     7
 10
62.945700000000002
 20
175.054
 30
0.0
 11
51.279899999999998
 21
175.054
 31
0.0
  0
ENDBLK
  5
9B
  8
_________1
  0
BLOCK
  8
_________1
  2
AIGNBL0202001E
 70
     0
 10
0.0
 20
0.0
 30
0.0
  3
AIGNBL0202001E
  1

  0
INSERT
  5
9E
  8
_________1
 62
     7
  2
AIGNBL0203001F
 10
0.0
 20
0.0
 30
0.0
  0
ENDBLK
  5
9F
  8
_________1
  0
BLOCK
  8
_________1
  2
AIGNBL02020022
 70
     0
 10
0.0
 20
0.0
 30
0.0
  3
AIGNBL02020022
  1

  0
LINE
  5
A2
  8
_________1
 62
     7
 10
72.058800000000005
 20
128.14099999999999
 30
0.0
 11
71.466200000000001
 21
130.35300000000001
 31
0.0
  0
LINE
  5
A3
  8
_________1
 62
     7
 10
71.466200000000001
 20
130.35300000000001
 30
0.0
 11
70.873599999999996
 21
128.14099999999999
 31
0.0
  0
LINE
  5
A4
  8
_________1
 62
     7
 10
70.873599999999996
 20
128.14099999999999
 30
0.0
 11
72.058800000000005
 21
128.14099999999999
 31
0.0
  0
LINE
  5
A5
  8
_________1
 62
     7
 10
70.888099999999994
 20
64.228999999999999
 30
0.0
 11
71.480699999999999
 21
62.017299999999999
 31
0.0
  0
LINE
  5
A6
  8
_________1
 62
     7
 10
71.480699999999999
 20
62.017299999999999
 30
0.0
 11
72.0732
 21
64.228999999999999
 31
0.0
  0
LINE
  5
A7
  8
_________1
 62
     7
 10
72.0732
 20
64.228999999999999
 30
0.0
 11
70.888099999999994
 21
64.228999999999999
 31
0.0
  0
LINE
  5
A8
  8
_________1
 62
     7
 10
71.473399999999984
 20
130.352
 30
0.0
 11
71.473399999999984
 21
62.018300000000011
 31
0.0
  0
ENDBLK
  5
A9
  8
_________1
  0
BLOCK
  8
_________1
  2
AIGNBL02020024
 70
     0
 10
0.0
 20
0.0
 30
0.0
  3
AIGNBL02020024
  1

  0
INSERT
  5
AC
  8
_________1
 62
     7
  2
AIGNBL02030025
 10
0.0
 20
0.0
 30
0.0
  0
ENDBLK
  5
AD
  8
_________1
  0
BLOCK
  8
_________1
  2
AIGNBL02020027
 70
     0
 10
0.0
 20
0.0
 30
0.0
  3
AIGNBL02020027
  1

  0
LINE
  5
B0
  8
_________1
 62
     7
 10
141.654
 20
246.845
 30
0.0
 11
142.798
 21
248.828
 31
0.0
  0
LINE
  5
B1
  8
_________1
 62
     7
 10
142.798
 20
248.828
 30
0.0
 11
140.815
 21
247.68299999999999
 31
0.0
  0
LINE
  5
B2
  8
_________1
 62
     7
 10
140.815
 20
247.68299999999999
 30
0.0
 11
141.654
 21
246.845
 31
0.0
  0
LINE
  5
B3
  8
_________1
 62
     7
 10
148.0679999999999
 20
254.93600000000001
 30
0.0
 11
146.923
 21
252.953
 31
0.0
  0
LINE
  5
B4
  8
_________1
 62
     7
 10
146.923
 20
252.953
 30
0.0
 11
148.90600000000001
 21
254.09800000000001
 31
0.0
  0
LINE
  5
B5
  8
_________1
 62
     7
 10
148.90600000000001
 20
254.09800000000001
 30
0.0
 11
148.0679999999999
 21
254.93600000000001
 31
0.0
  0
ENDBLK
  5
B6
  8
_________1
  0
BLOCK
  8
_________1
  2
AIGNBL02010002
 70
     0
 10
0.0
 20
0.0
 30
0.0
  3
AIGNBL02010002
  1

  0
LINE
  5
B9
  8
_________1
 62
     7
 10
44.28009999999999
 20
124.68600000000001
 30
0.0
 11
47.280099999999997
 21
121.18600000000001
 31
0.0
  0
LINE
  5
BA
  8
_________1
 62
     7
 10
58.2804
 20
124.68600000000001
 30
0.0
 11
55.2804
 21
121.18600000000001
 31
0.0
  0
LINE
  5
BB
  8
_________1
 62
     7
 10
53.030000000000001
 20
124.68600000000001
 30
0.0
 11
53.030000000000001
 21
121.18600000000001
 31
0.0
  0
LINE
  5
BC
  8
_________1
 62
     7
 10
49.53009999999999
 20
121.18600000000001
 30
0.0
 11
49.53009999999999
 21
124.68600000000001
 31
0.0
  0
LINE
  5
BD
  8
_________1
 62
     7
 10
52.53009999999999
 20
124.68600000000001
 30
0.0
 11
52.53009999999999
 21
121.18600000000001
 31
0.0
  0
LINE
  5
BE
  8
_________1
 62
     7
 10
50.030200000000001
 20
121.18600000000001
 30
0.0
 11
50.030200000000001
 21
124.68600000000001
 31
0.0
  0
LINE
  5
BF
  8
_________1
 62
     7
 10
52.196999999999989
 20
124.68600000000001
 30
0.0
 11
52.196999999999989
 21
121.18600000000001
 31
0.0
  0
LINE
  5
C0
  8
_________1
 62
     7
 10
50.363500000000002
 20
121.18600000000001
 30
0.0
 11
50.363500000000002
 21
124.68600000000001
 31
0.0
  0
LINE
  5
C1
  8
_________1
 62
     7
 10
54.196899999999999
 20
124.68600000000001
 30
0.0
 11
54.196899999999999
 21
121.18600000000001
 31
0.0
  0
LINE
  5
C2
  8
_________1
 62
     7
 10
48.363399999999992
 20
121.18600000000001
 30
0.0
 11
48.363399999999992
 21
124.68600000000001
 31
0.0
  0
LINE
  5
C3
  8
_________1
 62
     7
 10
55.779899999999991
 20
121.76900000000001
 30
0.0
 11
55.779899999999991
 21
121.18600000000001
 31
0.0
  0
LINE
  5
C4
  8
_________1
 62
     7
 10
55.779899999999991
 20
121.18600000000001
 30
0.0
 11
46.780200000000001
 21
121.18600000000001
 31
0.0
  0
LINE
  5
C5
  8
_________1
 62
     7
 10
46.780200000000001
 20
121.18600000000001
 30
0.0
 11
46.780200000000001
 21
121.76900000000001
 31
0.0
  0
ENDBLK
  5
C6
  8
_________1
  0
BLOCK
  8
_________1
  2
AIGNBL02010003
 70
     0
 10
0.0
 20
0.0
 30
0.0
  3
AIGNBL02010003
  1

  0
LINE
  5
C9
  8
_________1
 62
     7
 10
149.69499999999999
 20
124.68600000000001
 30
0.0
 11
140.02799999999999
 21
124.68600000000001
 31
0.0
  0
LINE
  5
CA
  8
_________1
 62
     7
 10
140.02799999999999
 20
124.68600000000001
 30
0.0
 11
140.02799999999999
 21
125.35299999999999
 31
0.0
  0
LINE
  5
CB
  8
_________1
 62
     7
 10
140.02799999999999
 20
125.35299999999999
 30
0.0
 11
149.69499999999999
 21
125.35299999999999
 31
0.0
  0
LINE
  5
CC
  8
_________1
 62
     7
 10
149.69499999999999
 20
125.35299999999999
 30
0.0
 11
149.69499999999999
 21
124.68600000000001
 31
0.0
  0
INSERT
  5
CD
  8
_________1
 62
     7
  2
AIGNBL02020004
 10
0.0
 20
0.0
 30
0.0
  0
ENDBLK
  5
CE
  8
_________1
  0
BLOCK
  8
_________1
  2
AIGNBL02010005
 70
     0
 10
0.0
 20
0.0
 30
0.0
  3
AIGNBL02010005
  1

  0
LINE
  5
D1
  8
_________1
 62
     7
 10
58.779899999999998
 20
124.68600000000001
 30
0.0
 11
43.779899999999991
 21
124.68600000000001
 31
0.0
  0
LINE
  5
D2
  8
_________1
 62
     7
 10
43.779899999999991
 20
124.68600000000001
 30
0.0
 11
43.779899999999991
 21
125.35299999999999
 31
0.0
  0
LINE
  5
D3
  8
_________1
 62
     7
 10
43.779899999999991
 20
125.35299999999999
 30
0.0
 11
58.779899999999998
 21
125.35299999999999
 31
0.0
  0
LINE
  5
D4
  8
_________1
 62
     7
 10
58.779899999999998
 20
125.35299999999999
 30
0.0
 11
58.779899999999998
 21
124.68600000000001
 31
0.0
  0
ENDBLK
  5
D5
  8
_________1
  0
BLOCK
  8
_________1
  2
AIGNBL02010006
 70
     0
 10
0.0
 20
0.0
 30
0.0
  3
AIGNBL02010006
  1

  0
LINE
  5
D8
  8
_________1
 62
     7
 10
145.77799999999999
 20
75.017099999999999
 30
0.0
 11
145.77799999999999
 21
45.403199999999998
 31
0.0
  0
LINE
  5
D9
  8
_________1
 62
     7
 10
143.94399999999999
 20
75.315100000000001
 30
0.0
 11
143.94399999999999
 21
45.403199999999998
 31
0.0
  0
LINE
  5
DA
  8
_________1
 62
     7
 10
145.77799999999999
 20
87.1143
 30
0.0
 11
145.77799999999999
 21
75.907300000000006
 31
0.0
  0
LINE
  5
DB
  8
_________1
 62
     7
 10
143.94399999999999
 20
87.1143
 30
0.0
 11
143.94399999999999
 21
76.205299999999994
 31
0.0
  0
ARC
  5
DC
  8
_________1
 62
     7
 10
144.006576
 20
87.113607999999985
 30
0.0
 40
0.062346
 50
131.57177899999999
 51
179.392798
  0
ARC
  5
DD
  8
_________1
 62
     7
 10
144.0925189999999
 20
87.038083
 30
0.0
 40
0.176447
 50
121.680977
 51
136.18154200000001
  0
ARC
  5
DE
  8
_________1
 62
     7
 10
144.21642299999999
 20
86.839543999999989
 30
0.0
 40
0.4104750000000001
 50
111.54794099999999
 51
121.844273
  0
ARC
  5
DF
  8
_________1
 62
     7
 10
144.39357200000001
 20
86.398893999999984
 30
0.0
 40
0.8853959999999999
 50
104.776872
 51
111.737331
  0
ARC
  5
E0
  8
_________1
 62
     7
 10
144.58976999999999
 20
85.668099999999995
 30
0.0
 40
1.6420650000000001
 50
99.724035999999984
 51
104.89256499999991
  0
ARC
  5
E1
  8
_________1
 62
     7
 10
144.820213
 20
84.305970999999985
 30
0.0
 40
3.023547999999999
 50
89.227439000000004
 51
99.668403000000012
  0
ARC
  5
E2
  8
_________1
 62
     7
 10
144.861985
 20
83.835664000000008
 30
0.0
 40
3.4935800000000001
 50
80.549143999999984
 51
90.016480999999985
  0
ARC
  5
E3
  8
_________1
 62
     7
 10
145.22247300000001
 20
86.086833999999996
 30
0.0
 40
1.2138539999999991
 50
67.986217000000011
 51
79.885940000000005
  0
ARC
  5
E4
  8
_________1
 62
     7
 10
145.54828499999999
 20
86.919077999999999
 30
0.0
 40
0.320315
 50
54.008313999999999
 51
66.216633000000002
  0
ARC
  5
E5
  8
_________1
 62
     7
 10
145.661575
 20
87.074021000000016
 30
0.0
 40
0.128375
 50
34.663364999999999
 51
54.279501000000003
  0
ARC
  5
E6
  8
_________1
 62
     7
 10
145.716926
 20
87.112756999999988
 30
0.0
 40
0.060819
 50
1.424656999999999
 51
34.306328000000001
  0
INSERT
  5
E7
  8
_________1
 62
     7
  2
AIGNBL02020007
 10
0.0
 20
0.0
 30
0.0
  0
INSERT
  5
E8
  8
_________1
 62
     7
  2
AIGNBL02020008
 10
0.0
 20
0.0
 30
0.0
  0
ENDBLK
  5
E9
  8
_________1
  0
BLOCK
  8
_________1
  2
AIGNBL02010009
 70
     0
 10
0.0
 20
0.0
 30
0.0
  3
AIGNBL02010009
  1

  0
LINE
  5
EC
  8
_________1
 62
     7
 10
63.6432
 20
65.440299999999993
 30
0.0
 11
58.465699999999991
 21
86.899600000000007
 31
0.0
  0
LINE
  5
ED
  8
_________1
 62
     7
 10
60.247900000000001
 20
87.329599999999999
 30
0.0
 11
65.425399999999996
 21
65.868899999999996
 31
0.0
  0
LINE
  5
EE
  8
_________1
 62
     7
 10
60.328800000000001
 20
87.3489
 30
0.0
 11
58.384700000000002
 21
86.879999999999995
 31
0.0
  0
LINE
  5
EF
  8
_________1
 62
     7
 10
58.384700000000002
 20
86.879999999999995
 30
0.0
 11
57.798400000000001
 21
89.310500000000005
 31
0.0
  0
LINE
  5
F0
  8
_________1
 62
     7
 10
57.798400000000001
 20
89.310500000000005
 30
0.0
 11
59.742800000000003
 21
89.779399999999995
 31
0.0
  0
LINE
  5
F1
  8
_________1
 62
     7
 10
59.742800000000003
 20
89.779399999999995
 30
0.0
 11
60.328800000000001
 21
87.3489
 31
0.0
  0
LINE
  5
F2
  8
_________1
 62
     7
 10
59.985700000000001
 20
89.837999999999994
 30
0.0
 11
57.555500000000002
 21
89.252000000000024
 31
0.0
  0
LINE
  5
F3
  8
_________1
 62
     7
 10
57.555500000000002
 20
89.252000000000024
 30
0.0
 11
56.96909999999999
 21
91.682100000000005
 31
0.0
  0
LINE
  5
F4
  8
_________1
 62
     7
 10
56.96909999999999
 20
91.682100000000005
 30
0.0
 11
59.399299999999997
 21
92.268500000000003
 31
0.0
  0
LINE
  5
F5
  8
_________1
 62
     7
 10
59.399299999999997
 20
92.268500000000003
 30
0.0
 11
59.985700000000001
 21
89.837999999999994
 31
0.0
  0
LINE
  5
F6
  8
_________1
  6
AIGENLINE001
 62
     7
 10
64.534300000000002
 20
65.654600000000002
 30
0.0
 11
53.183
 21
112.706
 31
0.0
  0
LINE
  5
F7
  8
_________1
 62
     7
 10
57.374099999999999
 20
91.780000000000001
 30
0.0
 11
52.337499999999999
 21
112.658
 31
0.0
  0
LINE
  5
F8
  8
_________1
 62
     7
 10
53.957299999999996
 20
113.04900000000001
 30
0.0
 11
58.993999999999993
 21
92.170699999999997
 31
0.0
  0
ENDBLK
  5
F9
  8
_________1
  0
BLOCK
  8
_________1
  2
AIGNBL0201000A
 70
     0
 10
0.0
 20
0.0
 30
0.0
  3
AIGNBL0201000A
  1

  0
LINE
  5
FC
  8
_________1
 62
     7
 10
78.594499999999996
 20
152.39599999999999
 30
0.0
 11
79.187100000000001
 21
150.185
 31
0.0
  0
LINE
  5
FD
  8
_________1
 62
     7
 10
79.187100000000001
 20
150.185
 30
0.0
 11
79.779600000000002
 21
152.39599999999999
 31
0.0
  0
LINE
  5
FE
  8
_________1
 62
     7
 10
79.779600000000002
 20
152.39599999999999
 30
0.0
 11
78.594499999999996
 21
152.39599999999999
 31
0.0
  0
LINE
  5
FF
  8
_________1
 62
     7
 10
79.765100000000004
 20
162.30799999999999
 30
0.0
 11
79.172600000000003
 21
164.52000000000001
 31
0.0
  0
LINE
  5
100
  8
_________1
 62
     7
 10
79.172600000000003
 20
164.52000000000001
 30
0.0
 11
78.579999999999998
 21
162.30799999999999
 31
0.0
  0
LINE
  5
101
  8
_________1
 62
     7
 10
78.579999999999998
 20
162.30799999999999
 30
0.0
 11
79.765100000000004
 21
162.30799999999999
 31
0.0
  0
LINE
  5
102
  8
_________1
 62
     7
 10
79.1798
 20
150.18600000000001
 30
0.0
 11
79.1798
 21
164.51900000000001
 31
0.0
  0
ENDBLK
  5
103
  8
_________1
  0
BLOCK
  8
_________1
  2
AIGNBL0201000B
 70
     0
 10
0.0
 20
0.0
 30
0.0
  3
AIGNBL0201000B
  1

  0
LINE
  5
106
  8
_________1
 62
     7
 10
86.503100000000003
 20
162.30799999999999
 30
0.0
 11
85.910499999999999
 21
164.52000000000001
 31
0.0
  0
LINE
  5
107
  8
_________1
 62
     7
 10
85.910499999999999
 20
164.52000000000001
 30
0.0
 11
85.317999999999998
 21
162.30799999999999
 31
0.0
  0
LINE
  5
108
  8
_________1
 62
     7
 10
85.317999999999998
 20
162.30799999999999
 30
0.0
 11
86.503100000000003
 21
162.30799999999999
 31
0.0
  0
LINE
  5
109
  8
_________1
 62
     7
 10
85.332499999999996
 20
132.56299999999999
 30
0.0
 11
85.924999999999983
 21
130.351
 31
0.0
  0
LINE
  5
10A
  8
_________1
 62
     7
 10
85.924999999999983
 20
130.351
 30
0.0
 11
86.517600000000016
 21
132.56299999999999
 31
0.0
  0
LINE
  5
10B
  8
_________1
 62
     7
 10
86.517600000000016
 20
132.56299999999999
 30
0.0
 11
85.332499999999996
 21
132.56299999999999
 31
0.0
  0
LINE
  5
10C
  8
_________1
 62
     7
 10
62.946800000000003
 20
175.75399999999999
 30
0.0
 11
62.946800000000003
 21
165.15700000000001
 31
0.0
  0
INSERT
  5
10D
  8
_________1
 62
     7
  2
AIGNBL0202000C
 10
0.0
 20
0.0
 30
0.0
  0
LINE
  5
10E
  8
_________1
 62
     7
 10
68.709100000000007
 20
160.42699999999999
 30
0.0
 11
68.709100000000007
 21
136.68299999999999
 31
0.0
  0
LINE
  5
10F
  8
_________1
 62
     7
 10
85.917799999999986
 20
164.51900000000001
 30
0.0
 11
85.917799999999986
 21
130.352
 31
0.0
  0
ENDBLK
  5
110
  8
_________1
  0
BLOCK
  8
_________1
  2
AIGNBL0201000D
 70
     0
 10
0.0
 20
0.0
 30
0.0
  3
AIGNBL0201000D
  1

  0
LINE
  5
113
  8
_________1
 62
     7
 10
142.488
 20
136.64500000000001
 30
0.0
 11
140.27799999999999
 21
136.053
 31
0.0
  0
LINE
  5
114
  8
_________1
 62
     7
 10
140.27799999999999
 20
136.053
 30
0.0
 11
142.488
 21
135.46000000000001
 31
0.0
  0
LINE
  5
115
  8
_________1
 62
     7
 10
142.488
 20
135.46000000000001
 30
0.0
 11
142.488
 21
136.64500000000001
 31
0.0
  0
LINE
  5
116
  8
_________1
 62
     7
 10
147.23400000000001
 20
135.47499999999999
 30
0.0
 11
149.44399999999999
 21
136.06700000000001
 31
0.0
  0
LINE
  5
117
  8
_________1
 62
     7
 10
149.44399999999999
 20
136.06700000000001
 30
0.0
 11
147.23400000000001
 21
136.66
 31
0.0
  0
LINE
  5
118
  8
_________1
 62
     7
 10
147.23400000000001
 20
136.66
 30
0.0
 11
147.23400000000001
 21
135.47499999999999
 31
0.0
  0
LINE
  5
119
  8
_________1
 62
     7
 10
140.27799999999999
 20
136.06
 30
0.0
 11
155.994
 21
136.06
 31
0.0
  0
ENDBLK
  5
11A
  8
_________1
  0
BLOCK
  8
_________1
  2
AIGNBL0201000E
 70
     0
 10
0.0
 20
0.0
 30
0.0
  3
AIGNBL0201000E
  1

  0
LINE
  5
11D
  8
_________1
 62
     7
 10
102.443
 20
165.642
 30
0.0
 11
101.851
 21
167.85400000000001
 31
0.0
  0
LINE
  5
11E
  8
_________1
 62
     7
 10
101.851
 20
167.85400000000001
 30
0.0
 11
101.258
 21
165.642
 31
0.0
  0
LINE
  5
11F
  8
_________1
 62
     7
 10
101.258
 20
165.642
 30
0.0
 11
102.443
 21
165.642
 31
0.0
  0
LINE
  5
120
  8
_________1
 62
     7
 10
101.858
 20
130.351
 30
0.0
 11
101.858
 21
167.852
 31
0.0
  0
ENDBLK
  5
121
  8
_________1
  0
BLOCK
  8
_________1
  2
AIGNBL0201000F
 70
     0
 10
0.0
 20
0.0
 30
0.0
  3
AIGNBL0201000F
  1

  0
LINE
  5
124
  8
_________1
 62
     7
 10
139.90000000000001
 20
125.654
 30
0.0
 11
142.11199999999999
 21
126.247
 31
0.0
  0
LINE
  5
125
  8
_________1
 62
     7
 10
142.11199999999999
 20
126.247
 30
0.0
 11
139.90000000000001
 21
126.84099999999999
 31
0.0
  0
LINE
  5
126
  8
_________1
 62
     7
 10
139.90000000000001
 20
126.84099999999999
 30
0.0
 11
139.90000000000001
 21
125.654
 31
0.0
  0
LINE
  5
127
  8
_________1
 62
     7
 10
149.82299999999989
 20
126.84
 30
0.0
 11
147.61099999999999
 21
126.247
 31
0.0
  0
LINE
  5
128
  8
_________1
 62
     7
 10
147.61099999999999
 20
126.247
 30
0.0
 11
149.82299999999989
 21
125.654
 31
0.0
  0
LINE
  5
129
  8
_________1
 62
     7
 10
149.82299999999989
 20
125.654
 30
0.0
 11
149.82299999999989
 21
126.84
 31
0.0
  0
LINE
  5
12A
  8
_________1
 62
     7
 10
155.27500000000001
 20
126.247
 30
0.0
 11
138.751
 21
126.247
 31
0.0
  0
ENDBLK
  5
12B
  8
_________1
  0
BLOCK
  8
_________1
  2
AIGNBL02010010
 70
     0
 10
0.0
 20
0.0
 30
0.0
  3
AIGNBL02010010
  1

  0
LINE
  5
12E
  8
_________1
 62
     7
 10
146.31700000000001
 20
140.19300000000001
 30
0.0
 11
148.529
 21
140.786
 31
0.0
  0
LINE
  5
12F
  8
_________1
 62
     7
 10
148.529
 20
140.786
 30
0.0
 11
146.31700000000001
 21
141.37799999999999
 31
0.0
  0
LINE
  5
130
  8
_________1
 62
     7
 10
146.31700000000001
 20
141.37799999999999
 30
0.0
 11
146.31700000000001
 21
140.19300000000001
 31
0.0
  0
LINE
  5
131
  8
_________1
 62
     7
 10
143.405
 20
141.364
 30
0.0
 11
141.19300000000001
 21
140.77099999999999
 31
0.0
  0
LINE
  5
132
  8
_________1
 62
     7
 10
141.19300000000001
 20
140.77099999999999
 30
0.0
 11
143.405
 21
140.178
 31
0.0
  0
LINE
  5
133
  8
_________1
 62
     7
 10
143.405
 20
140.178
 30
0.0
 11
143.405
 21
141.364
 31
0.0
  0
LINE
  5
134
  8
_________1
 62
     7
 10
148.52799999999999
 20
140.77799999999999
 30
0.0
 11
134.18799999999999
 21
140.77799999999999
 31
0.0
  0
ENDBLK
  5
135
  8
_________1
  0
BLOCK
  8
_________1
  2
AIGNBL02010011
 70
     0
 10
0.0
 20
0.0
 30
0.0
  3
AIGNBL02010011
  1

  0
LINE
  5
138
  8
_________1
 62
     7
 10
154.31700000000001
 20
143.62200000000001
 30
0.0
 11
156.529
 21
144.214
 31
0.0
  0
LINE
  5
139
  8
_________1
 62
     7
 10
156.529
 20
144.214
 30
0.0
 11
154.31700000000001
 21
144.80699999999999
 31
0.0
  0
LINE
  5
13A
  8
_________1
 62
     7
 10
154.31700000000001
 20
144.80699999999999
 30
0.0
 11
154.31700000000001
 21
143.62200000000001
 31
0.0
  0
LINE
  5
13B
  8
_________1
 62
     7
 10
147.071
 20
144.792
 30
0.0
 11
144.86000000000001
 21
144.19999999999999
 31
0.0
  0
LINE
  5
13C
  8
_________1
 62
     7
 10
144.86000000000001
 20
144.19999999999999
 30
0.0
 11
147.071
 21
143.607
 31
0.0
  0
LINE
  5
13D
  8
_________1
 62
     7
 10
147.071
 20
143.607
 30
0.0
 11
147.071
 21
144.792
 31
0.0
  0
LINE
  5
13E
  8
_________1
 62
     7
 10
156.52799999999999
 20
144.20699999999999
 30
0.0
 11
144.86099999999999
 21
144.20699999999999
 31
0.0
  0
ENDBLK
  5
13F
  8
_________1
  0
BLOCK
  8
_________1
  2
AIGNBL02010012
 70
     0
 10
0.0
 20
0.0
 30
0.0
  3
AIGNBL02010012
  1

  0
LINE
  5
142
  8
_________1
 62
     7
 10
66.4983
 20
136.798
 30
0.0
 11
68.710099999999997
 21
137.39099999999999
 31
0.0
  0
LINE
  5
143
  8
_________1
 62
     7
 10
68.710099999999997
 20
137.39099999999999
 30
0.0
 11
66.4983
 21
137.983
 31
0.0
  0
LINE
  5
144
  8
_________1
 62
     7
 10
66.4983
 20
137.983
 30
0.0
 11
66.4983
 21
136.798
 31
0.0
  0
LINE
  5
145
  8
_________1
 62
     7
 10
53.490600000000001
 20
137.96899999999999
 30
0.0
 11
51.278799999999997
 21
137.376
 31
0.0
  0
LINE
  5
146
  8
_________1
 62
     7
 10
51.278799999999997
 20
137.376
 30
0.0
 11
53.490600000000001
 21
136.78299999999999
 31
0.0
  0
LINE
  5
147
  8
_________1
 62
     7
 10
53.490600000000001
 20
136.78299999999999
 30
0.0
 11
53.490600000000001
 21
137.96899999999999
 31
0.0
  0
LINE
  5
148
  8
_________1
 62
     7
 10
68.709100000000007
 20
137.38300000000001
 30
0.0
 11
51.279899999999998
 21
137.38300000000001
 31
0.0
  0
ENDBLK
  5
149
  8
_________1
  0
BLOCK
  8
_________1
  2
AIGNBL02010013
 70
     0
 10
0.0
 20
0.0
 30
0.0
  3
AIGNBL02010013
  1

  0
LINE
  5
14C
  8
_________1
 62
     7
 10
142.649
 20
166.125
 30
0.0
 11
144.86099999999999
 21
166.71799999999999
 31
0.0
  0
LINE
  5
14D
  8
_________1
 62
     7
 10
144.86099999999999
 20
166.71799999999999
 30
0.0
 11
142.649
 21
167.31100000000001
 31
0.0
  0
LINE
  5
14E
  8
_________1
 62
     7
 10
142.649
 20
167.31100000000001
 30
0.0
 11
142.649
 21
166.125
 31
0.0
  0
LINE
  5
14F
  8
_________1
 62
     7
 10
140.649
 20
176.679
 30
0.0
 11
142.86099999999999
 21
177.27199999999999
 31
0.0
  0
LINE
  5
150
  8
_________1
 62
     7
 10
142.86099999999999
 20
177.27199999999999
 30
0.0
 11
140.649
 21
177.86500000000001
 31
0.0
  0
LINE
  5
151
  8
_________1
 62
     7
 10
140.649
 20
177.86500000000001
 30
0.0
 11
140.649
 21
176.679
 31
0.0
  0
LINE
  5
152
  8
_________1
 62
     7
 10
147.07300000000001
 20
167.31100000000001
 30
0.0
 11
144.86099999999999
 21
166.71799999999999
 31
0.0
  0
LINE
  5
153
  8
_________1
 62
     7
 10
144.86099999999999
 20
166.71799999999999
 30
0.0
 11
147.07300000000001
 21
166.125
 31
0.0
  0
LINE
  5
154
  8
_________1
 62
     7
 10
147.07300000000001
 20
166.125
 30
0.0
 11
147.07300000000001
 21
167.31100000000001
 31
0.0
  0
LINE
  5
155
  8
_________1
 62
     7
 10
149.07300000000001
 20
177.86500000000001
 30
0.0
 11
146.86099999999999
 21
177.27199999999999
 31
0.0
  0
LINE
  5
156
  8
_________1
 62
     7
 10
146.86099999999999
 20
177.27199999999999
 30
0.0
 11
149.07300000000001
 21
176.679
 31
0.0
  0
LINE
  5
157
  8
_________1
 62
     7
 10
149.07300000000001
 20
176.679
 30
0.0
 11
149.07300000000001
 21
177.86500000000001
 31
0.0
  0
LINE
  5
158
  8
_________1
 62
     7
 10
150.73599999999999
 20
177.27199999999999
 30
0.0
 11
133.88
 21
177.27199999999999
 31
0.0
  0
ENDBLK
  5
159
  8
_________1
  0
BLOCK
  8
_________1
  2
AIGNBL02010014
 70
     0
 10
0.0
 20
0.0
 30
0.0
  3
AIGNBL02010014
  1

  0
LINE
  5
15C
  8
_________1
 62
     7
 10
142.65100000000001
 20
221.30600000000001
 30
0.0
 11
144.86199999999999
 21
221.899
 31
0.0
  0
LINE
  5
15D
  8
_________1
 62
     7
 10
144.86199999999999
 20
221.899
 30
0.0
 11
142.65100000000001
 21
222.49199999999999
 31
0.0
  0
LINE
  5
15E
  8
_________1
 62
     7
 10
142.65100000000001
 20
222.49199999999999
 30
0.0
 11
142.65100000000001
 21
221.30600000000001
 31
0.0
  0
LINE
  5
15F
  8
_________1
 62
     7
 10
111.239
 20
222.477
 30
0.0
 11
109.027
 21
221.88399999999999
 31
0.0
  0
LINE
  5
160
  8
_________1
 62
     7
 10
109.027
 20
221.88399999999999
 30
0.0
 11
111.239
 21
221.292
 31
0.0
  0
LINE
  5
161
  8
_________1
 62
     7
 10
111.239
 20
221.292
 30
0.0
 11
111.239
 21
222.477
 31
0.0
  0
LINE
  5
162
  8
_________1
 62
     7
 10
144.86099999999999
 20
221.892
 30
0.0
 11
109.029
 21
221.892
 31
0.0
  0
ENDBLK
  5
163
  8
_________1
  0
BLOCK
  8
_________1
  2
AIGNBL02010015
 70
     0
 10
0.0
 20
0.0
 30
0.0
  3
AIGNBL02010015
  1

  0
LINE
  5
166
  8
_________1
 62
     7
 10
142.65100000000001
 20
213.964
 30
0.0
 11
144.86199999999999
 21
214.55600000000001
 31
0.0
  0
LINE
  5
167
  8
_________1
 62
     7
 10
144.86199999999999
 20
214.55600000000001
 30
0.0
 11
142.65100000000001
 21
215.149
 31
0.0
  0
LINE
  5
168
  8
_________1
 62
     7
 10
142.65100000000001
 20
215.149
 30
0.0
 11
142.65100000000001
 21
213.964
 31
0.0
  0
LINE
  5
169
  8
_________1
 62
     7
 10
113.738
 20
215.13399999999999
 30
0.0
 11
111.526
 21
214.542
 31
0.0
  0
LINE
  5
16A
  8
_________1
 62
     7
 10
111.526
 20
214.542
 30
0.0
 11
113.738
 21
213.94900000000001
 31
0.0
  0
LINE
  5
16B
  8
_________1
 62
     7
 10
113.738
 20
213.94900000000001
 30
0.0
 11
113.738
 21
215.13399999999999
 31
0.0
  0
LINE
  5
16C
  8
_________1
 62
     7
 10
144.86099999999999
 20
214.54900000000001
 30
0.0
 11
111.527
 21
214.54900000000001
 31
0.0
  0
ENDBLK
  5
16D
  8
_________1
  0
BLOCK
  8
_________1
  2
AIGNBL02010016
 70
     0
 10
0.0
 20
0.0
 30
0.0
  3
AIGNBL02010016
  1

  0
LINE
  5
170
  8
_________1
 62
     7
 10
157.02699999999999
 20
160.72
 30
0.0
 11
158.72900000000001
 21
159.19
 31
0.0
  0
LINE
  5
171
  8
_________1
 62
     7
 10
158.72900000000001
 20
159.19
 30
0.0
 11
158.02000000000001
 21
161.36600000000001
 31
0.0
  0
LINE
  5
172
  8
_________1
 62
     7
 10
158.02000000000001
 20
161.36600000000001
 30
0.0
 11
157.02699999999999
 21
160.72
 31
0.0
  0
LINE
  5
173
  8
_________1
 62
     7
 10
131.703
 20
161.36600000000001
 30
0.0
 11
130.994
 21
159.191
 31
0.0
  0
LINE
  5
174
  8
_________1
 62
     7
 10
130.994
 20
159.191
 30
0.0
 11
132.696
 21
160.72
 31
0.0
  0
LINE
  5
175
  8
_________1
 62
     7
 10
132.696
 20
160.72
 30
0.0
 11
131.703
 21
161.36600000000001
 31
0.0
  0
ARC
  5
176
  8
_________1
 62
     7
 10
144.68285499999999
 20
149.85251400000001
 30
0.0
 40
16.866436
 50
33.616306000000002
 51
89.394885000000016
  0
ARC
  5
177
  8
_________1
 62
     7
 10
145.026251
 20
149.876408
 30
0.0
 40
16.842411999999999
 50
90.562231999999995
 51
146.425532
  0
ENDBLK
  5
178
  8
_________1
  0
BLOCK
  8
_________1
  2
AIGNBL02010017
 70
     0
 10
0.0
 20
0.0
 30
0.0
  3
AIGNBL02010017
  1

  0
LINE
  5
17B
  8
_________1
 62
     7
 10
42.033200000000001
 20
229.65600000000001
 30
0.0
 11
39.812100000000001
 21
230.21199999999999
 31
0.0
  0
LINE
  5
17C
  8
_________1
 62
     7
 10
39.812100000000001
 20
230.21199999999999
 30
0.0
 11
41.457500000000003
 21
228.62
 31
0.0
  0
LINE
  5
17D
  8
_________1
 62
     7
 10
41.457500000000003
 20
228.62
 30
0.0
 11
42.033200000000001
 21
229.65600000000001
 31
0.0
  0
LINE
  5
17E
  8
_________1
 62
     7
 10
60.888300000000001
 20
228.52600000000001
 30
0.0
 11
62.548900000000003
 21
230.10300000000001
 31
0.0
  0
LINE
  5
17F
  8
_________1
 62
     7
 10
62.548900000000003
 20
230.10300000000001
 30
0.0
 11
60.322600000000001
 21
229.56800000000001
 31
0.0
  0
LINE
  5
180
  8
_________1
 62
     7
 10
60.322600000000001
 20
229.56800000000001
 30
0.0
 11
60.888300000000001
 21
228.52600000000001
 31
0.0
  0
ARC
  5
181
  8
_________1
 62
     7
 10
51.273264000000012
 20
250.898822
 30
0.0
 40
23.649241
 50
241.01174399999999
 51
270.01604200000003
  0
ARC
  5
182
  8
_________1
 62
     7
 10
51.249697999999988
 20
251.04773
 30
0.0
 40
23.798168
 50
270.07267899999999
 51
298.34576600000003
  0
ENDBLK
  5
183
  8
_________1
  0
BLOCK
  8
_________1
  2
AIGNBL02010018
 70
     0
 10
0.0
 20
0.0
 30
0.0
  3
AIGNBL02010018
  1

  0
ARC
  5
186
  8
_________1
  6
AIGENLINE002
 62
     7
 10
133.80436399999999
 20
157.39191
 30
0.0
 40
0.605961
 50
149.110658
 51
234.89835199999999
  0
ARC
  5
187
  8
_________1
  6
AIGENLINE002
 62
     7
 10
133.78010900000001
 20
157.35455300000001
 30
0.0
 40
0.605962
 50
59.110684999999989
 51
144.89830499999999
  0
LINE
  5
188
  8
_________1
 62
     7
 10
132.71899999999999
 20
158.06999999999999
 30
0.0
 11
130.655
 21
159.411
 31
0.0
  0
LINE
  5
189
  8
_________1
  6
AIGENLINE001
 62
     7
 10
144.86099999999999
 20
150.185
 30
0.0
 11
132.92699999999999
 21
157.935
 31
0.0
  0
LINE
  5
18A
  8
_________1
  6
AIGENLINE002
 62
     7
 10
141.25700000000001
 20
151.83000000000001
 30
0.0
 11
133.45599999999999
 21
156.89599999999999
 31
0.0
  0
LINE
  5
18B
  8
_________1
  6
AIGENLINE002
 62
     7
 10
134.09100000000001
 20
157.875
 30
0.0
 11
141.893
 21
152.80799999999999
 31
0.0
  0
ENDBLK
  5
18C
  8
_________1
  0
BLOCK
  8
_________1
  2
AIGNBL02010019
 70
     0
 10
0.0
 20
0.0
 30
0.0
  3
AIGNBL02010019
  1

  0
ARC
  5
18F
  8
_________1
  6
AIGENLINE002
 62
     7
 10
155.91759500000001
 20
157.39191
 30
0.0
 40
0.605962
 50
305.10168499999997
 51
30.889305
  0
ARC
  5
190
  8
_________1
  6
AIGENLINE002
 62
     7
 10
155.94184999999999
 20
157.35455300000001
 30
0.0
 40
0.605962
 50
35.101675
 51
120.889295
  0
LINE
  5
191
  8
_________1
 62
     7
 10
157.00299999999999
 20
158.06999999999999
 30
0.0
 11
159.006
 21
159.37100000000001
 31
0.0
  0
LINE
  5
192
  8
_________1
  6
AIGENLINE001
 62
     7
 10
144.86099999999999
 20
150.185
 30
0.0
 11
156.79499999999999
 21
157.935
 31
0.0
  0
LINE
  5
193
  8
_________1
  6
AIGENLINE002
 62
     7
 10
148.465
 20
151.83000000000001
 30
0.0
 11
156.26599999999999
 21
156.89599999999999
 31
0.0
  0
LINE
  5
194
  8
_________1
  6
AIGENLINE002
 62
     7
 10
155.631
 20
157.875
 30
0.0
 11
147.83000000000001
 21
152.80799999999999
 31
0.0
  0
ENDBLK
  5
195
  8
_________1
  0
BLOCK
  8
_________1
  2
AIGNBL0201001A
 70
     0
 10
0.0
 20
0.0
 30
0.0
  3
AIGNBL0201001A
  1

  0
LINE
  5
198
  8
_________1
 62
     7
 10
168.44999999999999
 20
155.756
 30
0.0
 11
167.857
 21
157.96799999999999
 31
0.0
  0
LINE
  5
199
  8
_________1
 62
     7
 10
167.857
 20
157.96799999999999
 30
0.0
 11
167.26499999999999
 21
155.756
 31
0.0
  0
LINE
  5
19A
  8
_________1
 62
     7
 10
167.26499999999999
 20
155.756
 30
0.0
 11
168.44999999999999
 21
155.756
 31
0.0
  0
LINE
  5
19B
  8
_________1
 62
     7
 10
167.279
 20
132.56299999999999
 30
0.0
 11
167.87200000000001
 21
130.351
 31
0.0
  0
LINE
  5
19C
  8
_________1
 62
     7
 10
167.87200000000001
 20
130.351
 30
0.0
 11
168.464
 21
132.56299999999999
 31
0.0
  0
LINE
  5
19D
  8
_________1
 62
     7
 10
168.464
 20
132.56299999999999
 30
0.0
 11
167.279
 21
132.56299999999999
 31
0.0
  0
LINE
  5
19E
  8
_________1
 62
     7
 10
167.864
 20
157.96700000000001
 30
0.0
 11
167.864
 21
130.352
 31
0.0
  0
LINE
  5
19F
  8
_________1
 62
     7
 10
174.21199999999999
 20
206.309
 30
0.0
 11
173.619
 21
208.52099999999999
 31
0.0
  0
LINE
  5
1A0
  8
_________1
 62
     7
 10
173.619
 20
208.52099999999999
 30
0.0
 11
173.02699999999999
 21
206.309
 31
0.0
  0
LINE
  5
1A1
  8
_________1
 62
     7
 10
173.02699999999999
 20
206.309
 30
0.0
 11
174.21199999999999
 21
206.309
 31
0.0
  0
LINE
  5
1A2
  8
_________1
 62
     7
 10
101.265
 20
132.56299999999999
 30
0.0
 11
101.858
 21
130.351
 31
0.0
  0
LINE
  5
1A3
  8
_________1
 62
     7
 10
101.858
 20
130.351
 30
0.0
 11
102.45099999999999
 21
132.56299999999999
 31
0.0
  0
LINE
  5
1A4
  8
_________1
 62
     7
 10
102.45099999999999
 20
132.56299999999999
 30
0.0
 11
101.265
 21
132.56299999999999
 31
0.0
  0
LINE
  5
1A5
  8
_________1
 62
     7
 10
173.041
 20
132.56299999999999
 30
0.0
 11
173.63399999999999
 21
130.351
 31
0.0
  0
LINE
  5
1A6
  8
_________1
 62
     7
 10
173.63399999999999
 20
130.351
 30
0.0
 11
174.226
 21
132.56299999999999
 31
0.0
  0
LINE
  5
1A7
  8
_________1
 62
     7
 10
174.226
 20
132.56299999999999
 30
0.0
 11
173.041
 21
132.56299999999999
 31
0.0
  0
LINE
  5
1A8
  8
_________1
 62
     7
 10
173.62599999999989
 20
208.52000000000001
 30
0.0
 11
173.62599999999989
 21
130.352
 31
0.0
  0
ENDBLK
  5
1A9
  8
_________1
  0
BLOCK
  8
_________1
  2
AIGNBL0201001B
 70
     0
 10
0.0
 20
0.0
 30
0.0
  3
AIGNBL0201001B
  1

  0
LINE
  5
1AC
  8
_________1
 62
     7
 10
105.676
 20
171.81299999999999
 30
0.0
 11
106.268
 21
169.602
 31
0.0
  0
LINE
  5
1AD
  8
_________1
 62
     7
 10
106.268
 20
169.602
 30
0.0
 11
106.861
 21
171.81299999999999
 31
0.0
  0
LINE
  5
1AE
  8
_________1
 62
     7
 10
106.861
 20
171.81299999999999
 30
0.0
 11
105.676
 21
171.81299999999999
 31
0.0
  0
LINE
  5
1AF
  8
_________1
 62
     7
 10
106.261
 20
192.45400000000001
 30
0.0
 11
106.261
 21
169.60300000000001
 31
0.0
  0
ENDBLK
  5
1B0
  8
_________1
  0
BLOCK
  8
_________1
  2
AIGNBL0201001C
 70
     0
 10
0.0
 20
0.0
 30
0.0
  3
AIGNBL0201001C
  1

  0
LINE
  5
1B3
  8
_________1
 62
     7
 10
66.7988
 20
166.67599999999999
 30
0.0
 11
69.053600000000003
 21
166.27699999999999
 31
0.0
  0
LINE
  5
1B4
  8
_________1
 62
     7
 10
69.053600000000003
 20
166.27699999999999
 30
0.0
 11
67.300399999999996
 21
167.75
 31
0.0
  0
LINE
  5
1B5
  8
_________1
 62
     7
 10
67.300399999999996
 20
167.75
 30
0.0
 11
66.7988
 21
166.67599999999999
 31
0.0
  0
LINE
  5
1B6
  8
_________1
 62
     7
 10
63.658499999999997
 20
168.55199999999999
 30
0.0
 11
61.44680000000001
 21
167.959
 31
0.0
  0
LINE
  5
1B7
  8
_________1
 62
     7
 10
61.44680000000001
 20
167.959
 30
0.0
 11
63.658499999999997
 21
167.36600000000001
 31
0.0
  0
LINE
  5
1B8
  8
_________1
 62
     7
 10
63.658499999999997
 20
167.36600000000001
 30
0.0
 11
63.658499999999997
 21
168.55199999999999
 31
0.0
  0
ARC
  5
1B9
  8
_________1
 62
     7
 10
61.460397
 20
149.97965300000001
 30
0.0
 40
17.979465000000001
 50
65.018489999999986
 51
90.043423999999973
  0
ENDBLK
  5
1BA
  8
_________1
  0
BLOCK
  8
_________1
  2
AIGNBL0201001D
 70
     0
 10
0.0
 20
0.0
 30
0.0
  3
AIGNBL0201001D
  1

  0
INSERT
  5
1BD
  8
_________1
 62
     7
  2
AIGNBL0202001E
 10
0.0
 20
0.0
 30
0.0
  0
ENDBLK
  5
1BE
  8
_________1
  0
BLOCK
  8
_________1
  2
AIGNBL02010020
 70
     0
 10
0.0
 20
0.0
 30
0.0
  3
AIGNBL02010020
  1

  0
LINE
  5
1C1
  8
_________1
 62
     7
 10
86.503600000000006
 20
128.14099999999999
 30
0.0
 11
85.911100000000005
 21
130.35300000000001
 31
0.0
  0
LINE
  5
1C2
  8
_________1
 62
     7
 10
85.911100000000005
 20
130.35300000000001
 30
0.0
 11
85.3185
 21
128.14099999999999
 31
0.0
  0
LINE
  5
1C3
  8
_________1
 62
     7
 10
85.3185
 20
128.14099999999999
 30
0.0
 11
86.503600000000006
 21
128.14099999999999
 31
0.0
  0
LINE
  5
1C4
  8
_________1
 62
     7
 10
85.332999999999998
 20
47.615000000000002
 30
0.0
 11
85.925500000000014
 21
45.403199999999998
 31
0.0
  0
LINE
  5
1C5
  8
_________1
 62
     7
 10
85.925500000000014
 20
45.403199999999998
 30
0.0
 11
86.518100000000004
 21
47.615000000000002
 31
0.0
  0
LINE
  5
1C6
  8
_________1
 62
     7
 10
86.518100000000004
 20
47.615000000000002
 30
0.0
 11
85.332999999999998
 21
47.615000000000002
 31
0.0
  0
LINE
  5
1C7
  8
_________1
 62
     7
 10
85.918299999999988
 20
130.352
 30
0.0
 11
85.918299999999988
 21
45.404600000000002
 31
0.0
  0
ENDBLK
  5
1C8
  8
_________1
  0
BLOCK
  8
_________1
  2
AIGNBL02010021
 70
     0
 10
0.0
 20
0.0
 30
0.0
  3
AIGNBL02010021
  1

  0
INSERT
  5
1CB
  8
_________1
 62
     7
  2
AIGNBL02020022
 10
0.0
 20
0.0
 30
0.0
  0
ENDBLK
  5
1CC
  8
_________1
  0
BLOCK
  8
_________1
  2
AIGNBL02010023
 70
     0
 10
0.0
 20
0.0
 30
0.0
  3
AIGNBL02010023
  1

  0
INSERT
  5
1CF
  8
_________1
 62
     7
  2
AIGNBL02020024
 10
0.0
 20
0.0
 30
0.0
  0
ENDBLK
  5
1D0
  8
_________1
  0
BLOCK
  8
_________1
  2
AIGNBL02010026
 70
     0
 10
0.0
 20
0.0
 30
0.0
  3
AIGNBL02010026
  1

  0
INSERT
  5
1D3
  8
_________1
 62
     7
  2
AIGNBL02020027
 10
0.0
 20
0.0
 30
0.0
  0
ENDBLK
  5
1D4
  8
_________1
  0
BLOCK
  8
_________1
  2
AIGNBL02010028
 70
     0
 10
0.0
 20
0.0
 30
0.0
  3
AIGNBL02010028
  1

  0
LINE
  5
1D7
  8
_________1
 62
     7
 10
150.16300000000001
 20
256.19299999999998
 30
0.0
 11
138.79499999999999
 21
244.82499999999999
 31
0.0
  0
ENDBLK
  5
1D8
  8
_________1
  0
BLOCK
  8
_________2
  2
AIGNBL03010002
 70
     0
 10
0.0
 20
0.0
 30
0.0
  3
AIGNBL03010002
  1

  0
LINE
  5
1DB
  8
_________2
 62
     7
 10
76.740700000000004
 20
29.8047
 30
0.0
 11
74.554400000000001
 21
29.8047
 31
0.0
  0
LINE
  5
1DC
  8
_________2
 62
     7
 10
77.2333
 20
29.8047
 30
0.0
 11
76.981099999999984
 21
29.8047
 31
0.0
  0
LINE
  5
1DD
  8
_________2
 62
     7
 10
77.725999999999999
 20
29.8047
 30
0.0
 11
80.650899999999993
 21
29.8047
 31
0.0
  0
LINE
  5
1DE
  8
_________2
 62
     7
 10
77.2333
 20
29.8047
 30
0.0
 11
77.485500000000002
 21
29.8047
 31
0.0
  0
LINE
  5
1DF
  8
_________2
 62
     7
 10
70.837100000000007
 20
29.8047
 30
0.0
 11
68.650199999999998
 21
29.8047
 31
0.0
  0
LINE
  5
1E0
  8
_________2
 62
     7
 10
71.329099999999997
 20
29.8047
 30
0.0
 11
71.077600000000004
 21
29.8047
 31
0.0
  0
LINE
  5
1E1
  8
_________2
 62
     7
 10
71.329099999999997
 20
30.2974
 30
0.0
 11
71.329099999999997
 21
32.484400000000001
 31
0.0
  0
LINE
  5
1E2
  8
_________2
 62
     7
 10
71.329099999999997
 20
29.8047
 30
0.0
 11
71.329099999999997
 21
30.057300000000001
 31
0.0
  0
LINE
  5
1E3
  8
_________2
 62
     7
 10
71.821700000000007
 20
29.8047
 30
0.0
 11
74.008700000000005
 21
29.8047
 31
0.0
  0
LINE
  5
1E4
  8
_________2
 62
     7
 10
71.329099999999997
 20
29.8047
 30
0.0
 11
71.581299999999985
 21
29.8047
 31
0.0
  0
LINE
  5
1E5
  8
_________2
 62
     7
 10
71.329099999999997
 20
29.312799999999999
 30
0.0
 11
71.329099999999997
 21
27.126200000000001
 31
0.0
  0
LINE
  5
1E6
  8
_________2
 62
     7
 10
71.329099999999997
 20
29.8047
 30
0.0
 11
71.329099999999997
 21
29.5532
 31
0.0
  0
LINE
  5
1E7
  8
_________2
 62
     7
 10
75.040199999999999
 20
28.5852
 30
0.0
 11
80.218199999999996
 21
27.720400000000001
 31
0.0
  0
LINE
  5
1E8
  8
_________2
 62
     7
 10
75.040199999999999
 20
31.024699999999999
 30
0.0
 11
80.218199999999996
 21
31.8901
 31
0.0
  0
LINE
  5
1E9
  8
_________2
 62
     7
 10
80.218199999999996
 20
27.720400000000001
 30
0.0
 11
80.218199999999996
 21
31.8901
 31
0.0
  0
LINE
  5
1EA
  8
_________2
 62
     7
 10
75.040199999999999
 20
28.5852
 30
0.0
 11
75.040199999999999
 21
31.024699999999999
 31
0.0
  0
ARC
  5
1EB
  8
_________2
 62
     7
 10
71.282501999999994
 20
29.757801000000001
 30
0.0
 40
1.267714
 50
2.1220840000000001
 51
87.894083999999992
  0
ARC
  5
1EC
  8
_________2
 62
     7
 10
71.375640000000004
 20
29.758545999999999
 30
0.0
 40
1.2669680000000001
 50
92.105782999999988
 51
177.91037
  0
ARC
  5
1ED
  8
_________2
 62
     7
 10
71.376013999999998
 20
29.851671
 30
0.0
 40
1.2673680000000001
 50
182.12203600000001
 51
267.877993
  0
ARC
  5
1EE
  8
_________2
 62
     7
 10
71.282195999999999
 20
29.852347999999999
 30
0.0
 40
1.2680439999999991
 50
272.11916400000001
 51
357.84848499999998
  0
ARC
  5
1EF
  8
_________2
 62
     7
 10
71.248716999999985
 20
29.724731999999999
 30
0.0
 40
2.1668310000000002
 50
2.1161439999999989
 51
87.874379000000005
  0
ARC
  5
1F0
  8
_________2
 62
     7
 10
71.408756000000011
 20
29.726146
 30
0.0
 40
2.165392999999999
 50
92.108508999999998
 51
177.91986499999999
  0
ARC
  5
1F1
  8
_________2
 62
     7
 10
71.409094999999994
 20
29.884751999999999
 30
0.0
 40
2.1657829999999998
 50
182.117133
 51
267.88289700000001
  0
ARC
  5
1F2
  8
_________2
 62
     7
 10
71.249115000000003
 20
29.885429999999999
 30
0.0
 40
2.1664590000000001
 50
272.11546800000002
 51
357.86560400000002
  0
ENDBLK
  5
1F3
  8
_________2
  0
ENDSEC
  0
SECTION
  2
ENTITIES
  0
TEXT
  5
1F4
  8
____
 62
     7
 10
122.27500000000001
 20
110.124
 30
0.0
 40
3.0923400000000001
  1
（t＝25）
 41
0.5
  0
TEXT
  5
1F5
  8
____
 62
     7
 10
122.27500000000001
 20
114.759
 30
0.0
 40
3.0923400000000001
  1
スペーサー
 41
0.5
  0
TEXT
  5
1F6
  8
____
 62
     7
 10
41.090899999999998
 20
57.380800000000001
 30
0.0
 40
3.0923400000000001
  1
G 3/8
 41
0.5
  0
TEXT
  5
1F7
  8
____
 62
     7
 10
167.16399999999999
 20
142.35613499999999
 30
0.0
 40
3.0923400000000001
  1
164
 50
90.0
 41
0.5
 72
     1
 11
167.16399999999999
 21
144.16
 31
0.0
  0
TEXT
  5
1F8
  8
____
 62
     7
 10
172.92599999999999
 20
167.37443999999999
 30
0.0
 40
3.0923400000000001
  1
469
 50
90.0
 41
0.5
 72
     1
 11
172.92599999999999
 21
169.43600000000001
 31
0.0
  0
TEXT
  5
1F9
  8
____
 62
     7
 10
101.322
 20
171.79499999999999
 30
0.0
 40
3.0923400000000001
  1
ホース引出し長さ
 50
90.0
 41
0.5
  0
TEXT
  5
1FA
  8
____
 62
     7
 10
105.187
 20
171.79499999999999
 30
0.0
 40
3.0923400000000001
  1
max.400
 50
90.0
 41
0.5
  0
TEXT
  5
1FB
  8
____
 62
     7
 10
78.479799999999983
 20
156.063525
 30
0.0
 40
3.0923400000000001
  1
86
 50
90.0
 41
0.5
 72
     1
 11
78.479799999999983
 21
157.352
 31
0.0
  0
TEXT
  5
1FC
  8
____
 62
     7
 10
85.217699999999994
 20
145.5032875
 30
0.0
 40
3.0923400000000001
  1
205
 50
90.0
 41
0.5
 72
     1
 11
85.217699999999994
 21
147.43600000000001
 31
0.0
  0
TEXT
  5
1FD
  8
____
 62
     7
 10
101.158
 20
147.04043999999999
 30
0.0
 40
3.0923400000000001
  1
225
 50
90.0
 41
0.5
 72
     1
 11
101.158
 21
149.102
 31
0.0
  0
TEXT
  5
1FE
  8
____
 62
     7
 10
85.218199999999996
 20
85.944987500000011
 30
0.0
 40
3.0923400000000001
  1
550
 50
90.0
 41
0.5
 72
     1
 11
85.218199999999996
 21
87.877700000000004
 31
0.0
  0
TEXT
  5
1FF
  8
____
 62
     7
 10
70.773399999999995
 20
94.510282500000002
 30
0.0
 40
3.0923400000000001
  1
410
 50
90.0
 41
0.5
 72
     1
 11
70.773399999999995
 21
96.185299999999984
 31
0.0
  0
TEXT
  5
200
  8
____
 62
     7
 10
132.50700000000001
 20
122.656845
 30
0.0
 40
3.0923400000000001
  1
max.40
 50
90.0
 41
0.5
 72
     2
 11
132.50700000000001
 21
130.13
 31
0.0
  0
TEXT
  5
201
  8
____
 62
     7
 10
151.87088
 20
136.75999999999999
 30
0.0
 40
3.0923400000000001
  1
%%c55
 41
0.5
 72
     2
 11
155.994
 21
136.75999999999999
 31
0.0
  0
TEXT
  5
202
  8
____
 62
     7
 10
133.88
 20
177.97200000000001
 30
0.0
 40
3.0923400000000001
  1
%%c24
 41
0.5
  0
TEXT
  5
203
  8
____
 62
     7
 10
151.15188000000001
 20
126.947
 30
0.0
 40
3.0923400000000001
  1
%%c33
 41
0.5
 72
     2
 11
155.27500000000001
 21
126.947
 31
0.0
  0
TEXT
  5
204
  8
____
 62
     7
 10
134.18799999999999
 20
141.47800000000001
 30
0.0
 40
3.0923400000000001
  1
%%c44
 41
0.5
  0
TEXT
  5
205
  8
____
 62
     7
 10
58.435507499999993
 20
231.06399999999999
 30
0.0
 40
3.0923400000000001
  1
スパウト回転360%%d
 41
0.5
 72
     1
 11
66.552899999999994
 21
231.06399999999999
 31
0.0
  0
TEXT
  5
206
  8
____
 62
     7
 10
125.140135
 20
222.59200000000001
 30
0.0
 40
3.0923400000000001
  1
215
 41
0.5
 72
     1
 11
126.944
 21
222.59200000000001
 31
0.0
  0
TEXT
  5
207
  8
____
 62
     7
 10
126.390135
 20
215.249
 30
0.0
 40
3.0923400000000001
  1
200
 41
0.5
 72
     1
 11
128.19399999999999
 21
215.249
 31
0.0
  0
TEXT
  5
208
  8
____
 62
     7
 10
56.22807250000001
 20
175.75399999999999
 30
0.0
 40
3.0923400000000001
  1
70
 41
0.5
 72
     1
 11
57.387700000000002
 21
175.75399999999999
 31
0.0
  0
TEXT
  5
209
  8
____
 62
     7
 10
58.577177499999998
 20
138.083
 30
0.0
 40
3.0923400000000001
  1
110
 41
0.5
 72
     1
 11
59.994500000000002
 21
138.083
 31
0.0
  0
TEXT
  5
20A
  8
____
 62
     7
 10
149.88437250000001
 20
144.90700000000001
 30
0.0
 40
3.0923400000000001
  1
70
 41
0.5
 72
     1
 11
151.04400000000001
 21
144.90700000000001
 31
0.0
  0
TEXT
  5
20B
  8
____
 62
     7
 10
132.22399999999999
 20
245.52500000000001
 30
0.0
 40
3.0923400000000001
  1
%%c35
 41
0.5
  0
TEXT
  5
20C
  8
____
 62
     7
 10
140.4286459999999
 20
238.34899999999999
 30
0.0
 40
3.0923400000000001
  1
水栓取付穴
 41
0.5
 72
     1
 11
144.86099999999999
 21
238.34899999999999
 31
0.0
  0
TEXT
  5
20D
  8
____
 62
     7
 10
157.81800000000001
 20
154.131
 30
0.0
 40
3.0923400000000001
  1
水
 41
0.5
  0
TEXT
  5
20E
  8
____
 62
     7
 10
152.52813499999999
 20
165.589
 30
0.0
 40
3.0923400000000001
  1
57%%d
 41
0.5
 72
     1
 11
154.33199999999999
 21
165.589
 31
0.0
  0
TEXT
  5
20F
  8
____
 62
     7
 10
134.386135
 20
165.589
 30
0.0
 40
3.0923400000000001
  1
57%%d
 41
0.5
 72
     1
 11
136.19
 21
165.589
 31
0.0
  0
TEXT
  5
210
  8
____
 62
     7
 10
65.234835000000004
 20
168.703
 30
0.0
 40
3.0923400000000001
  1
25%%d
 41
0.5
 72
     1
 11
67.038700000000006
 21
168.703
 31
0.0
  0
TEXT
  5
211
  8
____
 62
     7
 10
131.033908
 20
154.131
 30
0.0
 40
3.0923400000000001
  1
湯
 41
0.5
 72
     2
 11
132.477
 21
154.131
 31
0.0
  0
TEXT
  5
212
  8
____
 62
     7
 10
69.342600000000004
 20
159.99199999999999
 30
0.0
 40
3.0923400000000001
  1
開
 41
0.5
  0
TEXT
  5
213
  8
____
 62
     7
 10
59.081186000000002
 20
163.50899999999999
 30
0.0
 40
3.0923400000000001
  1
閉
 41
0.5
 72
     2
 11
60.421199999999999
 21
163.50899999999999
 31
0.0
  0
TEXT
  5
214
  8
____
 62
     7
 10
20.139500000000002
 20
38.737200000000001
 30
0.0
 40
4.2168199999999993
  1
※水受けトレイ（別売）が必要です。
 41
0.5
  0
ARC
  5
215
  8
_________1
 62
     7
 10
28.030460000000001
 20
114.70649400000001
 30
0.0
 40
21.582674000000001
 50
350.55651
 51
0.001084
  0
ARC
  5
216
  8
_________1
 62
     7
 10
30.341038999999999
 20
114.41824200000001
 30
0.0
 40
19.255973000000001
 50
344.94394700000009
 51
347.63903499999998
  0
ARC
  5
217
  8
_________1
 62
     7
 10
27.655778000000002
 20
115.220955
 30
0.0
 40
22.059450999999999
 50
333.93328000000002
 51
342.31262400000003
  0
ARC
  5
218
  8
_________1
 62
     7
 10
22.491609
 20
117.58574
 30
0.0
 40
27.737843000000002
 50
330.67193300000002
 51
334.232755
  0
ARC
  5
219
  8
_________1
 62
     7
 10
15.247182
 20
121.750282
 30
0.0
 40
36.095398000000003
 50
326.94373300000001
 51
328.61667000000011
  0
ARC
  5
21A
  8
_________1
 62
     7
 10
29.187034000000001
 20
111.974056
 30
0.0
 40
19.076297
 50
325.20614399999999
 51
326.35515199999998
  0
ARC
  5
21B
  8
_________1
 62
     7
 10
15.219856999999999
 20
121.647064
 30
0.0
 40
36.065963000000004
 50
324.199367
 51
325.24817000000002
  0
ARC
  5
21C
  8
_________1
 62
     7
 10
-11.800542
 20
141.114689
 30
0.0
 40
69.368968999999993
 50
323.43608799999998
 51
324.21313900000001
  0
ARC
  5
21D
  8
_________1
 62
     7
 10
-73.609230999999994
 20
186.93742599999999
 30
0.0
 40
146.31074699999999
 50
322.91443900000002
 51
323.44240400000001
  0
ARC
  5
21E
  8
_________1
 62
     7
 10
-329.65657099999999
 20
380.43469800000003
 30
0.0
 40
467.24911100000003
 50
322.733856
 51
322.91917599999999
  0
ARC
  5
21F
  8
_________1
 62
     7
 10
810.22407300000009
 20
-487.327744
 30
0.0
 40
965.34965099999999
 50
142.76612499999999
 51
142.828046
  0
ARC
  5
220
  8
_________1
 62
     7
 10
167.19212300000001
 20
-0.09849
 30
0.0
 40
158.576369
 50
143.00986800000001
 51
143.870733
  0
ARC
  5
221
  8
_________1
 62
     7
 10
81.232219999999998
 20
62.774014999999999
 30
0.0
 40
52.077415000000002
 50
143.97934000000001
 51
145.83607499999999
  0
ARC
  5
222
  8
_________1
 62
     7
 10
56.834927
 20
79.433352999999997
 30
0.0
 40
22.535155
 50
146.04942
 51
147.34478100000001
  0
ARC
  5
223
  8
_________1
 62
     7
 10
-0.245265
 20
114.63594399999999
 30
0.0
 40
44.532373
 50
328.09321
 51
328.83902699999999
  0
ARC
  5
224
  8
_________1
 62
     7
 10
-713.69149500000003
 20
552.54819599999985
 30
0.0
 40
881.65316799999982
 50
328.36228899999998
 51
328.44001300000002
  0
ARC
  5
225
  8
_________1
 62
     7
 10
67.053228000000004
 20
71.57799399999999
 30
0.0
 40
35.347327
 50
150.099951
 51
151.64829800000001
  0
ARC
  5
226
  8
_________1
 62
     7
 10
60.531669999999998
 20
75.024678000000009
 30
0.0
 40
27.970385
 50
153.20639299999999
 51
165.093603
  0
ARC
  5
227
  8
_________1
 62
     7
 10
59.861944999999992
 20
75.310539000000006
 30
0.0
 40
27.250033999999999
 50
167.51900699999999
 51
169.93520699999999
  0
ARC
  5
228
  8
_________1
 62
     7
 10
61.819465000000001
 20
75.007977999999994
 30
0.0
 40
29.230937999999998
 50
171.61659499999999
 51
180.21986999999999
  0
ARC
  5
229
  8
_________1
 62
     7
 10
66.130414000000002
 20
74.966809999999995
 30
0.0
 40
33.542259999999999
 50
181.42728299999999
 51
183.19365099999999
  0
ARC
  5
22A
  8
_________1
 62
     7
 10
68.431989999999999
 20
75.128668000000005
 30
0.0
 40
35.849779999999988
 50
184.401971
 51
186.802133
  0
ARC
  5
22B
  8
_________1
  6
AIGENLINE001
 62
     7
 10
128.194883
 20
189.86092600000001
 30
0.0
 40
16.658522999999999
 50
90.0
 51
179.99996999999999
  0
ARC
  5
22C
  8
_________1
  6
AIGENLINE001
 62
     7
 10
128.19487799999999
 20
189.86092600000001
 30
0.0
 40
16.658522999999999
 50
0.00001
 51
89.999980000000008
  0
INSERT
  5
22D
  8
_________1
 62
     7
  2
AIGNBL02010002
 10
0.0
 20
0.0
 30
0.0
  0
INSERT
  5
22E
  8
_________1
 62
     7
  2
AIGNBL02010003
 10
0.0
 20
0.0
 30
0.0
  0
INSERT
  5
22F
  8
_________1
 62
     7
  2
AIGNBL02010005
 10
0.0
 20
0.0
 30
0.0
  0
ARC
  5
230
  8
_________1
 62
     7
 10
149.63349600000001
 20
116.44219099999999
 30
0.0
 40
4.103002
 50
196.281577
 51
204.86066099999999
  0
ARC
  5
231
  8
_________1
 62
     7
 10
140.10561000000001
 20
116.435112
 30
0.0
 40
4.0847809999999987
 50
335.13038
 51
343.787509
  0
LINE
  5
232
  8
_________1
 62
     7
 10
142.23099999999999
 20
62.491700000000002
 30
0.0
 11
143.94399999999999
 21
62.491700000000002
 31
0.0
  0
LINE
  5
233
  8
_________1
 62
     7
 10
145.77799999999999
 20
62.491700000000002
 30
0.0
 11
147.541
 21
62.491700000000002
 31
0.0
  0
LINE
  5
234
  8
_________1
 62
     7
 10
142.18199999999999
 20
65.3001
 30
0.0
 11
143.94399999999999
 21
65.3001
 31
0.0
  0
LINE
  5
235
  8
_________1
 62
     7
 10
145.77799999999999
 20
65.3001
 30
0.0
 11
147.541
 21
65.3001
 31
0.0
  0
LINE
  5
236
  8
_________1
 62
     7
 10
145.77799999999999
 20
67.365499999999997
 30
0.0
 11
146.715
 21
67.365499999999997
 31
0.0
  0
LINE
  5
237
  8
_________1
 62
     7
 10
146.715
 20
67.365499999999997
 30
0.0
 11
146.898
 21
67.298999999999992
 31
0.0
  0
ARC
  5
238
  8
_________1
 62
     7
 10
146.83131299999999
 20
67.188784999999996
 30
0.0
 40
0.129028
 50
43.361065000000004
 51
58.660259000000003
  0
ARC
  5
239
  8
_________1
 62
     7
 10
146.71228600000001
 20
67.072241000000005
 30
0.0
 40
0.295599
 50
33.304957000000002
 51
43.944347999999991
  0
ARC
  5
23A
  8
_________1
 62
     7
 10
146.38999699999999
 20
66.856638000000004
 30
0.0
 40
0.68335
 50
26.526378000000001
 51
33.575334000000012
  0
ARC
  5
23B
  8
_________1
 62
     7
 10
145.630595
 20
66.477114
 30
0.0
 40
1.532308
 50
21.254564999999999
 51
26.541913999999998
  0
ARC
  5
23C
  8
_________1
 62
     7
 10
144.130439
 20
65.886927
 30
0.0
 40
3.1443779999999988
 50
17.828279999999999
 51
21.367842
  0
ARC
  5
23D
  8
_________1
 62
     7
 10
141.47604000000001
 20
65.026169999999993
 30
0.0
 40
5.9348460000000003
 50
15.211611
 51
17.893322000000001
  0
ARC
  5
23E
  8
_________1
 62
     7
 10
135.89548099999999
 20
63.512749999999997
 30
0.0
 40
11.71698
 50
11.213113999999999
 51
15.192738
  0
ARC
  5
23F
  8
_________1
 62
     7
 10
131.92674099999999
 20
62.623643999999992
 30
0.0
 40
15.783173
 50
8.1901899999999994
 51
11.577503
  0
ARC
  5
240
  8
_________1
 62
     7
 10
144.214912
 20
64.376882999999992
 30
0.0
 40
3.370601999999999
 50
2.6413639999999989
 51
8.4487459999999999
  0
LINE
  5
241
  8
_________1
 62
     7
 10
147.58199999999999
 20
64.532200000000003
 30
0.0
 11
147.58199999999999
 21
63.199300000000001
 31
0.0
  0
ARC
  5
242
  8
_________1
 62
     7
 10
146.58225100000001
 20
63.202761000000002
 30
0.0
 40
0.9996889999999998
 50
354.5060180000001
 51
359.80152299999997
  0
ARC
  5
243
  8
_________1
 62
     7
 10
143.389104
 20
63.466661999999999
 30
0.0
 40
4.2036530000000001
 50
352.25990400000001
 51
355.0924950000001
  0
ARC
  5
244
  8
_________1
 62
     7
 10
136.67200299999999
 20
64.355254000000002
 30
0.0
 40
10.979258
 50
350.41850599999998
 51
352.385986
  0
ARC
  5
245
  8
_________1
 62
     7
 10
131.878477
 20
65.140193000000011
 30
0.0
 40
15.836584999999999
 50
345.59420399999999
 51
350.50495699999999
  0
ARC
  5
246
  8
_________1
 62
     7
 10
142.092142
 20
62.542912000000001
 30
0.0
 40
5.2979469999999989
 50
339.62674800000002
 51
345.31929500000001
  0
ARC
  5
247
  8
_________1
 62
     7
 10
145.62613099999999
 20
61.255516
 30
0.0
 40
1.5370200000000001
 50
333.47886299999999
 51
338.752928
  0
ARC
  5
248
  8
_________1
 62
     7
 10
146.440572
 20
60.845467999999997
 30
0.0
 40
0.625194
 50
324.95593500000001
 51
333.774631
  0
ARC
  5
249
  8
_________1
 62
     7
 10
146.77969400000001
 20
60.603177999999993
 30
0.0
 40
0.208458
 50
304.71925900000002
 51
325.95638100000002
  0
ARC
  5
24A
  8
_________1
 62
     7
 10
146.861794
 20
60.476711999999992
 30
0.0
 40
0.057927
 50
288.454632
 51
309.22132599999998
  0
ARC
  5
24B
  8
_________1
 62
     7
 10
146.765097
 20
60.73178699999999
 30
0.0
 40
0.330677
 50
279.608788
 51
290.35733800000003
  0
ARC
  5
24C
  8
_________1
 62
     7
 10
146.54940400000001
 20
61.889735999999999
 30
0.0
 40
1.5085090000000001
 50
275.195627
 51
280.3449720000001
  0
ARC
  5
24D
  8
_________1
 62
     7
 10
146.1892399999999
 20
65.579864999999998
 30
0.0
 40
5.2161479999999996
 50
272.75438400000002
 51
275.46495900000002
  0
ARC
  5
24E
  8
_________1
 62
     7
 10
145.633082
 20
76.868583000000001
 30
0.0
 40
16.518554999999999
 50
270.58059300000002
 51
272.79962399999999
  0
ARC
  5
24F
  8
_________1
 62
     7
 10
155.899584
 20
1094.1590000000001
 30
0.0
 40
1033.874
 50
269.28503499999999
 51
269.33744799999999
  0
LINE
  5
250
  8
_________1
 62
     7
 10
142.999
 20
60.365000000000002
 30
0.0
 11
142.815
 21
60.431800000000003
 31
0.0
  0
LINE
  5
251
  8
_________1
 62
     7
 10
142.815
 20
60.431800000000003
 30
0.0
 11
142.68199999999999
 21
60.581699999999998
 31
0.0
  0
ARC
  5
252
  8
_________1
 62
     7
 10
152.165391
 20
64.028646999999992
 30
0.0
 40
10.090776
 50
188.20054400000001
 51
199.97403700000001
  0
ARC
  5
253
  8
_________1
 62
     7
 10
147.108259
 20
63.268149999999991
 30
0.0
 40
4.9769769999999989
 50
180.79267400000001
 51
187.83926799999989
  0
LINE
  5
254
  8
_________1
 62
     7
 10
142.13200000000001
 20
63.199300000000001
 30
0.0
 11
142.13200000000001
 21
64.532200000000003
 31
0.0
  0
ARC
  5
255
  8
_________1
 62
     7
 10
145.91937799999999
 20
64.529895999999994
 30
0.0
 40
3.7876199999999991
 50
173.85253399999999
 51
179.96491599999999
  0
ARC
  5
256
  8
_________1
 62
     7
 10
148.81970699999999
 20
64.262302000000005
 30
0.0
 40
6.7000759999999993
 50
169.106008
 51
174.23336399999999
  0
ARC
  5
257
  8
_________1
 62
     7
 10
152.60881499999999
 20
63.574424
 30
0.0
 40
10.550981
 50
160.20000999999999
 51
169.32664500000001
  0
LINE
  5
258
  8
_________1
 62
     7
 10
142.68199999999999
 20
67.148399999999995
 30
0.0
 11
142.815
 21
67.298999999999992
 31
0.0
  0
LINE
  5
259
  8
_________1
 62
     7
 10
142.815
 20
67.298999999999992
 30
0.0
 11
142.999
 21
67.365499999999997
 31
0.0
  0
LINE
  5
25A
  8
_________1
 62
     7
 10
142.999
 20
67.365499999999997
 30
0.0
 11
143.94399999999999
 21
67.365499999999997
 31
0.0
  0
INSERT
  5
25B
  8
_________1
 62
     7
  2
AIGNBL02010006
 10
0.0
 20
0.0
 30
0.0
  0
ARC
  5
25C
  8
_________1
 62
     7
 10
144.825828
 20
45.438352000000002
 30
0.0
 40
0.9525459999999998
 50
272.11487699999998
 51
357.885133
  0
ARC
  5
25D
  8
_________1
 62
     7
 10
144.896131
 20
45.438352000000002
 30
0.0
 40
0.9525459999999998
 50
182.11487
 51
267.88515999999998
  0
LINE
  5
25E
  8
_________1
  6
AIGENLINE001
 62
     7
 10
144.86099999999999
 20
189.86199999999999
 30
0.0
 11
144.86099999999999
 21
43.003300000000003
 31
0.0
  0
ARC
  5
25F
  8
_________1
 62
     7
 10
144.02639600000001
 20
73.928595000000001
 30
0.0
 40
1.4003519999999989
 50
103.72929499999999
 51
128.286406
  0
ARC
  5
260
  8
_________1
 62
     7
 10
143.97846999999999
 20
73.983530999999999
 30
0.0
 40
1.336031999999999
 50
85.166741000000016
 51
102.29172699999999
  0
ARC
  5
261
  8
_________1
 62
     7
 10
143.92908399999999
 20
73.122988000000007
 30
0.0
 40
2.1977989999999998
 50
76.743764999999996
 51
85.774057999999997
  0
ARC
  5
262
  8
_________1
 62
     7
 10
143.31333699999999
 20
70.299539999999993
 30
0.0
 40
5.0874370000000004
 50
74.543743000000006
 51
77.285415
  0
ARC
  5
263
  8
_________1
 62
     7
 10
148.58574200000001
 20
88.788274000000001
 30
0.0
 40
14.138591
 50
253.91792599999999
 51
255.78815299999991
  0
ARC
  5
264
  8
_________1
 62
     7
 10
145.78389999999999
 20
77.784106999999992
 30
0.0
 40
2.7833730000000001
 50
256.08621900000003
 51
263.773259
  0
ARC
  5
265
  8
_________1
 62
     7
 10
145.62189699999999
 20
76.415154000000001
 30
0.0
 40
1.4049819999999991
 50
264.285686
 51
290.58833800000002
  0
ARC
  5
266
  8
_________1
 62
     7
 10
145.59055499999999
 20
76.381357999999992
 30
0.0
 40
1.384979
 50
292.29404599999998
 51
313.480797
  0
ARC
  5
267
  8
_________1
 62
     7
 10
144.02639600000001
 20
74.818813000000006
 30
0.0
 40
1.4003519999999989
 50
103.72929499999999
 51
128.286406
  0
ARC
  5
268
  8
_________1
 62
     7
 10
143.97846999999999
 20
74.873749000000004
 30
0.0
 40
1.336031999999999
 50
85.166741000000016
 51
102.29172699999999
  0
ARC
  5
269
  8
_________1
 62
     7
 10
143.92908399999999
 20
74.013206000000011
 30
0.0
 40
2.1977989999999998
 50
76.743764999999996
 51
85.774057999999997
  0
ARC
  5
26A
  8
_________1
 62
     7
 10
143.31333699999999
 20
71.189757999999998
 30
0.0
 40
5.0874370000000004
 50
74.543743000000006
 51
77.285415
  0
ARC
  5
26B
  8
_________1
 62
     7
 10
148.58574200000001
 20
89.678492000000006
 30
0.0
 40
14.138591
 50
253.91792599999999
 51
255.78815299999991
  0
ARC
  5
26C
  8
_________1
 62
     7
 10
145.78389999999999
 20
78.674324999999996
 30
0.0
 40
2.7833730000000001
 50
256.08621900000003
 51
263.773259
  0
ARC
  5
26D
  8
_________1
 62
     7
 10
145.62189699999999
 20
77.305373000000003
 30
0.0
 40
1.4049819999999991
 50
264.285686
 51
290.58833800000002
  0
ARC
  5
26E
  8
_________1
 62
     7
 10
145.59055499999999
 20
77.271575999999996
 30
0.0
 40
1.384979
 50
292.29404599999998
 51
313.480797
  0
ARC
  5
26F
  8
_________1
 62
     7
 10
140.010851
 20
116.478769
 30
0.0
 40
4.189112999999999
 50
317.88711699999999
 51
335.1336970000001
  0
ARC
  5
270
  8
_________1
 62
     7
 10
140.00014999999999
 20
116.47455600000001
 30
0.0
 40
2.527819
 50
318.12365699999998
 51
359.75873300000001
  0
ARC
  5
271
  8
_________1
  6
AIGENLINE001
 62
     7
 10
139.99366599999999
 20
116.476428
 30
0.0
 40
3.3673329999999999
 50
318.10955100000001
 51
359.78703899999999
  0
ARC
  5
272
  8
_________1
 62
     7
 10
140.332945
 20
106.80348499999999
 30
0.0
 40
4.2077770000000001
 50
138.09879100000001
 51
179.78923900000001
  0
ARC
  5
273
  8
_________1
 62
     7
 10
140.32073700000001
 20
106.80776
 30
0.0
 40
2.529163
 50
138.123515
 51
179.746229
  0
ARC
  5
274
  8
_________1
  6
AIGENLINE001
 62
     7
 10
140.32586599999999
 20
106.806449
 30
0.0
 40
3.367319999999999
 50
138.10941500000001
 51
179.781215
  0
LINE
  5
275
  8
_________1
 62
     7
 10
142.52799999999999
 20
116.464
 30
0.0
 11
142.52799999999999
 21
117.01900000000001
 31
0.0
  0
LINE
  5
276
  8
_________1
 62
     7
 10
137.20099999999999
 20
109.614
 30
0.0
 11
141.88200000000001
 21
114.78700000000001
 31
0.0
  0
LINE
  5
277
  8
_________1
 62
     7
 10
143.11799999999999
 20
113.67
 30
0.0
 11
138.43799999999999
 21
108.496
 31
0.0
  0
LINE
  5
278
  8
_________1
  6
AIGENLINE001
 62
     7
 10
142.5
 20
114.22799999999999
 30
0.0
 11
137.81899999999999
 21
109.05500000000001
 31
0.0
  0
LINE
  5
279
  8
_________1
 62
     7
 10
136.125
 20
67.190799999999996
 30
0.0
 11
136.125
 21
106.819
 31
0.0
  0
LINE
  5
27A
  8
_________1
 62
     7
 10
137.792
 20
106.819
 30
0.0
 11
137.792
 21
67.190799999999996
 31
0.0
  0
LINE
  5
27B
  8
_________1
  6
AIGENLINE001
 62
     7
 10
136.959
 20
106.819
 30
0.0
 11
136.959
 21
61.2149
 31
0.0
  0
LINE
  5
27C
  8
_________1
 62
     7
 10
135.12299999999999
 20
63.940300000000001
 30
0.0
 11
135.12299999999999
 21
62.189500000000002
 31
0.0
  0
LINE
  5
27D
  8
_________1
 62
     7
 10
136.03999999999999
 20
63.940300000000001
 30
0.0
 11
136.03999999999999
 21
62.189500000000002
 31
0.0
  0
ARC
  5
27E
  8
_________1
 62
     7
 10
137.23244700000001
 20
67.114817000000002
 30
0.0
 40
5.3579959999999991
 50
246.81517700000001
 51
248.850934
  0
ARC
  5
27F
  8
_________1
 62
     7
 10
135.64327700000001
 20
63.02564799999999
 30
0.0
 40
0.970912
 50
249.250811
 51
266.84405199999998
  0
ARC
  5
280
  8
_________1
 62
     7
 10
135.589631
 20
62.677062999999997
 30
0.0
 40
0.6208550000000001
 50
270.017921
 51
284.903773
  0
ARC
  5
281
  8
_________1
 62
     7
 10
135.433121
 20
63.327055000000001
 30
0.0
 40
1.289331999999999
 50
284.19579599999997
 51
298.084361
  0
ARC
  5
282
  8
_________1
 62
     7
 10
135.54764499999999
 20
63.212091000000001
 30
0.0
 40
0.879127
 50
55.932757999999993
 51
87.249941000000007
  0
ARC
  5
283
  8
_________1
 62
     7
 10
135.58986299999989
 20
63.462746000000003
 30
0.0
 40
0.627459
 50
90.003445999999983
 51
104.703135
  0
ARC
  5
284
  8
_________1
 62
     7
 10
135.699074
 20
63.000585000000001
 30
0.0
 40
1.1022670000000001
 50
104.096706
 51
121.507896
  0
LINE
  5
285
  8
_________1
 62
     7
 10
138.78999999999999
 20
63.940300000000001
 30
0.0
 11
138.78999999999999
 21
62.189500000000002
 31
0.0
  0
LINE
  5
286
  8
_________1
 62
     7
 10
137.874
 20
63.940300000000001
 30
0.0
 11
137.874
 21
62.189500000000002
 31
0.0
  0
ARC
  5
287
  8
_________1
 62
     7
 10
139.820977
 20
66.710432999999995
 30
0.0
 40
4.9224819999999987
 50
246.69598300000001
 51
248.86531500000001
  0
ARC
  5
288
  8
_________1
 62
     7
 10
138.40037899999999
 20
63.039032999999989
 30
0.0
 40
0.985825
 50
248.93942799999999
 51
265.52876900000001
  0
ARC
  5
289
  8
_________1
 62
     7
 10
138.32347899999999
 20
62.672340000000013
 30
0.0
 40
0.616132
 50
270.00435499999998
 51
284.762023
  0
ARC
  5
28A
  8
_________1
 62
     7
 10
138.201368
 20
63.215699000000001
 30
0.0
 40
1.1728469999999991
 50
283.76685600000002
 51
289.83439099999998
  0
ARC
  5
28B
  8
_________1
 62
     7
 10
137.587366
 20
64.889212000000001
 30
0.0
 40
2.955430999999999
 50
290.023414
 51
294.01159100000001
  0
ARC
  5
28C
  8
_________1
 62
     7
 10
138.14581999999999
 20
62.837620999999999
 30
0.0
 40
1.277088999999999
 50
59.707909999999991
 51
75.049284
  0
ARC
  5
28D
  8
_________1
 62
     7
 10
138.31633099999999
 20
63.407570999999997
 30
0.0
 40
0.6826720000000001
 50
76.534885000000003
 51
89.396184000000005
  0
ARC
  5
28E
  8
_________1
 62
     7
 10
138.32445899999999
 20
63.550818
 30
0.0
 40
0.539388
 50
90.099151000000006
 51
106.437046
  0
ARC
  5
28F
  8
_________1
 62
     7
 10
138.478568
 20
62.94061
 30
0.0
 40
1.1685289999999999
 50
105.218256
 51
121.179649
  0
ARC
  5
290
  8
_________1
 62
     7
 10
135.08550500000001
 20
57.406354
 30
0.0
 40
4.8775059999999986
 50
76.462795999999983
 51
78.713545999999994
  0
ARC
  5
291
  8
_________1
 62
     7
 10
137.11336800000001
 20
65.557465000000008
 30
0.0
 40
3.5224009999999999
 50
255.429191
 51
261.79889700000012
  0
ARC
  5
292
  8
_________1
 62
     7
 10
136.818589
 20
63.508623999999998
 30
0.0
 40
1.4524619999999999
 50
261.7792060000001
 51
269.54225300000002
  0
LINE
  5
293
  8
_________1
 62
     7
 10
136.80699999999999
 20
62.05619999999999
 30
0.0
 11
137.107
 21
62.05619999999999
 31
0.0
  0
ARC
  5
294
  8
_________1
 62
     7
 10
137.105907
 20
63.421140000000001
 30
0.0
 40
1.364932
 50
270.03370999999999
 51
280.17909400000002
  0
ARC
  5
295
  8
_________1
 62
     7
 10
136.790615
 20
65.416064000000006
 30
0.0
 40
3.3844389999999991
 50
279.46425299999999
 51
283.013667
  0
ARC
  5
296
  8
_________1
 62
     7
 10
131.64761999999999
 20
89.570649000000003
 30
0.0
 40
28.080031999999999
 50
282.13969900000001
 51
282.81022899999999
  0
ARC
  5
297
  8
_________1
 62
     7
 10
137.007497
 20
61.377291999999997
 30
0.0
 40
2.7054299999999989
 50
71.329052000000004
 51
78.430312999999984
  0
ARC
  5
298
  8
_________1
 62
     7
 10
136.89797100000001
 20
61.013925
 30
0.0
 40
3.083572999999999
 50
77.790668000000011
 51
85.358374999999995
  0
ARC
  5
299
  8
_________1
 62
     7
 10
137.02901700000001
 20
62.532344999999992
 30
0.0
 40
1.559547
 50
85.642786999999998
 51
92.665021999999993
  0
ARC
  5
29A
  8
_________1
 62
     7
 10
136.89877000000001
 20
63.127648999999998
 30
0.0
 40
0.964286
 50
86.567594999999983
 51
91.661827000000002
  0
ARC
  5
29B
  8
_________1
 62
     7
 10
136.919421
 20
62.160913999999991
 30
0.0
 40
1.9312279999999991
 50
91.442458000000002
 51
95.887934999999985
  0
ARC
  5
29C
  8
_________1
 62
     7
 10
137.06428500000001
 20
60.722832999999987
 30
0.0
 40
3.3765839999999989
 50
95.829860999999994
 51
107.657077
  0
LINE
  5
29D
  8
_________1
 62
     7
 10
136.12299999999999
 20
64.207300000000004
 30
0.0
 11
136.95699999999999
 21
64.207300000000004
 31
0.0
  0
LINE
  5
29E
  8
_________1
 62
     7
 10
137.78999999999999
 20
64.207300000000004
 30
0.0
 11
136.95699999999999
 21
64.207300000000004
 31
0.0
  0
LINE
  5
29F
  8
_________1
 62
     7
 10
138.49100000000001
 20
62.023099999999999
 30
0.0
 11
136.95699999999999
 21
62.023099999999999
 31
0.0
  0
LINE
  5
2A0
  8
_________1
 62
     7
 10
136.95699999999999
 20
62.023099999999999
 30
0.0
 11
135.423
 21
62.023099999999999
 31
0.0
  0
LINE
  5
2A1
  8
_________1
 62
     7
 10
135.22300000000001
 20
62.156500000000001
 30
0.0
 11
135.423
 21
62.039999999999999
 31
0.0
  0
LINE
  5
2A2
  8
_________1
 62
     7
 10
135.423
 20
62.039999999999999
 30
0.0
 11
135.423
 21
62.023099999999999
 31
0.0
  0
LINE
  5
2A3
  8
_________1
 62
     7
 10
135.12299999999999
 20
62.189500000000002
 30
0.0
 11
135.423
 21
62.039999999999999
 31
0.0
  0
LINE
  5
2A4
  8
_________1
 62
     7
 10
138.78999999999999
 20
62.189500000000002
 30
0.0
 11
138.49100000000001
 21
62.023099999999999
 31
0.0
  0
LINE
  5
2A5
  8
_________1
 62
     7
 10
138.49100000000001
 20
64.107100000000003
 30
0.0
 11
135.423
 21
64.107100000000003
 31
0.0
  0
LINE
  5
2A6
  8
_________1
 62
     7
 10
137.99000000000001
 20
64.190100000000001
 30
0.0
 11
135.923
 21
64.190100000000001
 31
0.0
  0
ARC
  5
2A7
  8
_________1
 62
     7
 10
136.29369700000001
 20
64.658601000000004
 30
0.0
 40
0.4823000000000001
 50
214.70800199999999
 51
249.332663
  0
ARC
  5
2A8
  8
_________1
 62
     7
 10
136.180733
 20
64.564103000000003
 30
0.0
 40
0.335896
 50
198.57399599999999
 51
212.42801299999999
  0
LINE
  5
2A9
  8
_________1
 62
     7
 10
135.86199999999999
 20
64.457099999999997
 30
0.0
 11
135.84
 21
64.523600000000002
 31
0.0
  0
LINE
  5
2AA
  8
_________1
 62
     7
 10
135.84
 20
64.523600000000002
 30
0.0
 11
135.84
 21
64.623900000000006
 31
0.0
  0
LINE
  5
2AB
  8
_________1
 62
     7
 10
135.84
 20
64.623900000000006
 30
0.0
 11
135.87299999999999
 21
64.740300000000005
 31
0.0
  0
LINE
  5
2AC
  8
_________1
 62
     7
 10
138.05699999999999
 20
64.740300000000005
 30
0.0
 11
138.03999999999999
 21
64.740300000000005
 31
0.0
  0
ARC
  5
2AD
  8
_________1
 62
     7
 10
130.297234
 20
63.578941999999998
 30
0.0
 40
7.8460660000000004
 50
7.653192999999999
 51
8.5120710000000006
  0
LINE
  5
2AE
  8
_________1
 62
     7
 10
138.07300000000001
 20
64.623900000000006
 30
0.0
 11
138.07300000000001
 21
64.523600000000002
 31
0.0
  0
LINE
  5
2AF
  8
_________1
 62
     7
 10
138.07300000000001
 20
64.523600000000002
 30
0.0
 11
138.05199999999999
 21
64.457099999999997
 31
0.0
  0
ARC
  5
2B0
  8
_________1
 62
     7
 10
137.35943
 20
64.69109499999999
 30
0.0
 40
0.7310750000000001
 50
335.4577910000001
 51
341.33373599999999
  0
ARC
  5
2B1
  8
_________1
 62
     7
 10
137.764599
 20
64.50745400000001
 30
0.0
 40
0.286236
 50
296.396075
 51
335.20913899999999
  0
ARC
  5
2B2
  8
_________1
 62
     7
 10
136.77488099999999
 20
66.328500000000005
 30
0.0
 40
2.3586819999999991
 50
295.93391200000002
 51
298.26545700000003
  0
LINE
  5
2B3
  8
_________1
 62
     7
 10
137.80600000000001
 20
64.207300000000004
 30
0.0
 11
137.78999999999999
 21
64.207300000000004
 31
0.0
  0
LINE
  5
2B4
  8
_________1
 62
     7
 10
137.92400000000001
 20
65.023799999999994
 30
0.0
 11
136.006
 21
65.023799999999994
 31
0.0
  0
LINE
  5
2B5
  8
_________1
 62
     7
 10
137.92400000000001
 20
66.357100000000003
 30
0.0
 11
136.95699999999999
 21
66.357100000000003
 31
0.0
  0
LINE
  5
2B6
  8
_________1
 62
     7
 10
136.95699999999999
 20
66.357100000000003
 30
0.0
 11
136.006
 21
66.357100000000003
 31
0.0
  0
LINE
  5
2B7
  8
_________1
 62
     7
 10
135.84
 20
66.72399999999999
 30
0.0
 11
135.84
 21
66.640600000000006
 31
0.0
  0
LINE
  5
2B8
  8
_________1
 62
     7
 10
135.84
 20
66.640600000000006
 30
0.0
 11
135.88999999999999
 21
66.556899999999985
 31
0.0
  0
LINE
  5
2B9
  8
_________1
 62
     7
 10
138.09
 20
66.72399999999999
 30
0.0
 11
138.07300000000001
 21
66.640600000000006
 31
0.0
  0
LINE
  5
2BA
  8
_________1
 62
     7
 10
138.07300000000001
 20
66.640600000000006
 30
0.0
 11
138.03999999999999
 21
66.556899999999985
 31
0.0
  0
LINE
  5
2BB
  8
_________1
 62
     7
 10
138.09
 20
67.190799999999996
 30
0.0
 11
135.84
 21
67.190799999999996
 31
0.0
  0
LINE
  5
2BC
  8
_________1
 62
     7
 10
138.09
 20
67.190799999999996
 30
0.0
 11
138.09
 21
66.72399999999999
 31
0.0
  0
LINE
  5
2BD
  8
_________1
 62
     7
 10
135.84
 20
67.190799999999996
 30
0.0
 11
135.84
 21
66.72399999999999
 31
0.0
  0
LINE
  5
2BE
  8
_________1
 62
     7
 10
135.423
 20
64.107100000000003
 30
0.0
 11
135.12299999999999
 21
63.940300000000001
 31
0.0
  0
LINE
  5
2BF
  8
_________1
 62
     7
 10
138.49100000000001
 20
64.107100000000003
 30
0.0
 11
138.78999999999999
 21
63.940300000000001
 31
0.0
  0
LINE
  5
2C0
  8
_________1
 62
     7
 10
138.03999999999999
 20
66.556899999999985
 30
0.0
 11
137.92400000000001
 21
66.357100000000003
 31
0.0
  0
LINE
  5
2C1
  8
_________1
 62
     7
 10
137.92400000000001
 20
65.023799999999994
 30
0.0
 11
138.03999999999999
 21
64.740300000000005
 31
0.0
  0
LINE
  5
2C2
  8
_________1
 62
     7
 10
135.88999999999999
 20
66.556899999999985
 30
0.0
 11
136.006
 21
66.357100000000003
 31
0.0
  0
LINE
  5
2C3
  8
_________1
 62
     7
 10
136.006
 20
65.023799999999994
 30
0.0
 11
135.87299999999999
 21
64.740300000000005
 31
0.0
  0
LINE
  5
2C4
  8
_________1
 62
     7
 10
137.92400000000001
 20
66.357100000000003
 30
0.0
 11
137.92400000000001
 21
65.023799999999994
 31
0.0
  0
LINE
  5
2C5
  8
_________1
 62
     7
 10
136.006
 20
66.357100000000003
 30
0.0
 11
136.006
 21
65.023799999999994
 31
0.0
  0
LINE
  5
2C6
  8
_________1
 62
     7
 10
137.99000000000001
 20
64.190100000000001
 30
0.0
 11
137.99000000000001
 21
64.107100000000003
 31
0.0
  0
LINE
  5
2C7
  8
_________1
 62
     7
 10
135.923
 20
64.190100000000001
 30
0.0
 11
135.923
 21
64.107100000000003
 31
0.0
  0
LINE
  5
2C8
  8
_________1
 62
     7
 10
138.78999999999999
 20
62.189500000000002
 30
0.0
 11
138.49100000000001
 21
62.023099999999999
 31
0.0
  0
LINE
  5
2C9
  8
_________1
 62
     7
 10
135.12299999999999
 20
62.189500000000002
 30
0.0
 11
135.423
 21
62.023099999999999
 31
0.0
  0
LINE
  5
2CA
  8
_________1
  6
AIGENLINE001
 62
     7
 10
143.36099999999999
 20
116.464
 30
0.0
 11
143.36099999999999
 21
131.61699999999999
 31
0.0
  0
ARC
  5
2CB
  8
_________1
 62
     7
 10
149.71697800000001
 20
116.483448
 30
0.0
 40
4.1960930000000003
 50
204.89256499999999
 51
222.112865
  0
ARC
  5
2CC
  8
_________1
 62
     7
 10
149.72215399999999
 20
116.47455600000001
 30
0.0
 40
2.527819
 50
180.241287
 51
221.876363
  0
ARC
  5
2CD
  8
_________1
  6
AIGENLINE001
 62
     7
 10
149.724942
 20
116.475005
 30
0.0
 40
3.3636319999999991
 50
180.18898300000001
 51
221.914467
  0
ARC
  5
2CE
  8
_________1
 62
     7
 10
149.38935599999999
 20
106.803483
 30
0.0
 40
4.2077809999999989
 50
0.21076
 51
41.901169999999993
  0
ARC
  5
2CF
  8
_________1
 62
     7
 10
149.406251
 20
106.81008300000001
 30
0.0
 40
2.5241250000000002
 50
0.201535
 51
41.908182000000011
  0
ARC
  5
2D0
  8
_________1
  6
AIGENLINE001
 62
     7
 10
149.39782
 20
106.806076
 30
0.0
 40
3.3662849999999991
 50
0.225184
 51
41.914904
  0
LINE
  5
2D1
  8
_________1
 62
     7
 10
147.19399999999999
 20
116.464
 30
0.0
 11
147.19399999999999
 21
117.01900000000001
 31
0.0
  0
LINE
  5
2D2
  8
_________1
 62
     7
 10
152.52099999999999
 20
109.614
 30
0.0
 11
147.84
 21
114.78700000000001
 31
0.0
  0
LINE
  5
2D3
  8
_________1
 62
     7
 10
146.60400000000001
 20
113.67
 30
0.0
 11
151.285
 21
108.496
 31
0.0
  0
LINE
  5
2D4
  8
_________1
  6
AIGENLINE001
 62
     7
 10
147.22200000000001
 20
114.22799999999999
 30
0.0
 11
151.90299999999999
 21
109.05500000000001
 31
0.0
  0
LINE
  5
2D5
  8
_________1
 62
     7
 10
153.59700000000001
 20
67.190799999999996
 30
0.0
 11
153.59700000000001
 21
106.819
 31
0.0
  0
LINE
  5
2D6
  8
_________1
 62
     7
 10
151.93000000000001
 20
106.819
 30
0.0
 11
151.93000000000001
 21
67.190799999999996
 31
0.0
  0
LINE
  5
2D7
  8
_________1
  6
AIGENLINE001
 62
     7
 10
152.76400000000001
 20
106.819
 30
0.0
 11
152.76400000000001
 21
61.2149
 31
0.0
  0
LINE
  5
2D8
  8
_________1
 62
     7
 10
154.59899999999999
 20
63.940300000000001
 30
0.0
 11
154.59899999999999
 21
62.189500000000002
 31
0.0
  0
LINE
  5
2D9
  8
_________1
 62
     7
 10
153.68299999999999
 20
63.940300000000001
 30
0.0
 11
153.68299999999999
 21
62.189500000000002
 31
0.0
  0
ARC
  5
2DA
  8
_________1
 62
     7
 10
152.428743
 20
67.257643999999999
 30
0.0
 40
5.5133499999999991
 50
291.208393
 51
293.18429500000002
  0
ARC
  5
2DB
  8
_________1
 62
     7
 10
154.07966200000001
 20
63.023791000000003
 30
0.0
 40
0.9690419999999999
 50
273.14482199999998
 51
290.76724000000002
  0
ARC
  5
2DC
  8
_________1
 62
     7
 10
154.13301999999999
 20
62.677652000000002
 30
0.0
 40
0.621444
 50
255.10335699999999
 51
269.98195700000002
  0
ARC
  5
2DD
  8
_________1
 62
     7
 10
154.288039
 20
63.322995999999989
 30
0.0
 40
1.2850509999999991
 50
241.88899000000001
 51
255.82090099999999
  0
ARC
  5
2DE
  8
_________1
 62
     7
 10
154.175003
 20
63.212091000000001
 30
0.0
 40
0.879127
 50
92.750038999999987
 51
124.067222
  0
ARC
  5
2DF
  8
_________1
 62
     7
 10
154.132779
 20
63.463941000000013
 30
0.0
 40
0.6262640000000002
 50
75.282744999999991
 51
89.995866000000021
  0
ARC
  5
2E0
  8
_________1
 62
     7
 10
154.02388500000001
 20
63.002521999999999
 30
0.0
 40
1.1002739999999991
 50
58.468451000000009
 51
75.902535999999998
  0
LINE
  5
2E1
  8
_________1
 62
     7
 10
150.93199999999999
 20
63.940300000000001
 30
0.0
 11
150.93199999999999
 21
62.189500000000002
 31
0.0
  0
LINE
  5
2E2
  8
_________1
 62
     7
 10
151.84899999999999
 20
63.940300000000001
 30
0.0
 11
151.84899999999999
 21
62.189500000000002
 31
0.0
  0
ARC
  5
2E3
  8
_________1
 62
     7
 10
149.97392099999999
 20
66.526217000000003
 30
0.0
 40
4.7245799999999996
 50
291.12210900000002
 51
293.3793
  0
ARC
  5
2E4
  8
_________1
 62
     7
 10
151.322417
 20
63.037959999999998
 30
0.0
 40
0.984744
 50
274.4676
 51
291.07095299999997
  0
ARC
  5
2E5
  8
_________1
 62
     7
 10
151.39916500000001
 20
62.674211999999997
 30
0.0
 40
0.618004
 50
255.26049599999999
 51
269.99617000000001
  0
ARC
  5
2E6
  8
_________1
 62
     7
 10
151.52041
 20
63.214348999999991
 30
0.0
 40
1.171387
 50
250.16894199999999
 51
256.24707599999999
  0
ARC
  5
2E7
  8
_________1
 62
     7
 10
152.13286099999999
 20
64.884500000000003
 30
0.0
 40
2.9502819999999992
 50
245.98803000000001
 51
249.98374999999999
  0
ARC
  5
2E8
  8
_________1
 62
     7
 10
151.575501
 20
62.839306000000008
 30
0.0
 40
1.275139
 50
104.915876
 51
120.29212
  0
ARC
  5
2E9
  8
_________1
 62
     7
 10
151.406374
 20
63.406471999999987
 30
0.0
 40
0.6837720000000001
 50
90.607575000000011
 51
103.454403
  0
ARC
  5
2EA
  8
_________1
 62
     7
 10
151.39818199999999
 20
63.551954000000002
 30
0.0
 40
0.5382520000000001
 50
73.545465000000007
 51
89.899759000000003
  0
ARC
  5
2EB
  8
_________1
 62
     7
 10
151.24469300000001
 20
62.943255000000008
 30
0.0
 40
1.165770999999999
 50
58.793271000000011
 51
74.784808999999996
  0
ARC
  5
2EC
  8
_________1
 62
     7
 10
154.62897100000001
 20
57.438153999999997
 30
0.0
 40
4.8447219999999991
 50
101.265255
 51
103.53347599999999
  0
ARC
  5
2ED
  8
_________1
 62
     7
 10
152.60742200000001
 20
65.565735000000004
 30
0.0
 40
3.5308229999999998
 50
278.20872800000001
 51
284.56322399999999
  0
ARC
  5
2EE
  8
_________1
 62
     7
 10
152.90400399999999
 20
63.506652000000003
 30
0.0
 40
1.4504909999999991
 50
270.46058399999998
 51
278.22654899999998
  0
LINE
  5
2EF
  8
_________1
 62
     7
 10
152.916
 20
62.05619999999999
 30
0.0
 11
152.61600000000001
 21
62.05619999999999
 31
0.0
  0
ARC
  5
2F0
  8
_________1
 62
     7
 10
152.61674199999999
 20
63.421264000000001
 30
0.0
 40
1.365056
 50
259.821392
 51
269.96629900000011
  0
ARC
  5
2F1
  8
_________1
 62
     7
 10
152.93358499999999
 20
65.425130999999993
 30
0.0
 40
3.3936410000000001
 50
256.99407100000002
 51
260.53492899999998
  0
ARC
  5
2F2
  8
_________1
 62
     7
 10
158.13701900000001
 20
89.875030000000024
 30
0.0
 40
28.390657999999998
 50
257.20332300000001
 51
257.86704600000002
  0
ARC
  5
2F3
  8
_________1
 62
     7
 10
152.714077
 20
61.379460999999999
 30
0.0
 40
2.7031419999999988
 50
101.56193399999999
 51
108.67098
  0
ARC
  5
2F4
  8
_________1
 62
     7
 10
152.82477700000001
 20
61.011285999999998
 30
0.0
 40
3.0862270000000001
 50
94.643259
 51
102.205439
  0
ARC
  5
2F5
  8
_________1
 62
     7
 10
152.693344
 20
62.534403000000012
 30
0.0
 40
1.557488
 50
87.333510000000018
 51
94.359881999999999
  0
ARC
  5
2F6
  8
_________1
 62
     7
 10
152.823463
 20
63.130619000000003
 30
0.0
 40
0.9613179999999999
 50
88.333309000000014
 51
93.438787000000019
  0
ARC
  5
2F7
  8
_________1
 62
     7
 10
152.80278000000001
 20
62.16069499999999
 30
0.0
 40
1.9314469999999999
 50
84.112194000000002
 51
88.556846999999991
  0
ARC
  5
2F8
  8
_________1
 62
     7
 10
152.65757300000001
 20
60.717984999999992
 30
0.0
 40
3.3814440000000001
 50
72.355053999999996
 51
84.172393999999997
  0
LINE
  5
2F9
  8
_________1
 62
     7
 10
153.59899999999999
 20
64.207300000000004
 30
0.0
 11
152.76599999999999
 21
64.207300000000004
 31
0.0
  0
LINE
  5
2FA
  8
_________1
 62
     7
 10
151.93199999999999
 20
64.207300000000004
 30
0.0
 11
152.76599999999999
 21
64.207300000000004
 31
0.0
  0
LINE
  5
2FB
  8
_________1
 62
     7
 10
151.232
 20
62.023099999999999
 30
0.0
 11
152.76599999999999
 21
62.023099999999999
 31
0.0
  0
LINE
  5
2FC
  8
_________1
 62
     7
 10
152.76599999999999
 20
62.023099999999999
 30
0.0
 11
154.29900000000001
 21
62.023099999999999
 31
0.0
  0
LINE
  5
2FD
  8
_________1
 62
     7
 10
154.5
 20
62.156500000000001
 30
0.0
 11
154.29900000000001
 21
62.039999999999999
 31
0.0
  0
LINE
  5
2FE
  8
_________1
 62
     7
 10
154.29900000000001
 20
62.039999999999999
 30
0.0
 11
154.29900000000001
 21
62.023099999999999
 31
0.0
  0
LINE
  5
2FF
  8
_________1
 62
     7
 10
154.59899999999999
 20
62.189500000000002
 30
0.0
 11
154.29900000000001
 21
62.039999999999999
 31
0.0
  0
LINE
  5
300
  8
_________1
 62
     7
 10
150.93199999999999
 20
62.189500000000002
 30
0.0
 11
151.232
 21
62.023099999999999
 31
0.0
  0
LINE
  5
301
  8
_________1
 62
     7
 10
151.232
 20
64.107100000000003
 30
0.0
 11
154.29900000000001
 21
64.107100000000003
 31
0.0
  0
LINE
  5
302
  8
_________1
 62
     7
 10
151.732
 20
64.190100000000001
 30
0.0
 11
153.79900000000001
 21
64.190100000000001
 31
0.0
  0
ARC
  5
303
  8
_________1
 62
     7
 10
153.42792800000001
 20
64.659501000000006
 30
0.0
 40
0.483503
 50
290.74322699999999
 51
325.26113199999998
  0
ARC
  5
304
  8
_________1
 62
     7
 10
153.54119
 20
64.565159999999992
 30
0.0
 40
0.33692
 50
327.46970599999997
 51
341.294916
  0
LINE
  5
305
  8
_________1
 62
     7
 10
153.86000000000001
 20
64.457099999999997
 30
0.0
 11
153.88200000000001
 21
64.523600000000002
 31
0.0
  0
LINE
  5
306
  8
_________1
 62
     7
 10
153.88200000000001
 20
64.523600000000002
 30
0.0
 11
153.88200000000001
 21
64.623900000000006
 31
0.0
  0
LINE
  5
307
  8
_________1
 62
     7
 10
153.88200000000001
 20
64.623900000000006
 30
0.0
 11
153.84899999999999
 21
64.740300000000005
 31
0.0
  0
LINE
  5
308
  8
_________1
 62
     7
 10
151.666
 20
64.740300000000005
 30
0.0
 11
151.68199999999999
 21
64.740300000000005
 31
0.0
  0
ARC
  5
309
  8
_________1
 62
     7
 10
155.784505
 20
64.083759000000001
 30
0.0
 40
4.1707279999999987
 50
170.943029
 51
172.55947900000001
  0
LINE
  5
30A
  8
_________1
 62
     7
 10
151.649
 20
64.623900000000006
 30
0.0
 11
151.649
 21
64.523600000000002
 31
0.0
  0
LINE
  5
30B
  8
_________1
 62
     7
 10
151.649
 20
64.523600000000002
 30
0.0
 11
151.67099999999999
 21
64.457099999999997
 31
0.0
  0
ARC
  5
30C
  8
_________1
 62
     7
 10
152.35623899999999
 20
64.686688000000004
 30
0.0
 40
0.723055
 50
198.51245499999999
 51
204.210757
  0
ARC
  5
30D
  8
_________1
 62
     7
 10
151.95842999999999
 20
64.507952000000003
 30
0.0
 40
0.286937
 50
204.23544699999999
 51
243.54544300000001
  0
ARC
  5
30E
  8
_________1
 62
     7
 10
152.96193199999999
 20
66.352952999999999
 30
0.0
 40
2.387019
 50
241.708968
 51
244.00961000000001
  0
LINE
  5
30F
  8
_________1
 62
     7
 10
151.916
 20
64.207300000000004
 30
0.0
 11
151.93199999999999
 21
64.207300000000004
 31
0.0
  0
LINE
  5
310
  8
_________1
 62
     7
 10
151.79900000000001
 20
65.023799999999994
 30
0.0
 11
153.71600000000001
 21
65.023799999999994
 31
0.0
  0
LINE
  5
311
  8
_________1
 62
     7
 10
151.79900000000001
 20
66.357100000000003
 30
0.0
 11
152.76599999999999
 21
66.357100000000003
 31
0.0
  0
LINE
  5
312
  8
_________1
 62
     7
 10
152.76599999999999
 20
66.357100000000003
 30
0.0
 11
153.71600000000001
 21
66.357100000000003
 31
0.0
  0
LINE
  5
313
  8
_________1
 62
     7
 10
153.88200000000001
 20
66.72399999999999
 30
0.0
 11
153.88200000000001
 21
66.640600000000006
 31
0.0
  0
LINE
  5
314
  8
_________1
 62
     7
 10
153.88200000000001
 20
66.640600000000006
 30
0.0
 11
153.833
 21
66.556899999999985
 31
0.0
  0
LINE
  5
315
  8
_________1
 62
     7
 10
151.63200000000001
 20
66.72399999999999
 30
0.0
 11
151.649
 21
66.640600000000006
 31
0.0
  0
LINE
  5
316
  8
_________1
 62
     7
 10
151.649
 20
66.640600000000006
 30
0.0
 11
151.68199999999999
 21
66.556899999999985
 31
0.0
  0
LINE
  5
317
  8
_________1
 62
     7
 10
151.63200000000001
 20
67.190799999999996
 30
0.0
 11
153.88200000000001
 21
67.190799999999996
 31
0.0
  0
LINE
  5
318
  8
_________1
 62
     7
 10
151.63200000000001
 20
67.190799999999996
 30
0.0
 11
151.63200000000001
 21
66.72399999999999
 31
0.0
  0
LINE
  5
319
  8
_________1
 62
     7
 10
153.88200000000001
 20
67.190799999999996
 30
0.0
 11
153.88200000000001
 21
66.72399999999999
 31
0.0
  0
LINE
  5
31A
  8
_________1
 62
     7
 10
154.29900000000001
 20
64.107100000000003
 30
0.0
 11
154.59899999999999
 21
63.940300000000001
 31
0.0
  0
LINE
  5
31B
  8
_________1
 62
     7
 10
151.232
 20
64.107100000000003
 30
0.0
 11
150.93199999999999
 21
63.940300000000001
 31
0.0
  0
LINE
  5
31C
  8
_________1
 62
     7
 10
151.68199999999999
 20
66.556899999999985
 30
0.0
 11
151.79900000000001
 21
66.357100000000003
 31
0.0
  0
LINE
  5
31D
  8
_________1
 62
     7
 10
151.79900000000001
 20
65.023799999999994
 30
0.0
 11
151.68199999999999
 21
64.740300000000005
 31
0.0
  0
LINE
  5
31E
  8
_________1
 62
     7
 10
153.833
 20
66.556899999999985
 30
0.0
 11
153.71600000000001
 21
66.357100000000003
 31
0.0
  0
LINE
  5
31F
  8
_________1
 62
     7
 10
153.71600000000001
 20
65.023799999999994
 30
0.0
 11
153.84899999999999
 21
64.740300000000005
 31
0.0
  0
LINE
  5
320
  8
_________1
 62
     7
 10
151.79900000000001
 20
66.357100000000003
 30
0.0
 11
151.79900000000001
 21
65.023799999999994
 31
0.0
  0
LINE
  5
321
  8
_________1
 62
     7
 10
153.71600000000001
 20
66.357100000000003
 30
0.0
 11
153.71600000000001
 21
65.023799999999994
 31
0.0
  0
LINE
  5
322
  8
_________1
 62
     7
 10
151.732
 20
64.190100000000001
 30
0.0
 11
151.732
 21
64.107100000000003
 31
0.0
  0
LINE
  5
323
  8
_________1
 62
     7
 10
153.79900000000001
 20
64.190100000000001
 30
0.0
 11
153.79900000000001
 21
64.107100000000003
 31
0.0
  0
LINE
  5
324
  8
_________1
 62
     7
 10
150.93199999999999
 20
62.189500000000002
 30
0.0
 11
151.232
 21
62.023099999999999
 31
0.0
  0
LINE
  5
325
  8
_________1
 62
     7
 10
154.59899999999999
 20
62.189500000000002
 30
0.0
 11
154.29900000000001
 21
62.023099999999999
 31
0.0
  0
LINE
  5
326
  8
_________1
 62
     7
 10
144.02799999999999
 20
117.01900000000001
 30
0.0
 11
144.02799999999999
 21
92.192699999999988
 31
0.0
  0
LINE
  5
327
  8
_________1
 62
     7
 10
145.69499999999999
 20
92.192699999999988
 30
0.0
 11
145.69499999999999
 21
117.01900000000001
 31
0.0
  0
LINE
  5
328
  8
_________1
 62
     7
 10
146.77000000000001
 20
63.744700000000002
 30
0.0
 11
146.71000000000001
 21
63.517600000000002
 31
0.0
  0
LINE
  5
329
  8
_________1
 62
     7
 10
146.71000000000001
 20
63.517600000000002
 30
0.0
 11
146.68899999999999
 21
63.493200000000002
 31
0.0
  0
LINE
  5
32A
  8
_________1
 62
     7
 10
146.68899999999999
 20
63.493200000000002
 30
0.0
 11
146.60400000000001
 21
63.493200000000002
 31
0.0
  0
LINE
  5
32B
  8
_________1
 62
     7
 10
146.60400000000001
 20
63.493200000000002
 30
0.0
 11
146.583
 21
63.517600000000002
 31
0.0
  0
LINE
  5
32C
  8
_________1
 62
     7
 10
146.583
 20
63.517600000000002
 30
0.0
 11
146.524
 21
63.740200000000002
 31
0.0
  0
LINE
  5
32D
  8
_________1
 62
     7
 10
146.524
 20
63.740200000000002
 30
0.0
 11
146.297
 21
63.799799999999991
 31
0.0
  0
LINE
  5
32E
  8
_________1
 62
     7
 10
146.297
 20
63.799799999999991
 30
0.0
 11
146.27199999999999
 21
63.821800000000003
 31
0.0
  0
LINE
  5
32F
  8
_________1
 62
     7
 10
146.27199999999999
 20
63.821800000000003
 30
0.0
 11
146.27199999999999
 21
63.905500000000011
 31
0.0
  0
LINE
  5
330
  8
_________1
 62
     7
 10
146.27199999999999
 20
63.905500000000011
 30
0.0
 11
146.297
 21
63.926600000000001
 31
0.0
  0
LINE
  5
331
  8
_________1
 62
     7
 10
146.297
 20
63.926600000000001
 30
0.0
 11
146.52000000000001
 21
63.985500000000002
 31
0.0
  0
LINE
  5
332
  8
_________1
 62
     7
 10
146.52000000000001
 20
63.985500000000002
 30
0.0
 11
146.58000000000001
 21
64.213200000000001
 31
0.0
  0
LINE
  5
333
  8
_________1
 62
     7
 10
146.58000000000001
 20
64.213200000000001
 30
0.0
 11
146.601
 21
64.238299999999995
 31
0.0
  0
LINE
  5
334
  8
_________1
 62
     7
 10
146.601
 20
64.238299999999995
 30
0.0
 11
146.68600000000001
 21
64.238299999999995
 31
0.0
  0
LINE
  5
335
  8
_________1
 62
     7
 10
146.68600000000001
 20
64.238299999999995
 30
0.0
 11
146.70699999999999
 21
64.213200000000001
 31
0.0
  0
LINE
  5
336
  8
_________1
 62
     7
 10
146.70699999999999
 20
64.213200000000001
 30
0.0
 11
146.76599999999999
 21
63.990299999999991
 31
0.0
  0
LINE
  5
337
  8
_________1
 62
     7
 10
146.76599999999999
 20
63.990299999999991
 30
0.0
 11
146.99199999999999
 21
63.930399999999999
 31
0.0
  0
LINE
  5
338
  8
_________1
 62
     7
 10
146.99199999999999
 20
63.930399999999999
 30
0.0
 11
147.018
 21
63.908999999999999
 31
0.0
  0
LINE
  5
339
  8
_________1
 62
     7
 10
147.018
 20
63.908999999999999
 30
0.0
 11
147.018
 21
63.8249
 31
0.0
  0
LINE
  5
33A
  8
_________1
 62
     7
 10
147.018
 20
63.8249
 30
0.0
 11
146.99199999999999
 21
63.803600000000003
 31
0.0
  0
LINE
  5
33B
  8
_________1
 62
     7
 10
146.99199999999999
 20
63.803600000000003
 30
0.0
 11
146.77000000000001
 21
63.744700000000002
 31
0.0
  0
LINE
  5
33C
  8
_________1
 62
     7
 10
147.34800000000001
 20
63.0319
 30
0.0
 11
147.34800000000001
 21
64.699299999999994
 31
0.0
  0
ARC
  5
33D
  8
_________1
 62
     7
 10
147.07335900000001
 20
62.092396000000001
 30
0.0
 40
2.6213700000000002
 50
83.978285999999997
 51
95.370908999999997
  0
ARC
  5
33E
  8
_________1
 62
     7
 10
146.99928399999999
 20
63.061757999999998
 30
0.0
 40
1.6494180000000001
 50
95.960944999999995
 51
115.021359
  0
ARC
  5
33F
  8
_________1
 62
     7
 10
146.75305900000001
 20
63.647762
 30
0.0
 40
1.0145699999999991
 50
116.418492
 51
140.810981
  0
ARC
  5
340
  8
_________1
 62
     7
 10
146.54450700000001
 20
63.866928000000001
 30
0.0
 40
0.7154560000000001
 50
143.86260300000001
 51
224.30363500000001
  0
ARC
  5
341
  8
_________1
 62
     7
 10
146.754625
 20
64.084731999999988
 30
0.0
 40
1.0179949999999991
 50
224.81649400000001
 51
250.528448
  0
ARC
  5
342
  8
_________1
 62
     7
 10
146.975075
 20
64.597073999999992
 30
0.0
 40
1.574954999999999
 50
249.18017699999999
 51
264.64140099999997
  0
ARC
  5
343
  8
_________1
 62
     7
 10
147.075255
 20
65.377689000000004
 30
0.0
 40
2.3616669999999989
 50
263.99019399999997
 51
276.64046000000002
  0
ARC
  5
344
  8
_________1
 62
     7
 10
146.691451
 20
64.211922999999999
 30
0.0
 40
0.306414
 50
98.029281000000026
 51
107.571719
  0
ARC
  5
345
  8
_________1
 62
     7
 10
154.31115600000001
 20
33.583697999999998
 30
0.0
 40
31.867628
 50
104.005055
 51
104.53087499999999
  0
ARC
  5
346
  8
_________1
 62
     7
 10
151.71315000000001
 20
58.809046000000002
 30
0.0
 40
7.794338999999999
 50
133.82895300000001
 51
136.25558699999999
  0
ARC
  5
347
  8
_________1
 62
     7
 10
146.371689
 20
64.078777000000002
 30
0.0
 40
0.313155
 50
157.54642699999999
 51
166.80331000000001
  0
ARC
  5
348
  8
_________1
 62
     7
 10
-128.442881
 20
145.94579400000001
 30
0.0
 40
286.43686000000002
 50
343.34826299999997
 51
343.40754800000002
  0
LINE
  5
349
  8
_________1
 62
     7
 10
145.982
 20
63.866300000000003
 30
0.0
 11
146.01499999999999
 21
63.753999999999991
 31
0.0
  0
LINE
  5
34A
  8
_________1
 62
     7
 10
146.01499999999999
 20
63.753999999999991
 30
0.0
 11
146.08199999999999
 21
63.532400000000003
 31
0.0
  0
LINE
  5
34B
  8
_________1
 62
     7
 10
146.08199999999999
 20
63.532400000000003
 30
0.0
 11
146.316
 21
63.299199999999999
 31
0.0
  0
ARC
  5
34C
  8
_________1
 62
     7
 10
146.515907
 20
63.807933999999989
 30
0.0
 40
0.5467750000000001
 50
248.49943400000001
 51
255.74812800000001
  0
ARC
  5
34D
  8
_________1
 62
     7
 10
152.06283500000001
 20
82.088008000000002
 30
0.0
 40
19.649343999999999
 50
253.19315599999999
 51
254.00580299999999
  0
ARC
  5
34E
  8
_________1
 62
     7
 10
143.58574100000001
 20
74.017900999999995
 30
0.0
 40
11.243824
 50
285.80762600000003
 51
287.58000700000002
  0
ARC
  5
34F
  8
_________1
 62
     7
 10
146.79643799999999
 20
63.530991
 30
0.0
 40
0.296784
 50
308.64901600000002
 51
318.48894300000001
  0
ARC
  5
350
  8
_________1
 62
     7
 10
119.55656399999999
 20
90.791672999999989
 30
0.0
 40
38.833947000000002
 50
315.00494300000003
 51
315.41687400000001
  0
ARC
  5
351
  8
_________1
 62
     7
 10
124.561187
 20
69.367469
 30
0.0
 40
23.393581999999999
 50
345.55630000000002
 51
346.399044
  0
ARC
  5
352
  8
_________1
 62
     7
 10
146.967769
 20
63.81730799999999
 30
0.0
 40
0.334578
 50
8.415324
 51
17.544387
  0
ARC
  5
353
  8
_________1
 62
     7
 10
115.959035
 20
56.083779999999997
 30
0.0
 40
32.292498000000002
 50
14.040456000000001
 51
14.55353
  0
LINE
  5
354
  8
_________1
 62
     7
 10
147.215
 20
64.198400000000007
 30
0.0
 11
146.982
 21
64.432000000000002
 31
0.0
  0
ARC
  5
355
  8
_________1
 62
     7
 10
143.06288499999999
 20
49.479801000000002
 30
0.0
 40
15.457197000000001
 50
75.313316999999984
 51
76.586297999999985
  0
LINE
  5
356
  8
_________1
 62
     7
 10
142.93199999999999
 20
63.744700000000002
 30
0.0
 11
142.99100000000001
 21
63.517600000000002
 31
0.0
  0
LINE
  5
357
  8
_________1
 62
     7
 10
142.99100000000001
 20
63.517600000000002
 30
0.0
 11
143.012
 21
63.493200000000002
 31
0.0
  0
LINE
  5
358
  8
_________1
 62
     7
 10
143.012
 20
63.493200000000002
 30
0.0
 11
143.09700000000001
 21
63.493200000000002
 31
0.0
  0
LINE
  5
359
  8
_________1
 62
     7
 10
143.09700000000001
 20
63.493200000000002
 30
0.0
 11
143.11799999999999
 21
63.517600000000002
 31
0.0
  0
LINE
  5
35A
  8
_________1
 62
     7
 10
143.11799999999999
 20
63.517600000000002
 30
0.0
 11
143.17699999999999
 21
63.740200000000002
 31
0.0
  0
LINE
  5
35B
  8
_________1
 62
     7
 10
143.17699999999999
 20
63.740200000000002
 30
0.0
 11
143.404
 21
63.799799999999991
 31
0.0
  0
LINE
  5
35C
  8
_________1
 62
     7
 10
143.404
 20
63.799799999999991
 30
0.0
 11
143.429
 21
63.821800000000003
 31
0.0
  0
LINE
  5
35D
  8
_________1
 62
     7
 10
143.429
 20
63.821800000000003
 30
0.0
 11
143.429
 21
63.905500000000011
 31
0.0
  0
LINE
  5
35E
  8
_________1
 62
     7
 10
143.429
 20
63.905500000000011
 30
0.0
 11
143.404
 21
63.926600000000001
 31
0.0
  0
LINE
  5
35F
  8
_________1
 62
     7
 10
143.404
 20
63.926600000000001
 30
0.0
 11
143.18199999999999
 21
63.985500000000002
 31
0.0
  0
LINE
  5
360
  8
_________1
 62
     7
 10
143.18199999999999
 20
63.985500000000002
 30
0.0
 11
143.12100000000001
 21
64.213200000000001
 31
0.0
  0
LINE
  5
361
  8
_________1
 62
     7
 10
143.12100000000001
 20
64.213200000000001
 30
0.0
 11
143.09999999999999
 21
64.238299999999995
 31
0.0
  0
LINE
  5
362
  8
_________1
 62
     7
 10
143.09999999999999
 20
64.238299999999995
 30
0.0
 11
143.01499999999999
 21
64.238299999999995
 31
0.0
  0
LINE
  5
363
  8
_________1
 62
     7
 10
143.01499999999999
 20
64.238299999999995
 30
0.0
 11
142.994
 21
64.213200000000001
 31
0.0
  0
LINE
  5
364
  8
_________1
 62
     7
 10
142.994
 20
64.213200000000001
 30
0.0
 11
142.93600000000001
 21
63.990299999999991
 31
0.0
  0
LINE
  5
365
  8
_________1
 62
     7
 10
142.93600000000001
 20
63.990299999999991
 30
0.0
 11
142.709
 21
63.930399999999999
 31
0.0
  0
LINE
  5
366
  8
_________1
 62
     7
 10
142.709
 20
63.930399999999999
 30
0.0
 11
142.684
 21
63.908999999999999
 31
0.0
  0
LINE
  5
367
  8
_________1
 62
     7
 10
142.684
 20
63.908999999999999
 30
0.0
 11
142.684
 21
63.8249
 31
0.0
  0
LINE
  5
368
  8
_________1
 62
     7
 10
142.684
 20
63.8249
 30
0.0
 11
142.709
 21
63.803600000000003
 31
0.0
  0
LINE
  5
369
  8
_________1
 62
     7
 10
142.709
 20
63.803600000000003
 30
0.0
 11
142.93199999999999
 21
63.744700000000002
 31
0.0
  0
LINE
  5
36A
  8
_________1
 62
     7
 10
142.35299999999989
 20
63.0319
 30
0.0
 11
142.35299999999989
 21
64.699299999999994
 31
0.0
  0
ARC
  5
36B
  8
_________1
 62
     7
 10
142.62792999999999
 20
62.092396000000001
 30
0.0
 40
2.6213700000000002
 50
84.629070999999996
 51
96.021694000000011
  0
ARC
  5
36C
  8
_________1
 62
     7
 10
142.70200500000001
 20
63.061757999999998
 30
0.0
 40
1.6494180000000001
 50
64.978622000000001
 51
84.039034999999998
  0
ARC
  5
36D
  8
_________1
 62
     7
 10
142.948229
 20
63.647762
 30
0.0
 40
1.0145699999999991
 50
39.189
 51
63.581488000000007
  0
ARC
  5
36E
  8
_________1
 62
     7
 10
143.15678199999999
 20
63.866928000000001
 30
0.0
 40
0.7154560000000001
 50
315.69640199999998
 51
36.137360000000001
  0
ARC
  5
36F
  8
_________1
 62
     7
 10
142.946664
 20
64.084731999999988
 30
0.0
 40
1.0179949999999991
 50
289.47157200000009
 51
315.18352599999997
  0
ARC
  5
370
  8
_________1
 62
     7
 10
142.726214
 20
64.597073999999992
 30
0.0
 40
1.574954999999999
 50
275.35861899999998
 51
290.81984199999999
  0
ARC
  5
371
  8
_________1
 62
     7
 10
142.626034
 20
65.377689000000004
 30
0.0
 40
2.3616669999999989
 50
263.35955999999999
 51
276.00982599999998
  0
ARC
  5
372
  8
_________1
 62
     7
 10
142.787541
 20
63.171553000000003
 30
0.0
 40
1.3697449999999991
 50
74.283938000000006
 51
78.826022999999992
  0
ARC
  5
373
  8
_________1
 62
     7
 10
138.825166
 20
47.024973000000003
 30
0.0
 40
17.994686000000002
 50
75.316420000000008
 51
76.065318000000005
  0
ARC
  5
374
  8
_________1
 62
     7
 10
115.25096499999999
 20
36.146560999999998
 30
0.0
 40
39.895744999999998
 50
44.678511999999998
 51
45.152214000000001
  0
ARC
  5
375
  8
_________1
 62
     7
 10
143.396558
 20
64.101667000000006
 30
0.0
 40
0.242887
 50
12.812143000000001
 51
23.465138
  0
ARC
  5
376
  8
_________1
 62
     7
 10
97.383088000000001
 20
50.212902999999997
 30
0.0
 40
48.306190000000001
 50
16.417963
 51
16.775963000000001
  0
LINE
  5
377
  8
_________1
 62
     7
 10
143.72
 20
63.866300000000003
 30
0.0
 11
143.68600000000001
 21
63.753999999999991
 31
0.0
  0
LINE
  5
378
  8
_________1
 62
     7
 10
143.68600000000001
 20
63.753999999999991
 30
0.0
 11
143.619
 21
63.532400000000003
 31
0.0
  0
LINE
  5
379
  8
_________1
 62
     7
 10
143.619
 20
63.532400000000003
 30
0.0
 11
143.386
 21
63.299199999999999
 31
0.0
  0
ARC
  5
37A
  8
_________1
 62
     7
 10
143.29387600000001
 20
63.510387000000001
 30
0.0
 40
0.230588
 50
282.91915599999999
 51
293.67548199999999
  0
ARC
  5
37B
  8
_________1
 62
     7
 10
137.14943400000001
 20
83.734518999999992
 30
0.0
 40
21.366965
 50
286.039107
 51
286.85677600000002
  0
ARC
  5
37C
  8
_________1
 62
     7
 10
145.63625500000001
 20
72.438675000000003
 30
0.0
 40
9.5937160000000006
 50
252.298146
 51
254.37934899999999
  0
ARC
  5
37D
  8
_________1
 62
     7
 10
142.87110300000001
 20
63.491089000000002
 30
0.0
 40
0.244762
 50
220.99216000000001
 51
231.62401199999999
  0
ARC
  5
37E
  8
_________1
 62
     7
 10
159.066799
 20
79.764344999999992
 30
0.0
 40
23.203211
 50
224.391266
 51
225.093198
  0
ARC
  5
37F
  8
_________1
 62
     7
 10
165.140446
 20
69.367469
 30
0.0
 40
23.393581999999999
 50
193.600976
 51
194.44372000000001
  0
ARC
  5
380
  8
_________1
 62
     7
 10
142.73386500000001
 20
63.81730799999999
 30
0.0
 40
0.334578
 50
162.45559299999999
 51
171.584656
  0
ARC
  5
381
  8
_________1
 62
     7
 10
173.74259900000001
 20
56.083779999999997
 30
0.0
 40
32.292498000000002
 50
165.44645
 51
165.95952500000001
  0
LINE
  5
382
  8
_________1
 62
     7
 10
142.48599999999999
 20
64.198400000000007
 30
0.0
 11
142.71899999999999
 21
64.432000000000002
 31
0.0
  0
ARC
  5
383
  8
_________1
 62
     7
 10
148.78401700000001
 20
40.857473999999989
 30
0.0
 40
24.342124999999999
 50
103.617366
 51
104.427271
  0
LINE
  5
384
  8
_________1
  6
AIGENLINE001
 62
     7
 10
146.36099999999999
 20
116.464
 30
0.0
 11
146.36099999999999
 21
131.61699999999999
 31
0.0
  0
ARC
  5
385
  8
_________1
 62
     7
 10
48.594968000000001
 20
61.82186999999999
 30
0.0
 40
17.310134000000001
 50
359.943218
 51
13.520694000000001
  0
ARC
  5
386
  8
_________1
 62
     7
 10
47.607409999999987
 20
61.819996000000003
 30
0.0
 40
18.297689999999999
 50
332.90139399999998
 51
359.95215000000002
  0
ARC
  5
387
  8
_________1
 62
     7
 10
48.816564
 20
61.619548999999999
 30
0.0
 40
17.13401
 50
270.69490200000001
 51
331.65614599999998
  0
ARC
  5
388
  8
_________1
 62
     7
 10
49.445601000000003
 20
60.069237999999999
 30
0.0
 40
15.588131000000001
 50
190.765286
 51
268.45152000000002
  0
LINE
  5
389
  8
_________1
 62
     7
 10
34.131799999999998
 20
57.157600000000002
 30
0.0
 11
33.635399999999997
 21
60.220300000000002
 31
0.0
  0
LINE
  5
38A
  8
_________1
 62
     7
 10
32.513300000000001
 20
67.141499999999994
 30
0.0
 11
31.924399999999999
 21
70.774799999999999
 31
0.0
  0
ARC
  5
38B
  8
_________1
 62
     7
 10
67.403824
 20
74.990531000000004
 30
0.0
 40
35.729058999999999
 50
177.722992
 51
186.77628200000001
  0
ARC
  5
38C
  8
_________1
 62
     7
 10
60.648363000000003
 20
75.065507999999994
 30
0.0
 40
28.976599
 50
152.16768500000001
 51
177.34041999999999
  0
ARC
  5
38D
  8
_________1
 62
     7
 10
67.492727999999985
 20
71.617735999999994
 30
0.0
 40
36.639201
 50
147.85530800000001
 51
152.39694600000001
  0
ARC
  5
38E
  8
_________1
 62
     7
 10
78.373407999999984
 20
64.89778299999999
 30
0.0
 40
49.427461999999998
 50
144.229073
 51
147.97045
  0
ARC
  5
38F
  8
_________1
 62
     7
 10
106.15553800000001
 20
45.233176999999998
 30
0.0
 40
83.464140000000015
 50
142.93736100000001
 51
144.42460800000001
  0
ARC
  5
390
  8
_________1
 62
     7
 10
213.46091100000001
 20
-35.606693
 30
0.0
 40
217.81263300000001
 50
142.37189900000001
 51
142.9803
  0
ARC
  5
391
  8
_________1
 62
     7
 10
-316.67850900000002
 20
371.98720500000002
 30
0.0
 40
450.90325999999999
 50
322.480864
 51
322.69403299999999
  0
ARC
  5
392
  8
_________1
 62
     7
 10
-40.217520999999998
 20
161.25205099999999
 30
0.0
 40
103.28282900000001
 50
322.73056100000002
 51
323.9851569999999
  0
ARC
  5
393
  8
_________1
 62
     7
 10
0.3614489999999999
 20
131.64525800000001
 30
0.0
 40
53.051364999999997
 50
324.07983300000001
 51
326.81106299999999
  0
ARC
  5
394
  8
_________1
 62
     7
 10
16.068093000000001
 20
121.243855
 30
0.0
 40
34.213366000000001
 50
326.98988000000003
 51
331.17938600000002
  0
ARC
  5
395
  8
_________1
 62
     7
 10
24.085854999999999
 20
116.73712399999999
 30
0.0
 40
25.016321999999999
 50
331.370362
 51
338.099874
  0
ARC
  5
396
  8
_________1
 62
     7
 10
28.823225999999998
 20
114.732545
 30
0.0
 40
19.873351
 50
338.36779200000001
 51
359.92607099999998
  0
LINE
  5
397
  8
_________1
 62
     7
 10
48.696599999999989
 20
114.70699999999999
 30
0.0
 11
48.696599999999989
 21
117.01900000000001
 31
0.0
  0
ARC
  5
398
  8
_________1
 62
     7
 10
48.587446
 20
61.821747000000002
 30
0.0
 40
15.48451
 50
359.9369779999999
 51
13.514509
  0
ARC
  5
399
  8
_________1
 62
     7
 10
47.707025000000002
 20
61.823430000000002
 30
0.0
 40
16.364932
 50
330.30690700000002
 51
359.93447600000002
  0
ARC
  5
39A
  8
_________1
 62
     7
 10
48.861156999999999
 20
61.548552000000001
 30
0.0
 40
15.229825
 50
270.614014
 51
329.05433599999998
  0
ARC
  5
39B
  8
_________1
 62
     7
 10
49.394366999999988
 20
60.008774000000003
 30
0.0
 40
13.694172
 50
190.76873699999999
 51
268.45174100000003
  0
LINE
  5
39C
  8
_________1
 62
     7
 10
35.941400000000002
 20
57.450099999999999
 30
0.0
 11
35.445099999999996
 21
60.510399999999997
 31
0.0
  0
LINE
  5
39D
  8
_________1
 62
     7
 10
34.322200000000002
 20
67.434700000000007
 30
0.0
 11
33.739199999999997
 21
71.029399999999995
 31
0.0
  0
ARC
  5
39E
  8
_________1
 62
     7
 10
67.636914000000004
 20
75.055553000000003
 30
0.0
 40
34.135942
 50
177.888644
 51
186.773584
  0
ARC
  5
39F
  8
_________1
 62
     7
 10
60.457996999999992
 20
75.126533999999992
 30
0.0
 40
26.959979000000001
 50
152.09655699999999
 51
177.47730799999999
  0
ARC
  5
3A0
  8
_________1
 62
     7
 10
67.497155000000006
 20
71.542946000000001
 30
0.0
 40
34.858037000000003
 50
147.43777399999999
 51
152.30572100000001
  0
ARC
  5
3A1
  8
_________1
 62
     7
 10
78.243415999999996
 20
64.842147999999995
 30
0.0
 40
47.521732999999998
 50
144.783638
 51
147.602127
  0
ARC
  5
3A2
  8
_________1
 62
     7
 10
97.083978000000002
 20
51.709840999999997
 30
0.0
 40
70.487181000000007
 50
143.322419
 51
144.89407499999999
  0
ARC
  5
3A3
  8
_________1
 62
     7
 10
135.35763499999999
 20
23.387924000000002
 30
0.0
 40
118.100109
 50
142.83340100000001
 51
143.393654
  0
ARC
  5
3A4
  8
_________1
 62
     7
 10
267.54159700000002
 20
-76.992366000000004
 30
0.0
 40
284.07840599999997
 50
142.41976399999999
 51
142.80629400000001
  0
ARC
  5
3A5
  8
_________1
 62
     7
 10
-325.72966100000002
 20
378.92114199999997
 30
0.0
 40
464.13818700000002
 50
322.482462
 51
322.699319
  0
ARC
  5
3A6
  8
_________1
 62
     7
 10
-41.191650000000003
 20
162.053042
 30
0.0
 40
106.376223
 50
322.743382
 51
323.99159100000008
  0
ARC
  5
3A7
  8
_________1
 62
     7
 10
0.107202
 20
131.92079000000001
 30
0.0
 40
55.253523999999999
 50
324.09024899999997
 51
326.76301100000001
  0
ARC
  5
3A8
  8
_________1
 62
     7
 10
16.833091
 20
120.83538
 30
0.0
 40
35.188017000000002
 50
326.93306699999999
 51
332.02204499999999
  0
ARC
  5
3A9
  8
_________1
 62
     7
 10
25.540322
 20
116.065715
 30
0.0
 40
25.261136
 50
332.31097499999998
 51
340.09299499999997
  0
ARC
  5
3AA
  8
_________1
 62
     7
 10
29.266065999999999
 20
114.60508799999999
 30
0.0
 40
21.260940999999999
 50
340.37529799999999
 51
355.01789100000002
  0
ARC
  5
3AB
  8
_________1
  6
AIGENLINE001
 62
     7
 10
48.578307000000002
 20
61.820285999999989
 30
0.0
 40
16.410221
 50
359.94563299999999
 51
13.512413
  0
ARC
  5
3AC
  8
_________1
  6
AIGENLINE001
 62
     7
 10
47.780107000000001
 20
61.836379000000001
 30
0.0
 40
17.208442000000002
 50
326.38515699999999
 51
359.8945720000001
  0
ARC
  5
3AD
  8
_________1
  6
AIGENLINE001
 62
     7
 10
48.907743000000004
 20
61.475788000000001
 30
0.0
 40
16.073011000000001
 50
270.41573099999999
 51
325.23019699999998
  0
ARC
  5
3AE
  8
_________1
  6
AIGENLINE001
 62
     7
 10
49.420974999999999
 20
60.040156000000003
 30
0.0
 40
14.642327999999999
 50
190.76854700000001
 51
268.44786800000003
  0
ARC
  5
3AF
  8
_________1
 62
     7
 10
60.237157000000003
 20
114.55803299999999
 30
0.0
 40
8.1248100000000001
 50
180.675152
 51
193.52104399999999
  0
ARC
  5
3B0
  8
_________1
  6
AIGENLINE001
 62
     7
 10
61.428067000000013
 20
114.69425
 30
0.0
 40
8.4814480000000003
 50
179.914514
 51
193.55781400000001
  0
ARC
  5
3B1
  8
_________1
 62
     7
 10
60.182010999999989
 20
114.54516
 30
0.0
 40
6.402010999999999
 50
179.936826
 51
193.514084
  0
INSERT
  5
3B2
  8
_________1
 62
     7
  2
AIGNBL02010009
 10
0.0
 20
0.0
 30
0.0
  0
INSERT
  5
3B3
  8
_________1
 62
     7
  2
AIGNBL0201000A
 10
0.0
 20
0.0
 30
0.0
  0
INSERT
  5
3B4
  8
_________1
 62
     7
  2
AIGNBL0201000B
 10
0.0
 20
0.0
 30
0.0
  0
INSERT
  5
3B5
  8
_________1
 62
     7
  2
AIGNBL0201000D
 10
0.0
 20
0.0
 30
0.0
  0
LINE
  5
3B6
  8
_________1
 62
     7
 10
149.44399999999999
 20
131.923
 30
0.0
 11
149.44399999999999
 21
136.75999999999999
 31
0.0
  0
LINE
  5
3B7
  8
_________1
 62
     7
 10
140.27799999999999
 20
131.923
 30
0.0
 11
140.27799999999999
 21
136.75999999999999
 31
0.0
  0
INSERT
  5
3B8
  8
_________1
 62
     7
  2
AIGNBL0201000E
 10
0.0
 20
0.0
 30
0.0
  0
LINE
  5
3B9
  8
_________1
 62
     7
 10
108.244
 20
167.852
 30
0.0
 11
101.158
 21
167.852
 31
0.0
  0
INSERT
  5
3BA
  8
_________1
 62
     7
  2
AIGNBL0201000F
 10
0.0
 20
0.0
 30
0.0
  0
INSERT
  5
3BB
  8
_________1
 62
     7
  2
AIGNBL02010010
 10
0.0
 20
0.0
 30
0.0
  0
INSERT
  5
3BC
  8
_________1
 62
     7
  2
AIGNBL02010011
 10
0.0
 20
0.0
 30
0.0
  0
INSERT
  5
3BD
  8
_________1
 62
     7
  2
AIGNBL02010012
 10
0.0
 20
0.0
 30
0.0
  0
LINE
  5
3BE
  8
_________1
 62
     7
 10
60.113900000000001
 20
253.88900000000001
 30
0.0
 11
60.447299999999998
 21
253.88900000000001
 31
0.0
  0
LINE
  5
3BF
  8
_________1
 62
     7
 10
60.113900000000001
 20
247.88900000000001
 30
0.0
 11
60.447299999999998
 21
247.88900000000001
 31
0.0
  0
LINE
  5
3C0
  8
_________1
 62
     7
 10
60.113900000000001
 20
254.22200000000001
 30
0.0
 11
60.113900000000001
 21
247.55600000000001
 31
0.0
  0
LINE
  5
3C1
  8
_________1
 62
     7
 10
60.447299999999998
 20
254.22200000000001
 30
0.0
 11
60.447299999999998
 21
247.55600000000001
 31
0.0
  0
LINE
  5
3C2
  8
_________1
 62
     7
 10
79.879900000000006
 20
150.18600000000001
 30
0.0
 11
64.912599999999998
 21
150.18600000000001
 31
0.0
  0
LINE
  5
3C3
  8
_________1
 62
     7
 10
86.617800000000003
 20
164.51900000000001
 30
0.0
 11
63.775300000000001
 21
164.51900000000001
 31
0.0
  0
LINE
  5
3C4
  8
_________1
 62
     7
 10
72.180700000000002
 20
62.018300000000011
 30
0.0
 11
54.151699999999991
 21
62.018300000000011
 31
0.0
  0
LINE
  5
3C5
  8
_________1
 62
     7
 10
86.617800000000003
 20
130.352
 30
0.0
 11
56.563299999999998
 21
130.352
 31
0.0
  0
LINE
  5
3C6
  8
_________1
 62
     7
 10
174.32599999999999
 20
208.52000000000001
 30
0.0
 11
132.15899999999999
 21
208.52000000000001
 31
0.0
  0
LINE
  5
3C7
  8
_________1
 62
     7
 10
168.55699999999999
 20
157.96799999999999
 30
0.0
 11
157.869
 21
157.96799999999999
 31
0.0
  0
LINE
  5
3C8
  8
_________1
 62
     7
 10
174.32599999999999
 20
130.352
 30
0.0
 11
150.14400000000001
 21
130.352
 31
0.0
  0
LINE
  5
3C9
  8
_________1
 62
     7
 10
139.578
 20
130.352
 30
0.0
 11
101.158
 21
130.352
 31
0.0
  0
INSERT
  5
3CA
  8
_________1
 62
     7
  2
AIGNBL02010013
 10
0.0
 20
0.0
 30
0.0
  0
INSERT
  5
3CB
  8
_________1
 62
     7
  2
AIGNBL02010014
 10
0.0
 20
0.0
 30
0.0
  0
INSERT
  5
3CC
  8
_________1
 62
     7
  2
AIGNBL02010015
 10
0.0
 20
0.0
 30
0.0
  0
INSERT
  5
3CD
  8
_________1
 62
     7
  2
AIGNBL02010016
 10
0.0
 20
0.0
 30
0.0
  0
INSERT
  5
3CE
  8
_________1
 62
     7
  2
AIGNBL02010017
 10
0.0
 20
0.0
 30
0.0
  0
ARC
  5
3CF
  8
_________1
 62
     7
 10
55.239818000000007
 20
150.13708099999999
 30
0.0
 40
1.862477999999999
 50
178.52372199999999
 51
182.079442
  0
ARC
  5
3D0
  8
_________1
 62
     7
 10
58.361339000000001
 20
150.21213900000001
 30
0.0
 40
4.9848140000000001
 50
181.639725
 51
204.62202500000001
  0
ARC
  5
3D1
  8
_________1
 62
     7
 10
57.048718000000008
 20
149.65998400000001
 30
0.0
 40
3.561780999999999
 50
205.34474
 51
228.55812
  0
ARC
  5
3D2
  8
_________1
 62
     7
 10
56.696080000000002
 20
149.34485100000001
 30
0.0
 40
3.092654
 50
229.591444
 51
237.37065000000001
  0
ARC
  5
3D3
  8
_________1
 62
     7
 10
55.239818000000007
 20
150.233046
 30
0.0
 40
1.862477999999999
 50
177.920558
 51
181.47627800000001
  0
ARC
  5
3D4
  8
_________1
 62
     7
 10
58.361339000000001
 20
150.15798899999999
 30
0.0
 40
4.9848140000000001
 50
155.37797499999999
 51
178.360275
  0
ARC
  5
3D5
  8
_________1
 62
     7
 10
57.048718000000008
 20
150.71014400000001
 30
0.0
 40
3.561780999999999
 50
131.44188
 51
154.65526
  0
ARC
  5
3D6
  8
_________1
 62
     7
 10
56.696080000000002
 20
151.02527699999999
 30
0.0
 40
3.092654
 50
122.62935
 51
130.408556
  0
LINE
  5
3D7
  8
_________1
 62
     7
 10
52.425400000000003
 20
254.374
 30
0.0
 11
52.422600000000003
 21
254.375
 31
0.0
  0
ARC
  5
3D8
  8
_________1
 62
     7
 10
54.430216000000001
 20
232.32209800000001
 30
0.0
 40
21.902062000000001
 50
89.994895000000014
 51
91.305414999999996
  0
ARC
  5
3D9
  8
_________1
 62
     7
 10
53.767806
 20
269.11315999999999
 30
0.0
 40
14.895581
 50
268.67261400000001
 51
270.62868500000002
  0
ARC
  5
3DA
  8
_________1
 62
     7
 10
53.581564
 20
259.18501600000002
 30
0.0
 40
4.9659800000000001
 50
262.27334200000001
 51
268.16729299999997
  0
ARC
  5
3DB
  8
_________1
 62
     7
 10
53.369083000000003
 20
257.42818999999997
 30
0.0
 40
3.196639999999999
 50
252.8295
 51
261.813602
  0
ARC
  5
3DC
  8
_________1
 62
     7
 10
54.430216000000001
 20
269.45957600000003
 30
0.0
 40
21.902062000000001
 50
268.69458500000002
 51
270.0051049999999
  0
ARC
  5
3DD
  8
_________1
 62
     7
 10
53.767656000000002
 20
232.65471099999999
 30
0.0
 40
14.909385
 50
89.371321999999978
 51
91.326906000000008
  0
ARC
  5
3DE
  8
_________1
 62
     7
 10
53.685878000000002
 20
240.31511
 30
0.0
 40
7.2497769999999999
 50
92.082747999999981
 51
93.276623999999984
  0
ARC
  5
3DF
  8
_________1
 62
     7
 10
106.928838
 20
172.416068
 30
0.0
 40
2.1535660000000001
 50
357.70775800000001
 51
0.045637
  0
ARC
  5
3E0
  8
_________1
 62
     7
 10
106.556487
 20
172.415257
 30
0.0
 40
2.5256359999999991
 50
356.07618000000002
 51
358.06401099999999
  0
ARC
  5
3E1
  8
_________1
 62
     7
 10
106.82233600000001
 20
172.40635499999999
 30
0.0
 40
2.2598199999999991
 50
353.64705800000002
 51
355.84011299999997
  0
ARC
  5
3E2
  8
_________1
 62
     7
 10
107.120321
 20
172.346881
 30
0.0
 40
1.9572579999999999
 50
351.9488990000001
 51
354.41214200000002
  0
ARC
  5
3E3
  8
_________1
 62
     7
 10
106.862371
 20
172.37948499999999
 30
0.0
 40
2.2172350000000001
 50
349.94347499999998
 51
352.04827699999998
  0
ARC
  5
3E4
  8
_________1
 62
     7
 10
107.40454699999999
 20
172.25737100000001
 30
0.0
 40
1.662263
 50
348.15528000000012
 51
350.824636
  0
ARC
  5
3E5
  8
_________1
 62
     7
 10
105.72141000000001
 20
172.59149500000001
 30
0.0
 40
3.3781940000000001
 50
347.24627900000002
 51
348.46855799999997
  0
ARC
  5
3E6
  8
_________1
 62
     7
 10
106.21463
 20
172.48599200000001
 30
0.0
 40
2.8738589999999991
 50
345.83419600000002
 51
347.12697800000001
  0
ARC
  5
3E7
  8
_________1
 62
     7
 10
107.269156
 20
172.206355
 30
0.0
 40
1.7830109999999999
 50
344.41716700000001
 51
346.25391300000001
  0
ARC
  5
3E8
  8
_________1
 62
     7
 10
107.36622
 20
172.15315000000001
 30
0.0
 40
1.675411999999999
 50
343.60872000000001
 51
345.27812499999999
  0
ARC
  5
3E9
  8
_________1
 62
     7
 10
107.609343
 20
172.054787
 30
0.0
 40
1.4146469999999991
 50
343.04674399999999
 51
344.651993
  0
ARC
  5
3EA
  8
_________1
 62
     7
 10
104.12014600000001
 20
173.1527449999999
 30
0.0
 40
5.072474999999999
 50
342.33937400000002
 51
342.67598099999998
  0
ARC
  5
3EB
  8
_________1
 62
     7
 10
103.17016099999999
 20
173.40755899999999
 30
0.0
 40
6.0551620000000002
 50
342.58285899999998
 51
342.76896499999998
  0
ARC
  5
3EC
  8
_________1
 62
     7
 10
108.72789400000001
 20
171.66178199999999
 30
0.0
 40
0.2297
 50
340.63478099999998
 51
343.12150200000002
  0
ARC
  5
3ED
  8
_________1
 62
     7
 10
109.31653
 20
171.46913699999999
 30
0.0
 40
0.3897439999999999
 50
161.14537100000001
 51
162.610873
  0
LINE
  5
3EE
  8
_________1
 62
     7
 10
108.94499999999999
 20
171.58600000000001
 30
0.0
 11
108.94799999999999
 21
171.595
 31
0.0
  0
ARC
  5
3EF
  8
_________1
 62
     7
 10
106.928838
 20
172.419499
 30
0.0
 40
2.1535660000000001
 50
359.954363
 51
2.292241999999999
  0
ARC
  5
3F0
  8
_________1
 62
     7
 10
106.543269
 20
172.41929200000001
 30
0.0
 40
2.5388809999999991
 50
1.9488849999999991
 51
3.9224619999999999
  0
ARC
  5
3F1
  8
_________1
 62
     7
 10
106.84912
 20
172.43100899999999
 30
0.0
 40
2.2329629999999998
 50
4.1593730000000004
 51
6.3744049999999994
  0
ARC
  5
3F2
  8
_________1
 62
     7
 10
107.093009
 20
172.485646
 30
0.0
 40
1.984702999999999
 50
5.5885220000000002
 51
8.0226369999999996
  0
ARC
  5
3F3
  8
_________1
 62
     7
 10
106.907545
 20
172.462253
 30
0.0
 40
2.171618
 50
7.950863
 51
10.095394000000001
  0
ARC
  5
3F4
  8
_________1
 62
     7
 10
107.370531
 20
172.572326
 30
0.0
 40
1.6967239999999999
 50
9.1764189999999992
 51
11.797269999999999
  0
ARC
  5
3F5
  8
_________1
 62
     7
 10
105.72141000000001
 20
172.2439
 30
0.0
 40
3.3781940000000001
 50
11.531442
 51
12.753721000000001
  0
ARC
  5
3F6
  8
_________1
 62
     7
 10
105.991271
 20
172.29569900000001
 30
0.0
 40
3.1035689999999989
 50
12.920866
 51
14.117959000000001
  0
ARC
  5
3F7
  8
_________1
 62
     7
 10
106.405609
 20
172.41699499999999
 30
0.0
 40
2.672210999999999
 50
13.762729
 51
14.982825
  0
ARC
  5
3F8
  8
_________1
 62
     7
 10
104.32481799999999
 20
171.80122900000001
 30
0.0
 40
4.8417899999999996
 50
15.656015999999999
 51
16.234772
  0
ARC
  5
3F9
  8
_________1
 62
     7
 10
110.34666900000001
 20
173.57314600000001
 30
0.0
 40
1.4354260000000001
 50
195.359647
 51
196.94165699999999
  0
ARC
  5
3FA
  8
_________1
 62
     7
 10
108.63083899999999
 20
173.104737
 30
0.0
 40
0.343201
 50
14.891302
 51
19.895339
  0
ARC
  5
3FB
  8
_________1
 62
     7
 10
109.00259699999999
 20
173.24706699999999
 30
0.0
 40
0.055292
 50
186.844336
 51
207.507507
  0
ARC
  5
3FC
  8
_________1
 62
     7
 10
108.935228
 20
173.241488
 30
0.0
 40
0.012512
 50
355.36649699999998
 51
41.503396999999993
  0
ARC
  5
3FD
  8
_________1
 62
     7
 10
62.773637999999991
 20
254.051379
 30
0.0
 40
0.173257
 50
2.168069
 51
87.772638999999984
  0
ARC
  5
3FE
  8
_________1
 62
     7
 10
62.773381999999991
 20
247.731405
 30
0.0
 40
0.173516
 50
272.308672
 51
357.80984000000001
  0
ARC
  5
3FF
  8
_________1
 62
     7
 10
62.773393999999989
 20
250.48146499999999
 30
0.0
 40
0.17351
 50
272.30474099999998
 51
357.75454999999999
  0
ARC
  5
400
  8
_________1
 62
     7
 10
62.773463
 20
251.30131800000001
 30
0.0
 40
0.173431
 50
2.164463
 51
87.717025000000007
  0
ARC
  5
401
  8
_________1
 62
     7
 10
62.052043999999988
 20
250.86933500000001
 30
0.0
 40
0.6056770000000001
 50
92.083351000000008
 51
177.916619
  0
ARC
  5
402
  8
_________1
 62
     7
 10
62.052430999999999
 20
250.913759
 30
0.0
 40
0.6060780000000001
 50
182.11862600000001
 51
267.88140299999998
  0
ARC
  5
403
  8
_________1
 62
     7
 10
51.279881000000003
 20
250.890837
 30
0.0
 40
1.991622999999999
 50
0.00001
 51
89.999980000000008
  0
ARC
  5
404
  8
_________1
 62
     7
 10
51.356884999999998
 20
250.81383400000001
 30
0.0
 40
2.0700579999999991
 50
92.131799999999984
 51
177.86816999999999
  0
ARC
  5
405
  8
_________1
 62
     7
 10
51.197007999999997
 20
250.821844
 30
0.0
 40
2.0775570000000001
 50
356.88937600000003
 51
82.677968999999976
  0
ARC
  5
406
  8
_________1
 62
     7
 10
51.348716000000003
 20
250.80819
 30
0.0
 40
2.0773479999999989
 50
86.879895999999988
 51
172.68832800000001
  0
ARC
  5
407
  8
_________1
 62
     7
 10
50.245034999999987
 20
250.95889900000009
 30
0.0
 40
0.9635040000000001
 50
173.224819
 51
178.353095
  0
ARC
  5
408
  8
_________1
 62
     7
 10
51.415244999999999
 20
250.896445
 30
0.0
 40
2.135219999999999
 50
177.58034900000001
 51
185.03345400000001
  0
ARC
  5
409
  8
_________1
 62
     7
 10
51.086412000000003
 20
250.932286
 30
0.0
 40
3.808991999999999
 50
305.01264900000001
 51
30.802624999999999
  0
ARC
  5
40A
  8
_________1
 62
     7
 10
51.279769999999999
 20
250.890805
 30
0.0
 40
3.6666249999999989
 50
32.907105000000001
 51
122.904427
  0
ARC
  5
40B
  8
_________1
 62
     7
 10
51.280031000000001
 20
250.89090999999999
 30
0.0
 40
3.6666780000000001
 50
122.908733
 51
212.90733900000001
  0
ARC
  5
40C
  8
_________1
 62
     7
 10
49.863574999999997
 20
249.864035
 30
0.0
 40
1.9218419999999989
 50
210.14622700000001
 51
218.69882000000001
  0
ARC
  5
40D
  8
_________1
 62
     7
 10
51.472028999999992
 20
251.09063800000001
 30
0.0
 40
3.94435
 50
217.99641500000001
 51
234.34411399999999
  0
ARC
  5
40E
  8
_________1
 62
     7
 10
50.175474999999999
 20
249.33741800000001
 30
0.0
 40
1.764300999999999
 50
235.367549
 51
239.796954
  0
ARC
  5
40F
  8
_________1
 62
     7
 10
51.280054
 20
250.89083600000001
 30
0.0
 40
4.5832040000000003
 50
46.666066999999991
 51
136.66603699999999
  0
ARC
  5
410
  8
_________1
 62
     7
 10
51.280053000000002
 20
250.890837
 30
0.0
 40
4.5832019999999991
 50
136.66603699999999
 51
226.66608600000001
  0
ARC
  5
411
  8
_________1
 62
     7
 10
49.538072999999997
 20
248.93134599999999
 30
0.0
 40
1.9640369999999989
 50
224.400498
 51
227.95534100000009
  0
ARC
  5
412
  8
_________1
 62
     7
 10
50.79877299999999
 20
250.32841099999999
 30
0.0
 40
3.8458329999999998
 50
227.94645800000001
 51
234.627341
  0
ARC
  5
413
  8
_________1
 62
     7
 10
51.720009999999988
 20
251.53446
 30
0.0
 40
5.3628080000000002
 50
234.06100099999989
 51
239.76759000000001
  0
ARC
  5
414
  8
_________1
 62
     7
 10
50.450899999999997
 20
249.35548399999999
 30
0.0
 40
2.8411869999999988
 50
239.754762
 51
245.84481700000001
  0
ARC
  5
415
  8
_________1
 62
     7
 10
52.47052
 20
248.60265899999999
 30
0.0
 40
2.0065430000000002
 50
293.53802899999999
 51
297.01730199999997
  0
ARC
  5
416
  8
_________1
 62
     7
 10
51.636078000000012
 20
250.23682500000001
 30
0.0
 40
3.8414250000000001
 50
297.03287799999998
 51
303.72096499999998
  0
ARC
  5
417
  8
_________1
 62
     7
 10
50.832256000000001
 20
251.53672599999999
 30
0.0
 40
5.3691219999999991
 50
303.15473800000001
 51
308.85483299999999
  0
ARC
  5
418
  8
_________1
 62
     7
 10
52.411190000000012
 20
249.576224
 30
0.0
 40
2.8518609999999991
 50
308.86173500000012
 51
314.92937499999999
  0
ARC
  5
419
  8
_________1
 62
     7
 10
51.978895000000001
 20
214.761875
 30
0.0
 40
0.134363
 50
283.04046799999998
 51
359.63992400000001
  0
ARC
  5
41A
  8
_________1
 62
     7
 10
50.580413
 20
214.76159100000001
 30
0.0
 40
0.133907
 50
180.23951700000001
 51
257.26498500000002
  0
ARC
  5
41B
  8
_________1
 62
     7
 10
51.356084000000003
 20
217.634669
 30
0.0
 40
2.0692289999999991
 50
182.11051399999999
 51
267.88951600000001
  0
ARC
  5
41C
  8
_________1
 62
     7
 10
51.279881000000003
 20
217.55846700000001
 30
0.0
 40
1.991622999999999
 50
270.00002000000001
 51
359.99999000000003
  0
ARC
  5
41D
  8
_________1
 62
     7
 10
51.279865999999991
 20
217.550185
 30
0.0
 40
1.999865999999999
 50
174.79083900000001
 51
264.79169899999999
  0
ARC
  5
41E
  8
_________1
 62
     7
 10
51.211353000000003
 20
217.632499
 30
0.0
 40
2.0770009999999992
 50
266.88045799999998
 51
352.69673799999998
  0
ARC
  5
41F
  8
_________1
 62
     7
 10
52.314571000000001
 20
217.48215400000001
 30
0.0
 40
0.9636630000000001
 50
353.22484900000001
 51
358.35100199999999
  0
ARC
  5
420
  8
_________1
 62
     7
 10
51.146836
 20
217.54452000000001
 30
0.0
 40
2.1329020000000001
 50
357.57905099999999
 51
5.0361719999999996
  0
ARC
  5
421
  8
_________1
 62
     7
 10
51.280050000000003
 20
217.55021400000001
 30
0.0
 40
2.583327999999999
 50
140.45731799999999
 51
230.45203199999989
  0
ARC
  5
422
  8
_________1
 62
     7
 10
51.279980999999999
 20
217.54997299999999
 30
0.0
 40
2.5830980000000001
 50
230.44980799999999
 51
320.454183
  0
ARC
  5
423
  8
_________1
 62
     7
 10
51.426147
 20
217.489689
 30
0.0
 40
2.432450999999999
 50
319.35698300000001
 51
354.86918800000001
  0
ARC
  5
424
  8
_________1
 62
     7
 10
51.227735000000003
 20
217.533522
 30
0.0
 40
2.6341149999999991
 50
354.30552499999999
 51
39.102848999999999
  0
ARC
  5
425
  8
_________1
 62
     7
 10
51.024029999999989
 20
216.34168199999999
 30
0.0
 40
1.7749269999999999
 50
254.53998200000001
 51
263.34956199999999
  0
ARC
  5
426
  8
_________1
 62
     7
 10
51.274760000000001
 20
218.12793300000001
 30
0.0
 40
3.578444999999999
 50
262.67428100000001
 51
279.78072300000002
  0
ARC
  5
427
  8
_________1
 62
     7
 10
51.577170000000002
 20
216.19945200000001
 30
0.0
 40
1.6268899999999991
 50
280.82293300000009
 51
285.40044
  0
ARC
  5
428
  8
_________1
 62
     7
 10
46.783144999999998
 20
131.098939
 30
0.0
 40
0.086709
 50
92.165056000000007
 51
177.834914
  0
ARC
  5
429
  8
_________1
 62
     7
 10
55.776770999999989
 20
131.0990929999999
 30
0.0
 40
0.086551
 50
2.0674399999999991
 51
87.932551000000004
  0
ARC
  5
42A
  8
_________1
 62
     7
 10
62.774171000000003
 20
147.024845
 30
0.0
 40
0.172699
 50
272.05762799999991
 51
358.06088399999999
  0
ARC
  5
42B
  8
_________1
 62
     7
 10
62.773463
 20
164.345697
 30
0.0
 40
0.173431
 50
2.164463
 51
87.717025000000007
  0
ARC
  5
42C
  8
_________1
 62
     7
 10
62.225749
 20
163.74000899999999
 30
0.0
 40
0.779521
 50
92.130552000000009
 51
177.86941899999999
  0
ARC
  5
42D
  8
_________1
 62
     7
 10
51.279966999999999
 20
172.417697
 30
0.0
 40
0.8332879999999999
 50
0.005932
 51
90.005902000000006
  0
ARC
  5
42E
  8
_________1
 62
     7
 10
51.279795
 20
172.417697
 30
0.0
 40
0.8332879999999999
 50
89.994078000000002
 51
179.99404799999999
  0
ARC
  5
42F
  8
_________1
 62
     7
 10
51.279881000000003
 20
172.41778400000001
 30
0.0
 40
0.8333739999999998
 50
179.99996999999999
 51
270.00002000000001
  0
ARC
  5
430
  8
_________1
 62
     7
 10
51.279881000000003
 20
172.41778400000001
 30
0.0
 40
0.8333739999999998
 50
270.00002000000001
 51
359.99999000000003
  0
LINE
  5
431
  8
_________1
 62
     7
 10
56.307699999999997
 20
153.52000000000001
 30
0.0
 11
56.3797
 21
153.518
 31
0.0
  0
ARC
  5
432
  8
_________1
 62
     7
 10
56.382823000000002
 20
145.47508099999999
 30
0.0
 40
1.3768359999999991
 50
90.130442000000016
 51
93.142692000000011
  0
ARC
  5
433
  8
_________1
 62
     7
 10
56.535268999999992
 20
154.952663
 30
0.0
 40
1.5887489999999991
 50
180.039928
 51
182.66862800000001
  0
ARC
  5
434
  8
_________1
 62
     7
 10
56.169690000000003
 20
145.42608999999999
 30
0.0
 40
1.2231939999999999
 50
176.93763000000001
 51
180.36023999999989
  0
ARC
  5
435
  8
_________1
 62
     7
 10
56.411386999999991
 20
145.38664800000001
 30
0.0
 40
1.4668929999999989
 50
94.067381000000012
 51
175.90353400000001
  0
ARC
  5
436
  8
_________1
 62
     7
 10
56.411093999999991
 20
154.98321299999989
 30
0.0
 40
1.466580999999999
 50
184.08687499999991
 51
265.95673099999999
  0
ARC
  5
437
  8
_________1
 62
     7
 10
51.279881000000003
 20
206.52788899999999
 30
0.0
 40
1.991622999999999
 50
0.00001
 51
89.999980000000008
  0
ARC
  5
438
  8
_________1
 62
     7
 10
51.356884999999998
 20
206.45088699999999
 30
0.0
 40
2.0700579999999991
 50
92.131799999999984
 51
177.86816999999999
  0
ARC
  5
439
  8
_________1
 62
     7
 10
51.274220999999997
 20
179.29925900000001
 30
0.0
 40
2.4408080000000001
 50
159.46316200000001
 51
162.62575799999999
  0
ARC
  5
43A
  8
_________1
 62
     7
 10
53.229791000000013
 20
178.688266
 30
0.0
 40
4.489603999999999
 50
162.63646600000001
 51
168.90393499999999
  0
ARC
  5
43B
  8
_________1
 62
     7
 10
55.452554999999997
 20
178.191902
 30
0.0
 40
6.766602999999999
 50
168.401769
 51
176.03566599999999
  0
ARC
  5
43C
  8
_________1
 62
     7
 10
52.063186000000002
 20
178.441013
 30
0.0
 40
3.3681519999999989
 50
176.27706900000001
 51
181.819309
  0
ARC
  5
43D
  8
_________1
 62
     7
 10
46.683608999999997
 20
181.01664600000001
 30
0.0
 40
2.4605329999999999
 50
339.514118
 51
342.65169400000002
  0
ARC
  5
43E
  8
_________1
 62
     7
 10
44.734056999999993
 20
181.62437800000001
 30
0.0
 40
4.5026129999999993
 50
342.66735399999999
 51
348.91763600000002
  0
ARC
  5
43F
  8
_________1
 62
     7
 10
42.508786999999998
 20
182.120721
 30
0.0
 40
6.7820529999999994
 50
348.416268
 51
356.032555
  0
ARC
  5
440
  8
_________1
 62
     7
 10
45.913263999999991
 20
181.870071
 30
0.0
 40
3.3684229999999999
 50
356.27910300000002
 51
1.8182879999999999
  0
ARC
  5
441
  8
_________1
 62
     7
 10
51.423105
 20
178.43383399999999
 30
0.0
 40
2.4423080000000001
 50
357.65922699999999
 51
0.8210319999999999
  0
ARC
  5
442
  8
_________1
 62
     7
 10
49.380105
 20
178.403265
 30
0.0
 40
4.4855359999999989
 50
0.8375249999999999
 51
7.1118880000000004
  0
ARC
  5
443
  8
_________1
 62
     7
 10
47.107303000000002
 20
178.17939799999999
 30
0.0
 40
6.7688269999999999
 50
6.6103990000000001
 51
14.241512
  0
ARC
  5
444
  8
_________1
 62
     7
 10
50.396765999999992
 20
178.99937399999999
 30
0.0
 40
3.378766999999999
 50
14.486777999999999
 51
20.009677
  0
ARC
  5
445
  8
_________1
 62
     7
 10
55.710094999999988
 20
181.87870899999999
 30
0.0
 40
2.4323079999999999
 50
177.685169
 51
180.85847000000001
  0
ARC
  5
446
  8
_________1
 62
     7
 10
57.782240999999999
 20
181.90998500000001
 30
0.0
 40
4.5046900000000001
 50
180.86134999999999
 51
187.10757100000001
  0
ARC
  5
447
  8
_________1
 62
     7
 10
60.051496999999998
 20
182.13363100000001
 30
0.0
 40
6.7844350000000002
 50
186.61054300000001
 51
194.22461100000001
  0
ARC
  5
448
  8
_________1
 62
     7
 10
56.739187999999999
 20
181.30882500000001
 30
0.0
 40
3.3710390000000001
 50
194.46927400000001
 51
200.00625700000001
  0
ARC
  5
449
  8
_________1
 62
     7
 10
51.718806999999991
 20
155.20182800000001
 30
0.0
 40
3.2324439999999992
 50
356.89970299999999
 51
3.4191189999999998
  0
ARC
  5
44A
  8
_________1
 62
     7
 10
49.488706999999998
 20
155.096518
 30
0.0
 40
5.4649260000000002
 50
3.126817
 51
11.64644
  0
ARC
  5
44B
  8
_________1
 62
     7
 10
47.684009999999986
 20
154.792788
 30
0.0
 40
7.2940889999999987
 50
11.121392999999999
 51
23.392323000000001
  0
ARC
  5
44C
  8
_________1
 62
     7
 10
50.642516000000001
 20
156.02745999999999
 30
0.0
 40
4.0887630000000001
 50
23.972591000000001
 51
31.916264999999999
  0
ARC
  5
44D
  8
_________1
 62
     7
 10
51.169342
 20
156.446549
 30
0.0
 40
3.2326039999999998
 50
147.380563
 51
153.897862
  0
ARC
  5
44E
  8
_________1
 62
     7
 10
53.160340000000012
 20
155.43998999999999
 30
0.0
 40
5.4634729999999996
 50
153.605087
 51
162.125731
  0
ARC
  5
44F
  8
_________1
 62
     7
 10
54.892021999999997
 20
154.811104
 30
0.0
 40
7.3049009999999992
 50
161.599997
 51
173.85319000000001
  0
ARC
  5
450
  8
_________1
 62
     7
 10
51.706346000000003
 20
155.19562500000001
 30
0.0
 40
4.0965749999999987
 50
174.42944499999999
 51
182.35906900000001
  0
ARC
  5
451
  8
_________1
 62
     7
 10
56.504845999999993
 20
161.177491
 30
0.0
 40
3.2297579999999999
 50
176.913746
 51
183.438635
  0
ARC
  5
452
  8
_________1
 62
     7
 10
58.750056999999991
 20
161.28434899999999
 30
0.0
 40
5.4774079999999996
 50
183.145736
 51
191.64620099999999
  0
ARC
  5
453
  8
_________1
 62
     7
 10
60.552340000000001
 20
161.588098
 30
0.0
 40
7.3042049999999996
 50
191.12591599999999
 51
203.38015200000001
  0
ARC
  5
454
  8
_________1
 62
     7
 10
57.587637000000001
 20
160.35134500000001
 30
0.0
 40
4.0923550000000004
 50
203.95804999999999
 51
211.89478199999999
  0
ARC
  5
455
  8
_________1
 62
     7
 10
45.723506
 20
159.93271200000001
 30
0.0
 40
3.2334959999999988
 50
327.36857800000001
 51
333.885941
  0
ARC
  5
456
  8
_________1
 62
     7
 10
43.730646
 20
160.93992499999999
 30
0.0
 40
5.4663269999999988
 50
333.6006339999999
 51
342.118045
  0
ARC
  5
457
  8
_________1
 62
     7
 10
42.007962999999997
 20
161.56538699999999
 30
0.0
 40
7.2981419999999986
 50
341.59765700000003
 51
353.86242800000002
  0
ARC
  5
458
  8
_________1
 62
     7
 10
45.191626999999997
 20
161.181501
 30
0.0
 40
4.0918919999999988
 50
354.44073300000002
 51
2.3793459999999991
  0
INSERT
  5
459
  8
_________1
 62
     7
  2
AIGNBL02010018
 10
0.0
 20
0.0
 30
0.0
  0
INSERT
  5
45A
  8
_________1
 62
     7
  2
AIGNBL02010019
 10
0.0
 20
0.0
 30
0.0
  0
ARC
  5
45B
  8
_________1
 62
     7
 10
144.86098000000001
 20
163.935216
 30
0.0
 40
0.5832580000000001
 50
0.00001
 51
89.999980000000008
  0
ARC
  5
45C
  8
_________1
 62
     7
 10
144.86098000000001
 20
163.935216
 30
0.0
 40
0.5832580000000001
 50
90.0
 51
179.99996999999999
  0
ARC
  5
45D
  8
_________1
 62
     7
 10
139.30460500000001
 20
159.93271200000001
 30
0.0
 40
3.2334959999999988
 50
327.36857800000001
 51
333.885941
  0
ARC
  5
45E
  8
_________1
 62
     7
 10
137.31223700000001
 20
160.93968699999999
 30
0.0
 40
5.4657799999999996
 50
333.60056900000001
 51
342.11881299999999
  0
ARC
  5
45F
  8
_________1
 62
     7
 10
135.59340800000001
 20
161.56446600000001
 30
0.0
 40
7.2937219999999989
 50
341.593728
 51
353.86597
  0
ARC
  5
460
  8
_________1
 62
     7
 10
138.77272500000001
 20
161.181501
 30
0.0
 40
4.0918919999999988
 50
354.44073300000002
 51
2.3793459999999991
  0
ARC
  5
461
  8
_________1
 62
     7
 10
150.08856299999999
 20
161.17655500000001
 30
0.0
 40
3.2324239999999991
 50
176.899663
 51
183.41915900000001
  0
ARC
  5
462
  8
_________1
 62
     7
 10
152.32265100000001
 20
161.282364
 30
0.0
 40
5.4689149999999991
 50
183.129796
 51
191.643305
  0
ARC
  5
463
  8
_________1
 62
     7
 10
154.12481199999999
 20
161.585882
 30
0.0
 40
7.2955509999999988
 50
191.12154100000001
 51
203.39057099999999
  0
ARC
  5
464
  8
_________1
 62
     7
 10
151.162837
 20
160.34938299999999
 30
0.0
 40
4.0863110000000002
 50
203.965608
 51
211.91512399999999
  0
ARC
  5
465
  8
_________1
 62
     7
 10
146.17137299999999
 20
154.07749999999999
 30
0.0
 40
0.727595
 50
177.96250000000001
 51
208.014476
  0
ARC
  5
466
  8
_________1
 62
     7
 10
146.30444700000001
 20
154.12690900000001
 30
0.0
 40
0.868489
 50
206.76856699999999
 51
242.771559
  0
ARC
  5
467
  8
_________1
 62
     7
 10
146.20039199999999
 20
153.962322
 30
0.0
 40
0.6747510000000001
 50
244.233858
 51
252.22667799999999
  0
ARC
  5
468
  8
_________1
 62
     7
 10
144.764264
 20
156.43857600000001
 30
0.0
 40
3.2485459999999988
 50
147.393553
 51
153.87902099999999
  0
ARC
  5
469
  8
_________1
 62
     7
 10
146.74733000000001
 20
155.43713700000001
 30
0.0
 40
5.4700369999999996
 50
153.60585800000001
 51
162.116514
  0
ARC
  5
46A
  8
_________1
 62
     7
 10
148.46786700000001
 20
154.812049
 30
0.0
 40
7.2996999999999987
 50
161.59423100000001
 51
173.85625099999999
  0
ARC
  5
46B
  8
_________1
 62
     7
 10
145.28054
 20
155.196709
 30
0.0
 40
4.0897209999999991
 50
174.43533099999999
 51
182.3782159999999
  0
ARC
  5
46C
  8
_________1
 62
     7
 10
145.95112
 20
149.885865
 30
0.0
 40
1.5424180000000001
 50
336.59370799999999
 51
346.043564
  0
ARC
  5
46D
  8
_________1
 62
     7
 10
145.030283
 20
150.13342499999999
 30
0.0
 40
2.4958439999999991
 50
345.626642
 51
358.32988899999998
  0
ARC
  5
46E
  8
_________1
 62
     7
 10
144.602937
 20
150.18113
 30
0.0
 40
2.9246119999999989
 50
357.639702
 51
12.795923999999999
  0
ARC
  5
46F
  8
_________1
 62
     7
 10
145.756212
 20
150.41801000000001
 30
0.0
 40
1.747684999999999
 50
13.596821
 51
22.861222000000001
  0
ARC
  5
470
  8
_________1
 62
     7
 10
143.77083999999999
 20
150.484263
 30
0.0
 40
1.5424180000000001
 50
156.59368900000001
 51
166.043544
  0
ARC
  5
471
  8
_________1
 62
     7
 10
144.691676
 20
150.23670300000001
 30
0.0
 40
2.4958439999999991
 50
165.626622
 51
178.329869
  0
ARC
  5
472
  8
_________1
 62
     7
 10
145.11901499999999
 20
150.188998
 30
0.0
 40
2.924604
 50
177.63966199999999
 51
192.795964
  0
ARC
  5
473
  8
_________1
 62
     7
 10
143.96574799999999
 20
149.95211800000001
 30
0.0
 40
1.747684999999999
 50
193.59684100000001
 51
202.861242
  0
ARC
  5
474
  8
_________1
 62
     7
 10
145.98170300000001
 20
149.87728899999999
 30
0.0
 40
1.5943889999999989
 50
336.61824200000001
 51
346.045884
  0
ARC
  5
475
  8
_________1
 62
     7
 10
145.03018599999999
 20
150.132237
 30
0.0
 40
2.5793669999999991
 50
345.64668900000009
 51
358.323779
  0
ARC
  5
476
  8
_________1
 62
     7
 10
144.58167399999999
 20
150.181003
 30
0.0
 40
3.0293239999999999
 50
357.64995699999997
 51
12.464052000000001
  0
ARC
  5
477
  8
_________1
 62
     7
 10
145.76124999999999
 20
150.41793799999999
 30
0.0
 40
1.8265589999999989
 50
13.192864999999999
 51
22.793963000000002
  0
ARC
  5
478
  8
_________1
 62
     7
 10
143.74025700000001
 20
150.492839
 30
0.0
 40
1.5943889999999989
 50
156.618222
 51
166.04586399999999
  0
ARC
  5
479
  8
_________1
 62
     7
 10
144.69177300000001
 20
150.23789099999999
 30
0.0
 40
2.5793669999999991
 50
165.646669
 51
178.323759
  0
ARC
  5
47A
  8
_________1
 62
     7
 10
145.140277
 20
150.18912399999999
 30
0.0
 40
3.0293160000000001
 50
177.64991699999999
 51
192.464091
  0
ARC
  5
47B
  8
_________1
 62
     7
 10
143.96071000000001
 20
149.95219
 30
0.0
 40
1.8265589999999989
 50
193.19288399999999
 51
202.793983
  0
ARC
  5
47C
  8
_________1
 62
     7
 10
144.86121900000001
 20
150.18495200000001
 30
0.0
 40
3.3334929999999989
 50
109.863364
 51
199.85697200000001
  0
ARC
  5
47D
  8
_________1
 62
     7
 10
144.86109300000001
 20
150.185305
 30
0.0
 40
3.3334949999999992
 50
199.86341400000001
 51
289.856942
  0
ARC
  5
47E
  8
_________1
 62
     7
 10
144.860739
 20
150.18517700000001
 30
0.0
 40
3.3334949999999992
 50
289.863404
 51
19.856932
  0
ARC
  5
47F
  8
_________1
 62
     7
 10
145.87263899999999
 20
150.68315200000001
 30
0.0
 40
2.2161189999999991
 50
16.632452999999991
 51
28.950915000000009
  0
ARC
  5
480
  8
_________1
 62
     7
 10
144.97203400000001
 20
150.22004799999999
 30
0.0
 40
3.2284950000000001
 50
28.405818
 51
43.392997999999999
  0
ARC
  5
481
  8
_________1
 62
     7
 10
144.66822400000001
 20
149.98652899999999
 30
0.0
 40
3.6099000000000001
 50
42.773522
 51
60.394184000000003
  0
ARC
  5
482
  8
_________1
 62
     7
 10
145.26380800000001
 20
150.96957499999999
 30
0.0
 40
2.4611689999999991
 50
61.143202000000002
 51
72.756267000000008
  0
ARC
  5
483
  8
_________1
 62
     7
 10
149.35773699999999
 20
131.09896000000001
 30
0.0
 40
0.086688
 50
2.1517400000000002
 51
87.848249999999993
  0
ARC
  5
484
  8
_________1
 62
     7
 10
143.50495000000001
 20
154.012508
 30
0.0
 40
0.7276130000000001
 50
287.81308899999999
 51
317.87714399999999
  0
ARC
  5
485
  8
_________1
 62
     7
 10
143.41265000000001
 20
154.12115900000001
 30
0.0
 40
0.869149
 50
316.64559800000001
 51
352.61449599999997
  0
ARC
  5
486
  8
_________1
 62
     7
 10
143.59951100000001
 20
154.078969
 30
0.0
 40
0.6786500000000001
 50
354.11916000000002
 51
2.0603489999999991
  0
ARC
  5
487
  8
_________1
 62
     7
 10
145.30166600000001
 20
155.20173800000001
 30
0.0
 40
3.2306810000000001
 50
356.89959900000002
 51
3.4225779999999988
  0
ARC
  5
488
  8
_________1
 62
     7
 10
143.06644800000001
 20
155.095583
 30
0.0
 40
5.468318
 50
3.1346880000000001
 51
11.649117
  0
ARC
  5
489
  8
_________1
 62
     7
 10
141.25771900000001
 20
154.790325
 30
0.0
 40
7.3017300000000001
 50
11.129299
 51
23.387440000000002
  0
ARC
  5
48A
  8
_________1
 62
     7
 10
144.21792400000001
 20
156.025408
 30
0.0
 40
4.094678
 50
23.967217000000002
 51
31.898548000000002
  0
ARC
  5
48B
  8
_________1
 62
     7
 10
140.36422200000001
 20
131.09896000000001
 30
0.0
 40
0.086688
 50
92.151730000000015
 51
177.84824
  0
ARC
  5
48C
  8
_________1
 62
     7
 10
108.738617
 20
171.717975
 30
0.0
 40
0.133566
 50
192.770003
 51
269.98438700000003
  0
ARC
  5
48D
  8
_________1
 62
     7
 10
108.738664
 20
173.11741000000001
 30
0.0
 40
0.133575
 50
90.035599000000019
 51
167.30247199999999
  0
ARC
  5
48E
  8
_________1
 62
     7
 10
110.297096
 20
172.67738199999999
 30
0.0
 40
1.752761
 50
164.466623
 51
173.38907399999999
  0
ARC
  5
48F
  8
_________1
 62
     7
 10
112.09899299999999
 20
172.42287999999999
 30
0.0
 40
3.5722640000000001
 50
172.661452
 51
189.79811699999991
  0
ARC
  5
490
  8
_________1
 62
     7
 10
110.167174
 20
172.11888999999999
 30
0.0
 40
1.617156
 50
190.832536
 51
195.43647000000001
  0
ARC
  5
491
  8
_________1
 62
     7
 10
111.52520699999999
 20
179.29797099999999
 30
0.0
 40
2.4445039999999998
 50
159.463368
 51
162.62122099999999
  0
ARC
  5
492
  8
_________1
 62
     7
 10
113.48719
 20
178.68581
 30
0.0
 40
4.4997689999999997
 50
162.64417
 51
168.89744899999999
  0
ARC
  5
493
  8
_________1
 62
     7
 10
115.70079699999999
 20
178.19176300000001
 30
0.0
 40
6.7673360000000002
 50
168.40184099999999
 51
176.03491600000001
  0
ARC
  5
494
  8
_________1
 62
     7
 10
112.318578
 20
178.44093799999999
 30
0.0
 40
3.3760150000000002
 50
176.28447600000001
 51
181.813796
  0
ARC
  5
495
  8
_________1
 62
     7
 10
111.67985299999999
 20
178.43235100000001
 30
0.0
 40
2.433028999999999
 50
357.685247
 51
0.8590899999999997
  0
ARC
  5
496
  8
_________1
 62
     7
 10
109.607902
 20
178.40121199999999
 30
0.0
 40
4.5052129999999986
 50
0.8599810000000001
 51
7.1069789999999982
  0
ARC
  5
497
  8
_________1
 62
     7
 10
107.338373
 20
178.17731699999999
 30
0.0
 40
6.7852600000000001
 50
6.6120029999999987
 51
14.224418999999999
  0
ARC
  5
498
  8
_________1
 62
     7
 10
110.649187
 20
179.00117800000001
 30
0.0
 40
3.3735459999999988
 50
14.478046000000001
 51
20.009361999999999
  0
ARC
  5
499
  8
_________1
 62
     7
 10
106.93113099999999
 20
181.01664600000001
 30
0.0
 40
2.4605329999999999
 50
339.514118
 51
342.65169400000002
  0
ARC
  5
49A
  8
_________1
 62
     7
 10
104.981578
 20
181.62437800000001
 30
0.0
 40
4.5026129999999993
 50
342.66735399999999
 51
348.91763600000002
  0
ARC
  5
49B
  8
_________1
 62
     7
 10
102.756309
 20
182.120721
 30
0.0
 40
6.7820529999999994
 50
348.416268
 51
356.032555
  0
ARC
  5
49C
  8
_________1
 62
     7
 10
106.155913
 20
181.87015199999999
 30
0.0
 40
3.373291
 50
356.28310299999998
 51
1.814289
  0
ARC
  5
49D
  8
_________1
 62
     7
 10
115.957617
 20
181.87870899999999
 30
0.0
 40
2.4323079999999999
 50
177.685169
 51
180.85847000000001
  0
ARC
  5
49E
  8
_________1
 62
     7
 10
118.029763
 20
181.90998500000001
 30
0.0
 40
4.5046900000000001
 50
180.86134999999999
 51
187.10757100000001
  0
ARC
  5
49F
  8
_________1
 62
     7
 10
120.30385200000001
 20
182.134479
 30
0.0
 40
6.7893339999999993
 50
186.61296200000001
 51
194.221519
  0
ARC
  5
4A0
  8
_________1
 62
     7
 10
116.98947200000001
 20
181.30973900000001
 30
0.0
 40
3.3739469999999998
 50
194.472554
 51
200.00478699999999
  0
ARC
  5
4A1
  8
_________1
 62
     7
 10
127.624962
 20
189.30045899999999
 30
0.0
 40
15.246464
 50
2.1099450000000002
 51
87.857752000000005
  0
ARC
  5
4A2
  8
_________1
 62
     7
 10
128.757767
 20
189.30605700000001
 30
0.0
 40
15.240608
 50
92.116593999999978
 51
177.91028499999999
  0
ARC
  5
4A3
  8
_________1
 62
     7
 10
127.487752
 20
189.14607899999999
 30
0.0
 40
19.386334000000002
 50
2.1157469999999998
 51
87.909629000000024
  0
ARC
  5
4A4
  8
_________1
 62
     7
 10
128.91019299999999
 20
189.15363099999999
 30
0.0
 40
19.379086999999998
 50
92.115346999999986
 51
177.905787
  0
LINE
  5
4A5
  8
_________1
  6
AIGENLINE001
 62
     7
 10
45.04869999999999
 20
250.89099999999999
 30
0.0
 11
64.446799999999996
 21
250.89099999999999
 31
0.0
  0
LINE
  5
4A6
  8
_________1
 62
     7
 10
54.432200000000002
 20
254.22399999999999
 30
0.0
 11
60.113900000000001
 21
254.22499999999999
 31
0.0
  0
LINE
  5
4A7
  8
_________1
 62
     7
 10
60.447299999999998
 20
254.22499999999999
 30
0.0
 11
62.7804
 21
254.22499999999999
 31
0.0
  0
LINE
  5
4A8
  8
_________1
 62
     7
 10
62.950899999999997
 20
253.64099999999999
 30
0.0
 11
62.946800000000003
 21
253.64099999999999
 31
0.0
  0
LINE
  5
4A9
  8
_________1
 62
     7
 10
62.946800000000003
 20
253.47499999999999
 30
0.0
 11
62.950899999999997
 21
253.47499999999999
 31
0.0
  0
LINE
  5
4AA
  8
_________1
 62
     7
 10
62.946800000000003
 20
253.39699999999999
 30
0.0
 11
62.950899999999997
 21
253.39699999999999
 31
0.0
  0
LINE
  5
4AB
  8
_________1
 62
     7
 10
52.422600000000003
 20
254.375
 30
0.0
 11
52.4133
 21
254.37799999999999
 31
0.0
  0
LINE
  5
4AC
  8
_________1
 62
     7
 10
62.7804
 20
251.47499999999999
 30
0.0
 11
62.030000000000001
 21
251.47499999999999
 31
0.0
  0
LINE
  5
4AD
  8
_________1
 62
     7
 10
62.7804
 20
250.30799999999999
 30
0.0
 11
62.030000000000001
 21
250.30799999999999
 31
0.0
  0
LINE
  5
4AE
  8
_________1
 62
     7
 10
62.946800000000003
 20
248.386
 30
0.0
 11
62.950899999999997
 21
248.386
 31
0.0
  0
LINE
  5
4AF
  8
_________1
 62
     7
 10
62.946800000000003
 20
248.30699999999999
 30
0.0
 11
62.950899999999997
 21
248.30699999999999
 31
0.0
  0
LINE
  5
4B0
  8
_________1
 62
     7
 10
62.946800000000003
 20
248.14099999999999
 30
0.0
 11
62.950899999999997
 21
248.14099999999999
 31
0.0
  0
LINE
  5
4B1
  8
_________1
 62
     7
 10
54.432200000000002
 20
247.55799999999999
 30
0.0
 11
60.113900000000001
 21
247.55799999999999
 31
0.0
  0
LINE
  5
4B2
  8
_________1
 62
     7
 10
60.447299999999998
 20
247.55799999999999
 30
0.0
 11
62.7804
 21
247.55799999999999
 31
0.0
  0
LINE
  5
4B3
  8
_________1
 62
     7
 10
62.950899999999997
 20
253.39699999999999
 30
0.0
 11
62.950899999999997
 21
253.64099999999999
 31
0.0
  0
LINE
  5
4B4
  8
_________1
 62
     7
 10
62.950899999999997
 20
248.386
 30
0.0
 11
62.950899999999997
 21
248.14099999999999
 31
0.0
  0
LINE
  5
4B5
  8
_________1
 62
     7
 10
62.946800000000003
 20
254.05799999999999
 30
0.0
 11
62.946800000000003
 21
247.72499999999999
 31
0.0
  0
LINE
  5
4B6
  8
_________1
 62
     7
 10
53.780000000000001
 20
117.01900000000001
 30
0.0
 11
53.780000000000001
 21
114.55200000000001
 31
0.0
  0
LINE
  5
4B7
  8
_________1
  6
AIGENLINE001
 62
     7
 10
49.613100000000003
 20
132.33799999999999
 30
0.0
 11
49.613100000000003
 21
114.70699999999999
 31
0.0
  0
LINE
  5
4B8
  8
_________1
  6
AIGENLINE001
 62
     7
 10
52.946599999999997
 20
132.33799999999999
 30
0.0
 11
52.946599999999997
 21
114.70699999999999
 31
0.0
  0
LINE
  5
4B9
  8
_________1
  6
AIGENLINE001
 62
     7
 10
32.834600000000002
 20
70.882599999999996
 30
0.0
 11
35.036499999999997
 21
57.304400000000001
 31
0.0
  0
LINE
  5
4BA
  8
_________1
  6
AIGENLINE001
 62
     7
 10
51.279899999999998
 20
210.38499999999999
 30
0.0
 11
51.279899999999998
 21
60.325400000000002
 31
0.0
  0
LINE
  5
4BB
  8
_________1
  6
AIGENLINE001
 62
     7
 10
51.279899999999998
 20
256.916
 30
0.0
 11
51.279899999999998
 21
212.696
 31
0.0
  0
LINE
  5
4BC
  8
_________1
 62
     7
 10
53.271500000000003
 20
250.89099999999999
 30
0.0
 11
53.271500000000003
 21
217.55799999999999
 31
0.0
  0
LINE
  5
4BD
  8
_________1
 62
     7
 10
52.113300000000002
 20
214.761
 30
0.0
 11
52.113300000000002
 21
215.10499999999999
 31
0.0
  0
LINE
  5
4BE
  8
_________1
 62
     7
 10
50.4465
 20
214.761
 30
0.0
 11
50.4465
 21
215.10499999999999
 31
0.0
  0
LINE
  5
4BF
  8
_________1
 62
     7
 10
49.2883
 20
250.89099999999999
 30
0.0
 11
49.2883
 21
217.55799999999999
 31
0.0
  0
LINE
  5
4C0
  8
_________1
 62
     7
 10
49.280000000000001
 20
184.667
 30
0.0
 11
53.279800000000002
 21
184.667
 31
0.0
  0
LINE
  5
4C1
  8
_________1
 62
     7
 10
61.44680000000001
 20
154.352
 30
0.0
 11
61.44639999999999
 21
154.322
 31
0.0
  0
LINE
  5
4C2
  8
_________1
 62
     7
 10
61.44639999999999
 20
154.322
 30
0.0
 11
61.4437
 21
154.27799999999999
 31
0.0
  0
LINE
  5
4C3
  8
_________1
 62
     7
 10
61.4437
 20
154.27799999999999
 30
0.0
 11
61.438499999999998
 21
154.233
 31
0.0
  0
LINE
  5
4C4
  8
_________1
 62
     7
 10
61.438499999999998
 20
154.233
 30
0.0
 11
61.430900000000001
 21
154.18899999999999
 31
0.0
  0
LINE
  5
4C5
  8
_________1
 62
     7
 10
61.430900000000001
 20
154.18899999999999
 30
0.0
 11
61.420900000000003
 21
154.14599999999999
 31
0.0
  0
LINE
  5
4C6
  8
_________1
 62
     7
 10
61.420900000000003
 20
154.14599999999999
 30
0.0
 11
61.408499999999997
 21
154.10300000000001
 31
0.0
  0
LINE
  5
4C7
  8
_________1
 62
     7
 10
61.408499999999997
 20
154.10300000000001
 30
0.0
 11
61.394100000000002
 21
154.06
 31
0.0
  0
LINE
  5
4C8
  8
_________1
 62
     7
 10
61.394100000000002
 20
154.06
 30
0.0
 11
61.377499999999998
 21
154.01900000000001
 31
0.0
  0
LINE
  5
4C9
  8
_________1
 62
     7
 10
61.377499999999998
 20
154.01900000000001
 30
0.0
 11
61.358600000000003
 21
153.97900000000001
 31
0.0
  0
LINE
  5
4CA
  8
_________1
 62
     7
 10
61.358600000000003
 20
153.97900000000001
 30
0.0
 11
61.337600000000002
 21
153.93899999999999
 31
0.0
  0
LINE
  5
4CB
  8
_________1
 62
     7
 10
61.337600000000002
 20
153.93899999999999
 30
0.0
 11
61.314100000000003
 21
153.90100000000001
 31
0.0
  0
LINE
  5
4CC
  8
_________1
 62
     7
 10
61.314100000000003
 20
153.90100000000001
 30
0.0
 11
61.289299999999997
 21
153.864
 31
0.0
  0
LINE
  5
4CD
  8
_________1
 62
     7
 10
61.289299999999997
 20
153.864
 30
0.0
 11
61.262099999999997
 21
153.82900000000001
 31
0.0
  0
LINE
  5
4CE
  8
_________1
 62
     7
 10
61.262099999999997
 20
153.82900000000001
 30
0.0
 11
61.233199999999989
 21
153.79499999999999
 31
0.0
  0
LINE
  5
4CF
  8
_________1
 62
     7
 10
61.233199999999989
 20
153.79499999999999
 30
0.0
 11
61.202500000000001
 21
153.762
 31
0.0
  0
LINE
  5
4D0
  8
_________1
 62
     7
 10
61.202500000000001
 20
153.762
 30
0.0
 11
61.170099999999998
 21
153.732
 31
0.0
  0
LINE
  5
4D1
  8
_________1
 62
     7
 10
61.170099999999998
 20
153.732
 30
0.0
 11
61.1357
 21
153.703
 31
0.0
  0
LINE
  5
4D2
  8
_________1
 62
     7
 10
61.1357
 20
153.703
 30
0.0
 11
61.100499999999997
 21
153.67599999999999
 31
0.0
  0
LINE
  5
4D3
  8
_________1
 62
     7
 10
61.100499999999997
 20
153.67599999999999
 30
0.0
 11
61.063299999999991
 21
153.65100000000001
 31
0.0
  0
LINE
  5
4D4
  8
_________1
 62
     7
 10
61.063299999999991
 20
153.65100000000001
 30
0.0
 11
61.025100000000002
 21
153.62700000000001
 31
0.0
  0
LINE
  5
4D5
  8
_________1
 62
     7
 10
61.025100000000002
 20
153.62700000000001
 30
0.0
 11
60.985799999999998
 21
153.60599999999999
 31
0.0
  0
LINE
  5
4D6
  8
_________1
 62
     7
 10
60.985799999999998
 20
153.60599999999999
 30
0.0
 11
60.945500000000003
 21
153.58699999999999
 31
0.0
  0
LINE
  5
4D7
  8
_________1
 62
     7
 10
60.945500000000003
 20
153.58699999999999
 30
0.0
 11
60.90379999999999
 21
153.571
 31
0.0
  0
LINE
  5
4D8
  8
_________1
 62
     7
 10
60.90379999999999
 20
153.571
 30
0.0
 11
60.861400000000003
 21
153.55600000000001
 31
0.0
  0
LINE
  5
4D9
  8
_________1
 62
     7
 10
60.861400000000003
 20
153.55600000000001
 30
0.0
 11
60.8187
 21
153.54400000000001
 31
0.0
  0
LINE
  5
4DA
  8
_________1
 62
     7
 10
60.8187
 20
153.54400000000001
 30
0.0
 11
60.774999999999999
 21
153.53399999999999
 31
0.0
  0
LINE
  5
4DB
  8
_________1
 62
     7
 10
60.774999999999999
 20
153.53399999999999
 30
0.0
 11
60.731200000000001
 21
153.52699999999999
 31
0.0
  0
LINE
  5
4DC
  8
_________1
 62
     7
 10
60.731200000000001
 20
153.52699999999999
 30
0.0
 11
60.686799999999998
 21
153.52199999999999
 31
0.0
  0
LINE
  5
4DD
  8
_________1
 62
     7
 10
60.686799999999998
 20
153.52199999999999
 30
0.0
 11
60.641999999999989
 21
153.51900000000001
 31
0.0
  0
LINE
  5
4DE
  8
_________1
 62
     7
 10
60.641999999999989
 20
153.51900000000001
 30
0.0
 11
60.613399999999999
 21
153.51900000000001
 31
0.0
  0
LINE
  5
4DF
  8
_________1
 62
     7
 10
62.946800000000003
 20
164.352
 30
0.0
 11
62.946800000000003
 21
147.01900000000001
 31
0.0
  0
INSERT
  5
4E0
  8
_________1
 62
     7
  2
AIGNBL0201001A
 10
0.0
 20
0.0
 30
0.0
  0
INSERT
  5
4E1
  8
_________1
 62
     7
  2
AIGNBL0201001B
 10
0.0
 20
0.0
 30
0.0
  0
LINE
  5
4E2
  8
_________1
 62
     7
 10
109.027
 20
222.584
 30
0.0
 11
109.027
 21
181.78399999999999
 31
0.0
  0
LINE
  5
4E3
  8
_________1
 62
     7
 10
144.86099999999999
 20
222.59899999999999
 30
0.0
 11
144.86099999999999
 21
192.58799999999999
 31
0.0
  0
LINE
  5
4E4
  8
_________1
 62
     7
 10
111.527
 20
215.249
 30
0.0
 11
111.527
 21
192.58799999999999
 31
0.0
  0
LINE
  5
4E5
  8
_________1
 62
     7
 10
61.44680000000001
 20
168.524
 30
0.0
 11
61.44680000000001
 21
164.50299999999999
 31
0.0
  0
LINE
  5
4E6
  8
_________1
 62
     7
 10
61.44680000000001
 20
163.76900000000001
 30
0.0
 11
61.44680000000001
 21
154.352
 31
0.0
  0
LINE
  5
4E7
  8
_________1
 62
     7
 10
54.9465
 20
145.41800000000001
 30
0.0
 11
54.947600000000001
 21
145.47200000000001
 31
0.0
  0
LINE
  5
4E8
  8
_________1
 62
     7
 10
55.863300000000002
 20
131.102
 30
0.0
 11
55.863300000000002
 21
130.352
 31
0.0
  0
LINE
  5
4E9
  8
_________1
 62
     7
 10
53.863399999999999
 20
167.852
 30
0.0
 11
48.6967
 21
167.852
 31
0.0
  0
LINE
  5
4EA
  8
_________1
 62
     7
 10
53.279800000000002
 20
167.71799999999999
 30
0.0
 11
49.280000000000001
 21
167.71799999999999
 31
0.0
  0
LINE
  5
4EB
  8
_________1
 62
     7
 10
54.9465
 20
145.41800000000001
 30
0.0
 11
54.9465
 21
131.18600000000001
 31
0.0
  0
LINE
  5
4EC
  8
_________1
 62
     7
 10
54.9465
 20
155.02699999999999
 30
0.0
 11
54.9465
 21
154.952
 31
0.0
  0
LINE
  5
4ED
  8
_________1
 62
     7
 10
53.863399999999999
 20
178.334
 30
0.0
 11
53.863399999999999
 21
167.852
 31
0.0
  0
LINE
  5
4EE
  8
_________1
 62
     7
 10
53.279800000000002
 20
167.71799999999999
 30
0.0
 11
53.279800000000002
 21
161.351
 31
0.0
  0
LINE
  5
4EF
  8
_________1
 62
     7
 10
53.279800000000002
 20
184.667
 30
0.0
 11
53.279800000000002
 21
181.977
 31
0.0
  0
LINE
  5
4F0
  8
_________1
 62
     7
 10
53.271500000000003
 20
167.71799999999999
 30
0.0
 11
53.271500000000003
 21
167.852
 31
0.0
  0
LINE
  5
4F1
  8
_________1
 62
     7
 10
53.271500000000003
 20
206.52799999999999
 30
0.0
 11
53.271500000000003
 21
184.667
 31
0.0
  0
LINE
  5
4F2
  8
_________1
 62
     7
 10
54.951999999999998
 20
154.827
 30
0.0
 11
54.947600000000001
 21
154.898
 31
0.0
  0
LINE
  5
4F3
  8
_________1
 62
     7
 10
54.947600000000001
 20
154.898
 30
0.0
 11
54.9465
 21
154.952
 31
0.0
  0
LINE
  5
4F4
  8
_________1
 62
     7
 10
62.7804
 20
164.51900000000001
 30
0.0
 11
62.196800000000003
 21
164.51900000000001
 31
0.0
  0
LINE
  5
4F5
  8
_________1
 62
     7
 10
49.2883
 20
167.71799999999999
 30
0.0
 11
49.2883
 21
167.852
 31
0.0
  0
LINE
  5
4F6
  8
_________1
 62
     7
 10
49.2883
 20
206.52799999999999
 30
0.0
 11
49.2883
 21
184.667
 31
0.0
  0
LINE
  5
4F7
  8
_________1
 62
     7
 10
49.280000000000001
 20
167.71799999999999
 30
0.0
 11
49.280000000000001
 21
161.351
 31
0.0
  0
LINE
  5
4F8
  8
_________1
 62
     7
 10
49.280000000000001
 20
184.667
 30
0.0
 11
49.280000000000001
 21
181.977
 31
0.0
  0
LINE
  5
4F9
  8
_________1
 62
     7
 10
48.6967
 20
178.334
 30
0.0
 11
48.6967
 21
167.852
 31
0.0
  0
LINE
  5
4FA
  8
_________1
 62
     7
 10
47.613199999999999
 20
155.02699999999999
 30
0.0
 11
47.613199999999999
 21
131.18600000000001
 31
0.0
  0
LINE
  5
4FB
  8
_________1
 62
     7
 10
46.696499999999993
 20
131.102
 30
0.0
 11
46.696499999999993
 21
130.352
 31
0.0
  0
LINE
  5
4FC
  8
_________1
  6
AIGENLINE001
 62
     7
 10
139.84100000000001
 20
150.185
 30
0.0
 11
149.857
 21
150.185
 31
0.0
  0
LINE
  5
4FD
  8
_________1
  6
AIGENLINE001
 62
     7
 10
51.279899999999998
 20
150.185
 30
0.0
 11
64.0351
 21
150.185
 31
0.0
  0
LINE
  5
4FE
  8
_________1
 62
     7
 10
56.3797
 20
153.518
 30
0.0
 11
60.113900000000001
 21
153.51900000000001
 31
0.0
  0
LINE
  5
4FF
  8
_________1
 62
     7
 10
60.447299999999998
 20
153.51900000000001
 30
0.0
 11
60.613399999999999
 21
153.51900000000001
 31
0.0
  0
LINE
  5
500
  8
_________1
 62
     7
 10
56.3797
 20
146.852
 30
0.0
 11
60.113900000000001
 21
146.852
 31
0.0
  0
LINE
  5
501
  8
_________1
 62
     7
 10
60.447299999999998
 20
146.852
 30
0.0
 11
62.7804
 21
146.852
 31
0.0
  0
LINE
  5
502
  8
_________1
 62
     7
 10
55.779899999999991
 20
131.18600000000001
 30
0.0
 11
46.779899999999998
 21
131.18600000000001
 31
0.0
  0
LINE
  5
503
  8
_________1
 62
     7
 10
55.863300000000002
 20
130.352
 30
0.0
 11
46.696499999999993
 21
130.352
 31
0.0
  0
LINE
  5
504
  8
_________1
 62
     7
 10
147.36699999999999
 20
151.09700000000001
 30
0.0
 11
147.44499999999999
 21
151.126
 31
0.0
  0
LINE
  5
505
  8
_________1
 62
     7
 10
142.27699999999999
 20
149.245
 30
0.0
 11
142.35499999999999
 21
149.273
 31
0.0
  0
LINE
  5
506
  8
_________1
 62
     7
 10
149.44399999999999
 20
131.102
 30
0.0
 11
149.44399999999999
 21
130.352
 31
0.0
  0
LINE
  5
507
  8
_________1
 62
     7
 10
148.52799999999999
 20
155.02699999999999
 30
0.0
 11
148.52799999999999
 21
131.18600000000001
 31
0.0
  0
LINE
  5
508
  8
_________1
 62
     7
 10
109.52800000000001
 20
184.667
 30
0.0
 11
113.527
 21
184.667
 31
0.0
  0
LINE
  5
509
  8
_________1
 62
     7
 10
146.86099999999999
 20
167.71799999999999
 30
0.0
 11
146.86099999999999
 21
161.351
 31
0.0
  0
LINE
  5
50A
  8
_________1
 62
     7
 10
156.52799999999999
 20
143.50700000000001
 30
0.0
 11
156.52799999999999
 21
156.303
 31
0.0
  0
LINE
  5
50B
  8
_________1
 62
     7
 10
146.86099999999999
 20
167.71799999999999
 30
0.0
 11
146.86099999999999
 21
189.86199999999999
 31
0.0
  0
LINE
  5
50C
  8
_________1
 62
     7
 10
145.44399999999999
 20
154.10300000000001
 30
0.0
 11
145.44399999999999
 21
163.935
 31
0.0
  0
LINE
  5
50D
  8
_________1
 62
     7
 10
144.27799999999999
 20
163.935
 30
0.0
 11
144.27799999999999
 21
154.10300000000001
 31
0.0
  0
LINE
  5
50E
  8
_________1
 62
     7
 10
142.86099999999999
 20
167.71799999999999
 30
0.0
 11
142.86099999999999
 21
189.86199999999999
 31
0.0
  0
LINE
  5
50F
  8
_________1
 62
     7
 10
142.86099999999999
 20
167.71799999999999
 30
0.0
 11
142.86099999999999
 21
161.351
 31
0.0
  0
LINE
  5
510
  8
_________1
 62
     7
 10
141.19399999999999
 20
155.02699999999999
 30
0.0
 11
141.19399999999999
 21
131.18600000000001
 31
0.0
  0
LINE
  5
511
  8
_________1
 62
     7
 10
140.27799999999999
 20
131.102
 30
0.0
 11
140.27799999999999
 21
130.352
 31
0.0
  0
LINE
  5
512
  8
_________1
 62
     7
 10
108.739
 20
173.25099999999989
 30
0.0
 11
108.94499999999999
 21
173.25099999999989
 31
0.0
  0
LINE
  5
513
  8
_________1
 62
     7
 10
108.739
 20
171.584
 30
0.0
 11
108.94499999999999
 21
171.584
 31
0.0
  0
LINE
  5
514
  8
_________1
 62
     7
 10
114.111
 20
167.852
 30
0.0
 11
108.944
 21
167.852
 31
0.0
  0
LINE
  5
515
  8
_________1
 62
     7
 10
146.86099999999999
 20
167.71799999999999
 30
0.0
 11
142.86099999999999
 21
167.71799999999999
 31
0.0
  0
LINE
  5
516
  8
_________1
 62
     7
 10
142.35499999999999
 20
151.09700000000001
 30
0.0
 11
142.27699999999999
 21
151.126
 31
0.0
  0
LINE
  5
517
  8
_________1
 62
     7
 10
147.44499999999999
 20
149.245
 30
0.0
 11
147.36699999999999
 21
149.273
 31
0.0
  0
LINE
  5
518
  8
_________1
  6
AIGENLINE001
 62
     7
 10
111.527
 20
189.86199999999999
 30
0.0
 11
111.527
 21
166.53200000000001
 31
0.0
  0
LINE
  5
519
  8
_________1
 62
     7
 10
114.111
 20
178.334
 30
0.0
 11
114.111
 21
167.852
 31
0.0
  0
LINE
  5
51A
  8
_________1
 62
     7
 10
113.527
 20
189.86199999999999
 30
0.0
 11
113.527
 21
181.977
 31
0.0
  0
LINE
  5
51B
  8
_________1
 62
     7
 10
109.544
 20
189.86199999999999
 30
0.0
 11
109.544
 21
184.667
 31
0.0
  0
LINE
  5
51C
  8
_________1
 62
     7
 10
109.52800000000001
 20
184.667
 30
0.0
 11
109.52800000000001
 21
181.977
 31
0.0
  0
LINE
  5
51D
  8
_________1
 62
     7
 10
108.944
 20
171.584
 30
0.0
 11
108.944
 21
167.852
 31
0.0
  0
LINE
  5
51E
  8
_________1
 62
     7
 10
108.944
 20
178.334
 30
0.0
 11
108.944
 21
173.25099999999989
 31
0.0
  0
LINE
  5
51F
  8
_________1
 62
     7
 10
140.36099999999999
 20
131.18600000000001
 30
0.0
 11
149.36099999999999
 21
131.18600000000001
 31
0.0
  0
LINE
  5
520
  8
_________1
 62
     7
 10
140.27799999999999
 20
130.352
 30
0.0
 11
149.44399999999999
 21
130.352
 31
0.0
  0
INSERT
  5
521
  8
_________1
 62
     7
  2
AIGNBL0201001C
 10
0.0
 20
0.0
 30
0.0
  0
LINE
  5
522
  8
_________1
 62
     7
 10
67.489500000000007
 20
162.922
 30
0.0
 11
69.275800000000004
 21
166.75299999999999
 31
0.0
  0
LINE
  5
523
  8
_________1
  6
AIGENLINE002
 62
     7
 10
63.114199999999997
 20
153.53899999999999
 30
0.0
 11
67.093999999999994
 21
162.07400000000001
 31
0.0
  0
ARC
  5
524
  8
_________1
  6
AIGENLINE002
 62
     7
 10
67.787503999999984
 20
161.71901199999999
 30
0.0
 40
0.778994
 50
67.096265000000002
 51
152.90490399999999
  0
LINE
  5
525
  8
_________1
  6
AIGENLINE002
 62
     7
 10
68.090699999999998
 20
162.43700000000001
 30
0.0
 11
68.619200000000006
 21
162.19
 31
0.0
  0
ARC
  5
526
  8
_________1
  6
AIGENLINE002
 62
     7
 10
68.540751
 20
162.03612899999999
 30
0.0
 40
0.172777
 50
336.98225600000001
 51
63.012568000000002
  0
LINE
  5
527
  8
_________1
  6
AIGENLINE002
 62
     7
 10
68.699799999999996
 20
161.96899999999999
 30
0.0
 11
61.374400000000001
 21
146.25899999999999
 31
0.0
  0
ARC
  5
528
  8
_________1
  6
AIGENLINE002
 62
     7
 10
61.220198000000003
 20
146.338471
 30
0.0
 40
0.173332
 50
247.15324200000001
 51
332.84160200000002
  0
LINE
  5
529
  8
_________1
  6
AIGENLINE002
 62
     7
 10
61.152900000000002
 20
146.179
 30
0.0
 11
59.0383
 21
147.16399999999999
 31
0.0
  0
LINE
  5
52A
  8
_________1
  6
AIGENLINE002
 62
     7
 10
59.0383
 20
147.16399999999999
 30
0.0
 11
59.037599999999998
 21
147.16300000000001
 31
0.0
  0
LINE
  5
52B
  8
_________1
  6
AIGENLINE002
 62
     7
 10
59.037599999999998
 20
147.16300000000001
 30
0.0
 11
61.854999999999997
 21
153.20400000000001
 31
0.0
  0
LINE
  5
52C
  8
_________1
  6
AIGENLINE002
 62
     7
 10
61.854999999999997
 20
153.20400000000001
 30
0.0
 11
61.856000000000002
 21
153.20599999999999
 31
0.0
  0
LINE
  5
52D
  8
_________1
  6
AIGENLINE002
 62
     7
 10
61.856000000000002
 20
153.20599999999999
 30
0.0
 11
62.006599999999999
 21
153.136
 31
0.0
  0
LINE
  5
52E
  8
_________1
  6
AIGENLINE002
 62
     7
 10
62.006599999999999
 20
153.136
 30
0.0
 11
62.032800000000002
 21
153.124
 31
0.0
  0
LINE
  5
52F
  8
_________1
  6
AIGENLINE002
 62
     7
 10
62.032800000000002
 20
153.124
 30
0.0
 11
62.0745
 21
153.108
 31
0.0
  0
LINE
  5
530
  8
_________1
  6
AIGENLINE002
 62
     7
 10
62.0745
 20
153.108
 30
0.0
 11
62.116799999999998
 21
153.09399999999999
 31
0.0
  0
LINE
  5
531
  8
_________1
  6
AIGENLINE002
 62
     7
 10
62.116799999999998
 20
153.09399999999999
 30
0.0
 11
62.15959999999999
 21
153.08199999999999
 31
0.0
  0
LINE
  5
532
  8
_________1
  6
AIGENLINE002
 62
     7
 10
62.15959999999999
 20
153.08199999999999
 30
0.0
 11
62.203299999999999
 21
153.07300000000001
 31
0.0
  0
LINE
  5
533
  8
_________1
  6
AIGENLINE002
 62
     7
 10
62.203299999999999
 20
153.07300000000001
 30
0.0
 11
62.247399999999999
 21
153.066
 31
0.0
  0
LINE
  5
534
  8
_________1
  6
AIGENLINE002
 62
     7
 10
62.247399999999999
 20
153.066
 30
0.0
 11
62.291899999999998
 21
153.06100000000001
 31
0.0
  0
LINE
  5
535
  8
_________1
  6
AIGENLINE002
 62
     7
 10
62.291899999999998
 20
153.06100000000001
 30
0.0
 11
62.336599999999997
 21
153.05799999999999
 31
0.0
  0
LINE
  5
536
  8
_________1
  6
AIGENLINE002
 62
     7
 10
62.336599999999997
 20
153.05799999999999
 30
0.0
 11
62.381100000000004
 21
153.05799999999999
 31
0.0
  0
LINE
  5
537
  8
_________1
  6
AIGENLINE002
 62
     7
 10
62.381100000000004
 20
153.05799999999999
 30
0.0
 11
62.425899999999992
 21
153.06100000000001
 31
0.0
  0
LINE
  5
538
  8
_________1
  6
AIGENLINE002
 62
     7
 10
62.425899999999992
 20
153.06100000000001
 30
0.0
 11
62.470300000000002
 21
153.066
 31
0.0
  0
LINE
  5
539
  8
_________1
  6
AIGENLINE002
 62
     7
 10
62.470300000000002
 20
153.066
 30
0.0
 11
62.514400000000002
 21
153.07300000000001
 31
0.0
  0
LINE
  5
53A
  8
_________1
  6
AIGENLINE002
 62
     7
 10
62.514400000000002
 20
153.07300000000001
 30
0.0
 11
62.5578
 21
153.08199999999999
 31
0.0
  0
LINE
  5
53B
  8
_________1
  6
AIGENLINE002
 62
     7
 10
62.5578
 20
153.08199999999999
 30
0.0
 11
62.600900000000003
 21
153.09399999999999
 31
0.0
  0
LINE
  5
53C
  8
_________1
  6
AIGENLINE002
 62
     7
 10
62.600900000000003
 20
153.09399999999999
 30
0.0
 11
62.643300000000011
 21
153.108
 31
0.0
  0
LINE
  5
53D
  8
_________1
  6
AIGENLINE002
 62
     7
 10
62.643300000000011
 20
153.108
 30
0.0
 11
62.684899999999992
 21
153.124
 31
0.0
  0
LINE
  5
53E
  8
_________1
  6
AIGENLINE002
 62
     7
 10
62.684899999999992
 20
153.124
 30
0.0
 11
62.7256
 21
153.143
 31
0.0
  0
LINE
  5
53F
  8
_________1
  6
AIGENLINE002
 62
     7
 10
62.7256
 20
153.143
 30
0.0
 11
62.76489999999999
 21
153.16399999999999
 31
0.0
  0
LINE
  5
540
  8
_________1
  6
AIGENLINE002
 62
     7
 10
62.76489999999999
 20
153.16399999999999
 30
0.0
 11
62.8035
 21
153.18600000000001
 31
0.0
  0
LINE
  5
541
  8
_________1
  6
AIGENLINE002
 62
     7
 10
62.8035
 20
153.18600000000001
 30
0.0
 11
62.840699999999991
 21
153.21100000000001
 31
0.0
  0
LINE
  5
542
  8
_________1
  6
AIGENLINE002
 62
     7
 10
62.840699999999991
 20
153.21100000000001
 30
0.0
 11
62.876100000000001
 21
153.238
 31
0.0
  0
LINE
  5
543
  8
_________1
  6
AIGENLINE002
 62
     7
 10
62.876100000000001
 20
153.238
 30
0.0
 11
62.910600000000002
 21
153.267
 31
0.0
  0
LINE
  5
544
  8
_________1
  6
AIGENLINE002
 62
     7
 10
62.910600000000002
 20
153.267
 30
0.0
 11
62.943300000000001
 21
153.297
 31
0.0
  0
LINE
  5
545
  8
_________1
  6
AIGENLINE002
 62
     7
 10
62.943300000000001
 20
153.297
 30
0.0
 11
62.974299999999999
 21
153.32900000000001
 31
0.0
  0
LINE
  5
546
  8
_________1
  6
AIGENLINE002
 62
     7
 10
62.974299999999999
 20
153.32900000000001
 30
0.0
 11
63.003599999999999
 21
153.363
 31
0.0
  0
LINE
  5
547
  8
_________1
  6
AIGENLINE002
 62
     7
 10
63.003599999999999
 20
153.363
 30
0.0
 11
63.030799999999999
 21
153.398
 31
0.0
  0
LINE
  5
548
  8
_________1
  6
AIGENLINE002
 62
     7
 10
63.030799999999999
 20
153.398
 30
0.0
 11
63.0563
 21
153.435
 31
0.0
  0
LINE
  5
549
  8
_________1
  6
AIGENLINE002
 62
     7
 10
63.0563
 20
153.435
 30
0.0
 11
63.079799999999999
 21
153.47300000000001
 31
0.0
  0
LINE
  5
54A
  8
_________1
  6
AIGENLINE002
 62
     7
 10
63.079799999999999
 20
153.47300000000001
 30
0.0
 11
63.101100000000002
 21
153.512
 31
0.0
  0
LINE
  5
54B
  8
_________1
  6
AIGENLINE002
 62
     7
 10
63.101100000000002
 20
153.512
 30
0.0
 11
63.114199999999997
 21
153.53899999999999
 31
0.0
  0
LINE
  5
54C
  8
_________1
 62
     7
 10
60.113900000000001
 20
153.18299999999999
 30
0.0
 11
60.447299999999998
 21
153.18299999999999
 31
0.0
  0
LINE
  5
54D
  8
_________1
 62
     7
 10
60.113900000000001
 20
147.18299999999999
 30
0.0
 11
60.447299999999998
 21
147.18299999999999
 31
0.0
  0
LINE
  5
54E
  8
_________1
 62
     7
 10
60.113900000000001
 20
153.51599999999999
 30
0.0
 11
60.113900000000001
 21
146.84999999999999
 31
0.0
  0
LINE
  5
54F
  8
_________1
 62
     7
 10
60.447299999999998
 20
153.51599999999999
 30
0.0
 11
60.447299999999998
 21
146.84999999999999
 31
0.0
  0
ARC
  5
550
  8
_________1
 62
     7
 10
142.14541
 20
122.742878
 30
0.0
 40
0.201881
 50
182.02408199999999
 51
268.178406
  0
ARC
  5
551
  8
_________1
 62
     7
 10
142.13192100000001
 20
122.743177
 30
0.0
 40
0.202202
 50
272.00424299999997
 51
357.89444800000001
  0
ARC
  5
552
  8
_________1
 62
     7
 10
142.13189700000001
 20
122.728652
 30
0.0
 40
0.202214
 50
2.0110290000000002
 51
87.988961000000018
  0
ARC
  5
553
  8
_________1
 62
     7
 10
142.14607000000001
 20
122.728312
 30
0.0
 40
0.202553
 50
92.002500999999995
 51
177.89632900000001
  0
LINE
  5
554
  8
_________1
 62
     7
 10
134.50899999999999
 20
114.176
 30
0.0
 11
122.27500000000001
 21
114.176
 31
0.0
  0
LINE
  5
555
  8
_________1
 62
     7
 10
50.4465
 20
67.190799999999996
 30
0.0
 11
50.4465
 21
117.01900000000001
 31
0.0
  0
LINE
  5
556
  8
_________1
 62
     7
 10
52.112900000000003
 20
117.01900000000001
 30
0.0
 11
52.112900000000003
 21
67.190799999999996
 31
0.0
  0
LINE
  5
557
  8
_________1
 62
     7
 10
49.444299999999998
 20
63.940300000000001
 30
0.0
 11
49.444299999999998
 21
62.189500000000002
 31
0.0
  0
LINE
  5
558
  8
_________1
 62
     7
 10
50.361400000000003
 20
63.940300000000001
 30
0.0
 11
50.361400000000003
 21
62.189500000000002
 31
0.0
  0
ARC
  5
559
  8
_________1
 62
     7
 10
51.570081000000002
 20
67.160911999999996
 30
0.0
 40
5.406795999999999
 50
246.848491
 51
248.90717100000009
  0
ARC
  5
55A
  8
_________1
 62
     7
 10
49.963602000000002
 20
63.020175000000002
 30
0.0
 40
0.965393
 50
249.42192800000001
 51
266.88467300000002
  0
ARC
  5
55B
  8
_________1
 62
     7
 10
49.910947999999991
 20
62.676977999999998
 30
0.0
 40
0.6207699999999999
 50
270.01739300000003
 51
284.90479800000003
  0
ARC
  5
55C
  8
_________1
 62
     7
 10
49.754398999999999
 20
63.327156000000002
 30
0.0
 40
1.289437999999999
 50
284.195897
 51
298.08354700000001
  0
ARC
  5
55D
  8
_________1
 62
     7
 10
49.868957000000002
 20
63.212091000000001
 30
0.0
 40
0.879127
 50
55.932757999999993
 51
87.249941000000007
  0
ARC
  5
55E
  8
_________1
 62
     7
 10
49.911174000000003
 20
63.462704000000002
 30
0.0
 40
0.627502
 50
90.003457000000026
 51
104.70263199999999
  0
ARC
  5
55F
  8
_________1
 62
     7
 10
50.020361000000001
 20
63.000655999999999
 30
0.0
 40
1.1021939999999999
 50
104.096614
 51
121.50870500000001
  0
LINE
  5
560
  8
_________1
 62
     7
 10
53.1113
 20
63.940300000000001
 30
0.0
 11
53.1113
 21
62.189500000000002
 31
0.0
  0
LINE
  5
561
  8
_________1
 62
     7
 10
52.194899999999997
 20
63.940300000000001
 30
0.0
 11
52.194899999999997
 21
62.189500000000002
 31
0.0
  0
ARC
  5
562
  8
_________1
 62
     7
 10
54.141199
 20
66.707903000000002
 30
0.0
 40
4.9197280000000001
 50
246.69597200000001
 51
248.86657700000001
  0
ARC
  5
563
  8
_________1
 62
     7
 10
52.721699999999998
 20
63.039044999999987
 30
0.0
 40
0.985837
 50
248.93945199999999
 51
265.52826600000009
  0
ARC
  5
564
  8
_________1
 62
     7
 10
52.644795000000002
 20
62.672341000000003
 30
0.0
 40
0.6161330000000002
 50
270.00386400000002
 51
284.76201400000002
  0
ARC
  5
565
  8
_________1
 62
     7
 10
52.522686999999998
 20
63.215573999999989
 30
0.0
 40
1.172725
 50
283.76822700000002
 51
289.835892
  0
ARC
  5
566
  8
_________1
 62
     7
 10
51.909458000000001
 20
64.887354000000002
 30
0.0
 40
2.9534159999999989
 50
290.02144300000009
 51
294.01243699999998
  0
ARC
  5
567
  8
_________1
 62
     7
 10
52.467131999999992
 20
62.837620999999999
 30
0.0
 40
1.277088999999999
 50
59.707909999999991
 51
75.049284
  0
ARC
  5
568
  8
_________1
 62
     7
 10
52.637642999999997
 20
63.407570999999997
 30
0.0
 40
0.6826720000000001
 50
76.534885000000003
 51
89.396184000000005
  0
ARC
  5
569
  8
_________1
 62
     7
 10
52.645769999999999
 20
63.550856000000003
 30
0.0
 40
0.53935
 50
90.099139000000022
 51
106.437637
  0
ARC
  5
56A
  8
_________1
 62
     7
 10
52.799788999999997
 20
62.940808999999987
 30
0.0
 40
1.168312
 50
105.21627100000001
 51
121.180885
  0
ARC
  5
56B
  8
_________1
 62
     7
 10
49.406486000000001
 20
57.404703000000012
 30
0.0
 40
4.8791900000000004
 50
76.463498999999999
 51
78.713533999999996
  0
ARC
  5
56C
  8
_________1
 62
     7
 10
51.434847999999988
 20
65.558239
 30
0.0
 40
3.5231910000000002
 50
255.42979299999999
 51
261.79798299999999
  0
ARC
  5
56D
  8
_________1
 62
     7
 10
51.139899999999997
 20
63.508623999999998
 30
0.0
 40
1.4524619999999999
 50
261.7792060000001
 51
269.54225300000002
  0
LINE
  5
56E
  8
_________1
 62
     7
 10
51.128300000000003
 20
62.05619999999999
 30
0.0
 11
51.428000000000011
 21
62.05619999999999
 31
0.0
  0
ARC
  5
56F
  8
_________1
 62
     7
 10
51.427219000000001
 20
63.421140000000001
 30
0.0
 40
1.364932
 50
270.03370999999999
 51
280.17909400000002
  0
ARC
  5
570
  8
_________1
 62
     7
 10
51.111725999999997
 20
65.417174000000003
 30
0.0
 40
3.3855680000000001
 50
279.46451300000001
 51
283.012833
  0
ARC
  5
571
  8
_________1
 62
     7
 10
45.978814999999997
 20
89.525525999999999
 30
0.0
 40
28.033840999999999
 50
282.13935500000002
 51
282.81097899999997
  0
ARC
  5
572
  8
_________1
 62
     7
 10
51.331996999999987
 20
61.389060999999991
 30
0.0
 40
2.6932599999999991
 50
71.313171999999994
 51
78.446673000000004
  0
ARC
  5
573
  8
_________1
 62
     7
 10
51.219344999999997
 20
61.014409000000001
 30
0.0
 40
3.0830860000000002
 50
77.790006999999989
 51
85.358813999999995
  0
ARC
  5
574
  8
_________1
 62
     7
 10
51.350328000000012
 20
62.532344999999992
 30
0.0
 40
1.559547
 50
85.642786999999998
 51
92.665021999999993
  0
ARC
  5
575
  8
_________1
 62
     7
 10
51.220100000000002
 20
63.128838999999999
 30
0.0
 40
0.9630969999999999
 50
86.564448999999996
 51
91.664973000000003
  0
ARC
  5
576
  8
_________1
 62
     7
 10
51.240718000000001
 20
62.161023
 30
0.0
 40
1.9311189999999989
 50
91.442119999999989
 51
95.888008999999997
  0
ARC
  5
577
  8
_________1
 62
     7
 10
51.385581000000002
 20
60.722920999999999
 30
0.0
 40
3.3764959999999991
 50
95.829841000000002
 51
107.65727800000001
  0
LINE
  5
578
  8
_________1
 62
     7
 10
50.444800000000001
 20
64.207300000000004
 30
0.0
 11
51.277799999999999
 21
64.207300000000004
 31
0.0
  0
LINE
  5
579
  8
_________1
 62
     7
 10
52.111499999999992
 20
64.207300000000004
 30
0.0
 11
51.277799999999999
 21
64.207300000000004
 31
0.0
  0
LINE
  5
57A
  8
_________1
 62
     7
 10
52.811900000000001
 20
62.023099999999999
 30
0.0
 11
51.277799999999999
 21
62.023099999999999
 31
0.0
  0
LINE
  5
57B
  8
_________1
 62
     7
 10
51.277799999999999
 20
62.023099999999999
 30
0.0
 11
49.744399999999999
 21
62.023099999999999
 31
0.0
  0
LINE
  5
57C
  8
_________1
 62
     7
 10
49.544199999999989
 20
62.156500000000001
 30
0.0
 11
49.744399999999999
 21
62.039999999999999
 31
0.0
  0
LINE
  5
57D
  8
_________1
 62
     7
 10
49.744399999999999
 20
62.039999999999999
 30
0.0
 11
49.744399999999999
 21
62.023099999999999
 31
0.0
  0
LINE
  5
57E
  8
_________1
 62
     7
 10
49.444299999999998
 20
62.189500000000002
 30
0.0
 11
49.744399999999999
 21
62.039999999999999
 31
0.0
  0
LINE
  5
57F
  8
_________1
 62
     7
 10
53.1113
 20
62.189500000000002
 30
0.0
 11
52.811900000000001
 21
62.023099999999999
 31
0.0
  0
LINE
  5
580
  8
_________1
 62
     7
 10
52.811900000000001
 20
64.107100000000003
 30
0.0
 11
49.744399999999999
 21
64.107100000000003
 31
0.0
  0
LINE
  5
581
  8
_________1
 62
     7
 10
52.311300000000003
 20
64.190100000000001
 30
0.0
 11
50.244300000000003
 21
64.190100000000001
 31
0.0
  0
ARC
  5
582
  8
_________1
 62
     7
 10
50.615659000000001
 20
64.659421999999992
 30
0.0
 40
0.4832970000000001
 50
214.74445
 51
249.29489300000009
  0
ARC
  5
583
  8
_________1
 62
     7
 10
50.501106999999998
 20
64.563676000000001
 30
0.0
 40
0.33487
 50
198.555915
 51
212.452966
  0
LINE
  5
584
  8
_________1
 62
     7
 10
50.183599999999998
 20
64.457099999999997
 30
0.0
 11
50.1616
 21
64.523600000000002
 31
0.0
  0
LINE
  5
585
  8
_________1
 62
     7
 10
50.1616
 20
64.523600000000002
 30
0.0
 11
50.1616
 21
64.623900000000006
 31
0.0
  0
LINE
  5
586
  8
_________1
 62
     7
 10
50.1616
 20
64.623900000000006
 30
0.0
 11
50.194699999999997
 21
64.740300000000005
 31
0.0
  0
LINE
  5
587
  8
_________1
 62
     7
 10
52.3782
 20
64.740300000000005
 30
0.0
 11
52.361600000000003
 21
64.740300000000005
 31
0.0
  0
ARC
  5
588
  8
_________1
 62
     7
 10
42.50664299999999
 20
63.279026999999999
 30
0.0
 40
9.9791109999999996
 50
7.7449869999999992
 51
8.4202759999999994
  0
LINE
  5
589
  8
_________1
 62
     7
 10
52.3947
 20
64.623900000000006
 30
0.0
 11
52.3947
 21
64.523600000000002
 31
0.0
  0
LINE
  5
58A
  8
_________1
 62
     7
 10
52.3947
 20
64.523600000000002
 30
0.0
 11
52.37339999999999
 21
64.457099999999997
 31
0.0
  0
ARC
  5
58B
  8
_________1
 62
     7
 10
51.691546999999993
 20
64.68640400000001
 30
0.0
 40
0.719337
 50
335.68087600000001
 51
341.41225300000002
  0
ARC
  5
58C
  8
_________1
 62
     7
 10
52.084969000000001
 20
64.508437000000001
 30
0.0
 40
0.287536
 50
296.47708699999998
 51
335.712132
  0
ARC
  5
58D
  8
_________1
 62
     7
 10
51.09058499999999
 20
66.339458999999991
 30
0.0
 40
2.370989999999999
 50
295.93996499999997
 51
298.25940400000002
  0
LINE
  5
58E
  8
_________1
 62
     7
 10
52.12769999999999
 20
64.207300000000004
 30
0.0
 11
52.111499999999992
 21
64.207300000000004
 31
0.0
  0
LINE
  5
58F
  8
_________1
 62
     7
 10
52.244900000000001
 20
65.023799999999994
 30
0.0
 11
50.3277
 21
65.023799999999994
 31
0.0
  0
LINE
  5
590
  8
_________1
 62
     7
 10
52.244900000000001
 20
66.357100000000003
 30
0.0
 11
51.277799999999999
 21
66.357100000000003
 31
0.0
  0
LINE
  5
591
  8
_________1
 62
     7
 10
51.277799999999999
 20
66.357100000000003
 30
0.0
 11
50.3277
 21
66.357100000000003
 31
0.0
  0
LINE
  5
592
  8
_________1
 62
     7
 10
50.1616
 20
66.72399999999999
 30
0.0
 11
50.1616
 21
66.640600000000006
 31
0.0
  0
LINE
  5
593
  8
_________1
 62
     7
 10
50.1616
 20
66.640600000000006
 30
0.0
 11
50.211199999999991
 21
66.556899999999985
 31
0.0
  0
LINE
  5
594
  8
_________1
 62
     7
 10
52.411299999999997
 20
66.72399999999999
 30
0.0
 11
52.3947
 21
66.640600000000006
 31
0.0
  0
LINE
  5
595
  8
_________1
 62
     7
 10
52.3947
 20
66.640600000000006
 30
0.0
 11
52.361600000000003
 21
66.556899999999985
 31
0.0
  0
LINE
  5
596
  8
_________1
 62
     7
 10
52.411299999999997
 20
67.190799999999996
 30
0.0
 11
50.1616
 21
67.190799999999996
 31
0.0
  0
LINE
  5
597
  8
_________1
 62
     7
 10
52.411299999999997
 20
67.190799999999996
 30
0.0
 11
52.411299999999997
 21
66.72399999999999
 31
0.0
  0
LINE
  5
598
  8
_________1
 62
     7
 10
50.1616
 20
67.190799999999996
 30
0.0
 11
50.1616
 21
66.72399999999999
 31
0.0
  0
LINE
  5
599
  8
_________1
 62
     7
 10
49.744399999999999
 20
64.107100000000003
 30
0.0
 11
49.444299999999998
 21
63.940300000000001
 31
0.0
  0
LINE
  5
59A
  8
_________1
 62
     7
 10
52.811900000000001
 20
64.107100000000003
 30
0.0
 11
53.1113
 21
63.940300000000001
 31
0.0
  0
LINE
  5
59B
  8
_________1
 62
     7
 10
52.361600000000003
 20
66.556899999999985
 30
0.0
 11
52.244900000000001
 21
66.357100000000003
 31
0.0
  0
LINE
  5
59C
  8
_________1
 62
     7
 10
52.244900000000001
 20
65.023799999999994
 30
0.0
 11
52.361600000000003
 21
64.740300000000005
 31
0.0
  0
LINE
  5
59D
  8
_________1
 62
     7
 10
50.211199999999991
 20
66.556899999999985
 30
0.0
 11
50.3277
 21
66.357100000000003
 31
0.0
  0
LINE
  5
59E
  8
_________1
 62
     7
 10
50.3277
 20
65.023799999999994
 30
0.0
 11
50.194699999999997
 21
64.740300000000005
 31
0.0
  0
LINE
  5
59F
  8
_________1
 62
     7
 10
52.244900000000001
 20
66.357100000000003
 30
0.0
 11
52.244900000000001
 21
65.023799999999994
 31
0.0
  0
LINE
  5
5A0
  8
_________1
 62
     7
 10
50.3277
 20
66.357100000000003
 30
0.0
 11
50.3277
 21
65.023799999999994
 31
0.0
  0
LINE
  5
5A1
  8
_________1
 62
     7
 10
52.311300000000003
 20
64.190100000000001
 30
0.0
 11
52.311300000000003
 21
64.107100000000003
 31
0.0
  0
LINE
  5
5A2
  8
_________1
 62
     7
 10
50.244300000000003
 20
64.190100000000001
 30
0.0
 11
50.244300000000003
 21
64.107100000000003
 31
0.0
  0
LINE
  5
5A3
  8
_________1
 62
     7
 10
53.1113
 20
62.189500000000002
 30
0.0
 11
52.811900000000001
 21
62.023099999999999
 31
0.0
  0
LINE
  5
5A4
  8
_________1
 62
     7
 10
49.444299999999998
 20
62.189500000000002
 30
0.0
 11
49.744399999999999
 21
62.023099999999999
 31
0.0
  0
LINE
  5
5A5
  8
_________1
 62
     7
 10
49.904899999999998
 20
56.053800000000003
 30
0.0
 11
49.904899999999998
 21
61.356200000000001
 31
0.0
  0
LINE
  5
5A6
  8
_________1
 62
     7
 10
52.654800000000002
 20
56.053800000000003
 30
0.0
 11
52.654800000000002
 21
61.356200000000001
 31
0.0
  0
INSERT
  5
5A7
  8
_________1
 62
     7
  2
AIGNBL0201001D
 10
0.0
 20
0.0
 30
0.0
  0
LINE
  5
5A8
  8
_________1
 62
     7
 10
35.885399999999997
 20
64.020600000000002
 30
0.0
 11
35.863
 21
63.786700000000003
 31
0.0
  0
LINE
  5
5A9
  8
_________1
 62
     7
 10
35.863
 20
63.786700000000003
 30
0.0
 11
35.8461
 21
63.759099999999997
 31
0.0
  0
LINE
  5
5AA
  8
_________1
 62
     7
 10
35.8461
 20
63.759099999999997
 30
0.0
 11
35.7624
 21
63.745699999999999
 31
0.0
  0
LINE
  5
5AB
  8
_________1
 62
     7
 10
35.7624
 20
63.745699999999999
 30
0.0
 11
35.737200000000001
 21
63.766399999999997
 31
0.0
  0
LINE
  5
5AC
  8
_________1
 62
     7
 10
35.737200000000001
 20
63.766399999999997
 30
0.0
 11
35.64350000000001
 21
63.976500000000001
 31
0.0
  0
LINE
  5
5AD
  8
_________1
 62
     7
 10
35.64350000000001
 20
63.976500000000001
 30
0.0
 11
35.410299999999999
 21
63.999299999999998
 31
0.0
  0
LINE
  5
5AE
  8
_________1
 62
     7
 10
35.410299999999999
 20
63.999299999999998
 30
0.0
 11
35.381999999999998
 21
64.017200000000003
 31
0.0
  0
LINE
  5
5AF
  8
_________1
 62
     7
 10
35.381999999999998
 20
64.017200000000003
 30
0.0
 11
35.368600000000001
 21
64.099900000000005
 31
0.0
  0
LINE
  5
5B0
  8
_________1
 62
     7
 10
35.368600000000001
 20
64.099900000000005
 30
0.0
 11
35.390000000000001
 21
64.124300000000005
 31
0.0
  0
LINE
  5
5B1
  8
_________1
 62
     7
 10
35.390000000000001
 20
64.124300000000005
 30
0.0
 11
35.600499999999997
 21
64.218400000000003
 31
0.0
  0
LINE
  5
5B2
  8
_________1
 62
     7
 10
35.600499999999997
 20
64.218400000000003
 30
0.0
 11
35.623199999999997
 21
64.452600000000004
 31
0.0
  0
LINE
  5
5B3
  8
_________1
 62
     7
 10
35.623199999999997
 20
64.452600000000004
 30
0.0
 11
35.6404
 21
64.480900000000005
 31
0.0
  0
LINE
  5
5B4
  8
_________1
 62
     7
 10
35.6404
 20
64.480900000000005
 30
0.0
 11
35.723500000000001
 21
64.494
 31
0.0
  0
LINE
  5
5B5
  8
_________1
 62
     7
 10
35.723500000000001
 20
64.494
 30
0.0
 11
35.7483
 21
64.472599999999986
 31
0.0
  0
LINE
  5
5B6
  8
_________1
 62
     7
 10
35.7483
 20
64.472599999999986
 30
0.0
 11
35.842300000000002
 21
64.262500000000003
 31
0.0
  0
LINE
  5
5B7
  8
_________1
 62
     7
 10
35.842300000000002
 20
64.262500000000003
 30
0.0
 11
36.075499999999998
 21
64.239699999999999
 31
0.0
  0
LINE
  5
5B8
  8
_________1
 62
     7
 10
36.075499999999998
 20
64.239699999999999
 30
0.0
 11
36.1038
 21
64.222499999999997
 31
0.0
  0
LINE
  5
5B9
  8
_________1
 62
     7
 10
36.1038
 20
64.222499999999997
 30
0.0
 11
36.117199999999997
 21
64.139499999999984
 31
0.0
  0
LINE
  5
5BA
  8
_________1
 62
     7
 10
36.117199999999997
 20
64.139499999999984
 30
0.0
 11
36.0959
 21
64.1143
 31
0.0
  0
LINE
  5
5BB
  8
_________1
 62
     7
 10
36.0959
 20
64.1143
 30
0.0
 11
35.885399999999997
 21
64.020600000000002
 31
0.0
  0
LINE
  5
5BC
  8
_________1
 62
     7
 10
36.570599999999999
 20
63.409500000000001
 30
0.0
 11
36.304000000000002
 21
65.055499999999995
 31
0.0
  0
ARC
  5
5BD
  8
_________1
 62
     7
 10
36.449787000000001
 20
62.43947099999999
 30
0.0
 40
2.6201180000000002
 50
93.190594999999988
 51
104.589366
  0
ARC
  5
5BE
  8
_________1
 62
     7
 10
36.221466999999997
 20
63.383384
 30
0.0
 40
1.6492150000000001
 50
105.17319999999999
 51
124.23768800000001
  0
ARC
  5
5BF
  8
_________1
 62
     7
 10
35.885120000000001
 20
63.921743999999997
 30
0.0
 40
1.015212
 50
125.639399
 51
150.01857100000001
  0
ARC
  5
5C0
  8
_________1
 62
     7
 10
35.643813999999999
 20
64.105051000000003
 30
0.0
 40
0.7156140000000001
 50
153.077923
 51
233.50238300000001
  0
ARC
  5
5C1
  8
_________1
 62
     7
 10
35.815987999999997
 20
64.353300000000004
 30
0.0
 40
1.017625999999999
 50
234.023135
 51
259.74242600000002
  0
ARC
  5
5C2
  8
_________1
 62
     7
 10
35.951597999999997
 20
64.894147000000004
 30
0.0
 40
1.574414999999999
 50
258.39098100000001
 51
273.855954
  0
ARC
  5
5C3
  8
_________1
 62
     7
 10
35.925260999999999
 20
65.681933000000001
 30
0.0
 40
2.3623400000000001
 50
273.20837799999998
 51
285.85368799999998
  0
ARC
  5
5C4
  8
_________1
 62
     7
 10
35.767771999999987
 20
64.381585000000001
 30
0.0
 40
0.4005150000000001
 50
108.22753299999999
 51
116.33237699999999
  0
ARC
  5
5C5
  8
_________1
 62
     7
 10
47.195836999999997
 20
37.650910000000003
 30
0.0
 40
29.471018999999998
 50
113.191221
 51
113.749054
  0
ARC
  5
5C6
  8
_________1
 62
     7
 10
40.761835999999988
 20
60.518030000000003
 30
0.0
 40
6.8129210000000002
 50
142.914456
 51
145.69034099999999
  0
ARC
  5
5C7
  8
_________1
 62
     7
 10
35.408092000000003
 20
64.291943000000003
 30
0.0
 40
0.281665
 50
166.38713799999999
 51
176.120499
  0
ARC
  5
5C8
  8
_________1
 62
     7
 10
144.71266399999999
 20
49.915286999999992
 30
0.0
 40
110.52709299999999
 50
172.51617300000001
 51
172.67121299999999
  0
LINE
  5
5C9
  8
_________1
 62
     7
 10
35.08850000000001
 20
64.014399999999995
 30
0.0
 11
35.13920000000001
 21
63.908599999999993
 31
0.0
  0
LINE
  5
5CA
  8
_________1
 62
     7
 10
35.13920000000001
 20
63.908599999999993
 30
0.0
 11
35.2408
 21
63.700899999999997
 31
0.0
  0
LINE
  5
5CB
  8
_________1
 62
     7
 10
35.2408
 20
63.700899999999997
 30
0.0
 11
35.508499999999998
 21
63.508000000000003
 31
0.0
  0
ARC
  5
5CC
  8
_________1
 62
     7
 10
35.727690000000003
 20
64.653603000000004
 30
0.0
 40
1.1664060000000001
 50
259.16759200000001
 51
264.211006
  0
ARC
  5
5CD
  8
_________1
 62
     7
 10
37.449950000000001
 20
77.121587000000005
 30
0.0
 40
13.752079
 50
262.31127400000003
 51
263.332944
  0
ARC
  5
5CE
  8
_________1
 62
     7
 10
28.432548000000001
 20
79.104466000000002
 30
0.0
 40
17.312973
 50
295.38039199999997
 51
296.531791
  0
ARC
  5
5CF
  8
_________1
 62
     7
 10
36.00123
 20
63.768168999999993
 30
0.0
 40
0.225229
 50
317.07493499999998
 51
328.00959399999999
  0
ARC
  5
5D0
  8
_________1
 62
     7
 10
13.624029
 20
79.974599999999995
 30
0.0
 40
27.854172999999999
 50
324.11819700000001
 51
324.70910400000002
  0
ARC
  5
5D1
  8
_________1
 62
     7
 10
11.401948000000001
 20
66.162043999999995
 30
0.0
 40
25.061366
 50
354.78116999999997
 51
355.567655
  0
ARC
  5
5D2
  8
_________1
 62
     7
 10
36.052354999999999
 20
64.116706999999991
 30
0.0
 40
0.353105
 50
17.903079000000002
 51
26.569185999999998
  0
ARC
  5
5D3
  8
_________1
 62
     7
 10
16.400683000000001
 20
55.731050000000003
 30
0.0
 40
21.718506999999999
 50
23.16488
 51
23.927911999999999
  0
LINE
  5
5D4
  8
_________1
 62
     7
 10
36.252600000000001
 20
64.5398
 30
0.0
 11
35.984900000000003
 21
64.733099999999993
 31
0.0
  0
ARC
  5
5D5
  8
_________1
 62
     7
 10
33.553092999999997
 20
37.996821999999987
 30
0.0
 40
26.846610999999999
 50
84.802844999999991
 51
85.536297000000005
  0
LINE
  5
5D6
  8
_________1
 62
     7
 10
31.605499999999999
 20
62.056899999999999
 30
0.0
 11
36.8476
 21
62.907200000000003
 31
0.0
  0
LINE
  5
5D7
  8
_________1
 62
     7
 10
31.107700000000001
 20
64.821600000000004
 30
0.0
 11
36.39800000000001
 21
65.6798
 31
0.0
  0
LINE
  5
5D8
  8
_________1
 62
     7
 10
32.097099999999998
 20
63.406000000000013
 30
0.0
 11
32.1922
 21
63.191400000000002
 31
0.0
  0
LINE
  5
5D9
  8
_________1
 62
     7
 10
32.1922
 20
63.191400000000002
 30
0.0
 11
32.216700000000003
 21
63.170699999999997
 31
0.0
  0
LINE
  5
5DA
  8
_________1
 62
     7
 10
32.216700000000003
 20
63.170699999999997
 30
0.0
 11
32.30040000000001
 21
63.184100000000001
 31
0.0
  0
LINE
  5
5DB
  8
_________1
 62
     7
 10
32.30040000000001
 20
63.184100000000001
 30
0.0
 11
32.317599999999999
 21
63.2117
 31
0.0
  0
LINE
  5
5DC
  8
_________1
 62
     7
 10
32.317599999999999
 20
63.2117
 30
0.0
 11
32.340000000000003
 21
63.441099999999999
 31
0.0
  0
LINE
  5
5DD
  8
_________1
 62
     7
 10
32.340000000000003
 20
63.441099999999999
 30
0.0
 11
32.554600000000001
 21
63.536200000000001
 31
0.0
  0
LINE
  5
5DE
  8
_________1
 62
     7
 10
32.554600000000001
 20
63.536200000000001
 30
0.0
 11
32.575299999999999
 21
63.561700000000002
 31
0.0
  0
LINE
  5
5DF
  8
_________1
 62
     7
 10
32.575299999999999
 20
63.561700000000002
 30
0.0
 11
32.561900000000001
 21
63.644399999999997
 31
0.0
  0
LINE
  5
5E0
  8
_________1
 62
     7
 10
32.561900000000001
 20
63.644399999999997
 30
0.0
 11
32.534300000000002
 21
63.661299999999997
 31
0.0
  0
LINE
  5
5E1
  8
_________1
 62
     7
 10
32.534300000000002
 20
63.661299999999997
 30
0.0
 11
32.305199999999999
 21
63.683700000000002
 31
0.0
  0
LINE
  5
5E2
  8
_________1
 62
     7
 10
32.305199999999999
 20
63.683700000000002
 30
0.0
 11
32.209099999999999
 21
63.898699999999998
 31
0.0
  0
LINE
  5
5E3
  8
_________1
 62
     7
 10
32.209099999999999
 20
63.898699999999998
 30
0.0
 11
32.1843
 21
63.920000000000002
 31
0.0
  0
LINE
  5
5E4
  8
_________1
 62
     7
 10
32.1843
 20
63.920000000000002
 30
0.0
 11
32.1006
 21
63.9069
 31
0.0
  0
LINE
  5
5E5
  8
_________1
 62
     7
 10
32.1006
 20
63.9069
 30
0.0
 11
32.0837
 21
63.878700000000002
 31
0.0
  0
LINE
  5
5E6
  8
_________1
 62
     7
 10
32.0837
 20
63.878700000000002
 30
0.0
 11
32.061599999999999
 21
63.6492
 31
0.0
  0
LINE
  5
5E7
  8
_________1
 62
     7
 10
32.061599999999999
 20
63.6492
 30
0.0
 11
31.847000000000001
 21
63.553800000000003
 31
0.0
  0
LINE
  5
5E8
  8
_________1
 62
     7
 10
31.847000000000001
 20
63.553800000000003
 30
0.0
 11
31.825600000000001
 21
63.528700000000001
 31
0.0
  0
LINE
  5
5E9
  8
_________1
 62
     7
 10
31.825600000000001
 20
63.528700000000001
 30
0.0
 11
31.839099999999998
 21
63.445599999999999
 31
0.0
  0
LINE
  5
5EA
  8
_________1
 62
     7
 10
31.839099999999998
 20
63.445599999999999
 30
0.0
 11
31.8673
 21
63.428699999999999
 31
0.0
  0
LINE
  5
5EB
  8
_________1
 62
     7
 10
31.8673
 20
63.428699999999999
 30
0.0
 11
32.097099999999998
 21
63.406000000000013
 31
0.0
  0
LINE
  5
5EC
  8
_________1
 62
     7
 10
31.639600000000002
 20
62.609499999999997
 30
0.0
 11
31.373000000000001
 21
64.255600000000001
 31
0.0
  0
ARC
  5
5ED
  8
_________1
 62
     7
 10
32.061388000000001
 20
61.729108999999987
 30
0.0
 40
2.618576
 50
93.838253000000009
 51
105.242283
  0
ARC
  5
5EE
  8
_________1
 62
     7
 10
31.979811000000002
 20
62.696369999999987
 30
0.0
 40
1.648109
 50
74.185131000000013
 51
93.259568999999985
  0
ARC
  5
5EF
  8
_________1
 62
     7
 10
32.128571000000001
 20
63.312587000000001
 30
0.0
 40
1.0149779999999999
 50
48.403613
 51
72.784525000000002
  0
ARC
  5
5F0
  8
_________1
 62
     7
 10
32.299520000000001
 20
63.562656999999987
 30
0.0
 40
0.715495
 50
324.90320800000001
 51
45.345314000000002
  0
ARC
  5
5F1
  8
_________1
 62
     7
 10
32.089300999999999
 20
63.71895
 30
0.0
 40
0.9773799999999999
 50
305.00660299999998
 51
324.49235399999998
  0
ARC
  5
5F2
  8
_________1
 62
     7
 10
31.843731999999999
 20
64.042520999999994
 30
0.0
 40
1.3833759999999991
 50
289.163025
 51
305.64937900000001
  0
ARC
  5
5F3
  8
_________1
 62
     7
 10
31.599205999999999
 20
64.672013000000007
 30
0.0
 40
2.0583969999999998
 50
276.291878
 51
289.84056600000002
  0
ARC
  5
5F4
  8
_________1
 62
     7
 10
31.480430999999999
 20
65.439909999999998
 30
0.0
 40
2.834889
 50
273.21890999999999
 51
276.97711900000002
  0
ARC
  5
5F5
  8
_________1
 62
     7
 10
31.671481
 20
57.153795000000002
 30
0.0
 40
7.0451709999999999
 50
83.771981000000011
 51
86.567160999999999
  0
ARC
  5
5F6
  8
_________1
 62
     7
 10
84.118158999999977
 20
135.36520300000001
 30
0.0
 40
87.986485999999985
 50
234.02800300000001
 51
234.24282099999999
  0
ARC
  5
5F7
  8
_________1
 62
     7
 10
32.490289000000011
 20
63.828741000000001
 30
0.0
 40
0.252236
 50
22.186138
 51
32.458807
  0
ARC
  5
5F8
  8
_________1
 62
     7
 10
-6.0515589999999992
 20
45.003861000000001
 30
0.0
 40
43.145145999999997
 50
25.608425
 51
26.009663
  0
LINE
  5
5F9
  8
_________1
 62
     7
 10
32.85540000000001
 20
63.652000000000001
 30
0.0
 11
32.840200000000003
 21
63.535899999999998
 31
0.0
  0
LINE
  5
5FA
  8
_________1
 62
     7
 10
32.840200000000003
 20
63.535899999999998
 30
0.0
 11
32.809600000000003
 21
63.306800000000003
 31
0.0
  0
LINE
  5
5FB
  8
_________1
 62
     7
 10
32.809600000000003
 20
63.306800000000003
 30
0.0
 11
32.616999999999997
 21
63.039099999999998
 31
0.0
  0
ARC
  5
5FC
  8
_________1
 62
     7
 10
32.478417999999998
 20
63.257092999999998
 30
0.0
 40
0.258309
 50
292.27075300000001
 51
302.44344999999998
  0
ARC
  5
5FD
  8
_________1
 62
     7
 10
22.910381999999998
 20
82.792349999999985
 30
0.0
 40
22.010293999999998
 50
295.26309199999997
 51
296.04998799999998
  0
ARC
  5
5FE
  8
_________1
 62
     7
 10
34.07933400000001
 20
77.94126
 30
0.0
 40
15.158431
 50
261.95648599999998
 51
263.27352999999999
  0
ARC
  5
5FF
  8
_________1
 62
     7
 10
32.138697000000001
 20
63.236750999999991
 30
0.0
 40
0.354186
 50
230.70291499999999
 51
239.37815399999999
  0
ARC
  5
600
  8
_________1
 62
     7
 10
45.70211599999999
 20
82.076924000000005
 30
0.0
 40
23.568135000000002
 50
233.524316
 51
234.19588400000001
  0
ARC
  5
601
  8
_________1
 62
     7
 10
44.889339
 20
68.989442000000011
 30
0.0
 40
14.442074
 50
202.59260599999999
 51
203.95550700000001
  0
ARC
  5
602
  8
_________1
 62
     7
 10
31.838982000000001
 20
63.447476999999999
 30
0.0
 40
0.283501
 50
171.60630699999999
 51
181.27965900000001
  0
ARC
  5
603
  8
_________1
 62
     7
 10
64.385094999999993
 20
60.737418999999989
 30
0.0
 40
32.941685
 50
174.69537
 51
175.20879099999999
  0
LINE
  5
604
  8
_________1
 62
     7
 10
31.584499999999998
 20
63.782899999999991
 30
0.0
 11
31.777100000000001
 21
64.050200000000004
 31
0.0
  0
ARC
  5
605
  8
_________1
 62
     7
 10
38.24568
 20
49.452416999999997
 30
0.0
 40
15.966822000000001
 50
112.663633
 51
113.89913900000001
  0
LINE
  5
606
  8
_________1
 62
     7
 10
31.583500000000001
 20
66.991
 30
0.0
 11
35.252200000000002
 21
67.585599999999999
 31
0.0
  0
LINE
  5
607
  8
_________1
 62
     7
 10
35.252200000000002
 20
67.585599999999999
 30
0.0
 11
35.4437
 21
67.549800000000005
 31
0.0
  0
ARC
  5
608
  8
_________1
 62
     7
 10
35.395220999999999
 20
67.430717999999999
 30
0.0
 40
0.128569
 50
52.487282999999991
 51
67.842542000000009
  0
ARC
  5
609
  8
_________1
 62
     7
 10
35.296506999999998
 20
67.296642000000006
 30
0.0
 40
0.29505
 50
42.475330999999997
 51
53.136229999999998
  0
ARC
  5
60A
  8
_________1
 62
     7
 10
35.011879
 20
67.031480999999985
 30
0.0
 40
0.6840470000000001
 50
35.715012999999999
 51
42.75791199999999
  0
ARC
  5
60B
  8
_________1
 62
     7
 10
34.324280000000002
 20
66.536357999999993
 30
0.0
 40
1.5313600000000001
 50
30.446459999999998
 51
35.738083000000003
  0
ARC
  5
60C
  8
_________1
 62
     7
 10
32.936884999999997
 20
65.713126000000003
 30
0.0
 40
3.144603
 50
27.028244000000001
 51
30.568016
  0
ARC
  5
60D
  8
_________1
 62
     7
 10
30.444642999999999
 20
64.434097999999992
 30
0.0
 40
5.9458809999999991
 50
24.416656
 51
27.093651000000001
  0
ARC
  5
60E
  8
_________1
 62
     7
 10
25.200952000000001
 20
62.05715099999999
 30
0.0
 40
11.703151999999999
 50
20.416353999999998
 51
24.400895999999999
  0
ARC
  5
60F
  8
_________1
 62
     7
 10
21.318061
 20
60.504086999999998
 30
0.0
 40
15.884219999999999
 50
17.4922
 51
20.780667000000001
  0
ARC
  5
610
  8
_________1
 62
     7
 10
33.050865000000002
 20
64.182889000000003
 30
0.0
 40
3.5882519999999989
 50
11.980171
 51
17.778222
  0
LINE
  5
611
  8
_________1
 62
     7
 10
36.561
 20
64.927700000000002
 30
0.0
 11
36.7746
 21
63.612000000000002
 31
0.0
  0
ARC
  5
612
  8
_________1
 62
     7
 10
35.789842999999998
 20
63.456102000000001
 30
0.0
 40
0.9969839999999999
 50
3.690202999999999
 51
8.9975579999999997
  0
ARC
  5
613
  8
_________1
 62
     7
 10
32.597894000000011
 20
63.205641
 30
0.0
 40
4.1986720000000002
 50
1.4622989999999989
 51
4.2975050000000001
  0
ARC
  5
614
  8
_________1
 62
     7
 10
25.793177
 20
63.007091000000003
 30
0.0
 40
11.006268
 50
359.62924099999998
 51
1.5915820000000001
  0
ARC
  5
615
  8
_________1
 62
     7
 10
20.974477
 20
63.013393000000008
 30
0.0
 40
15.824927000000001
 50
354.80532899999997
 51
359.71932199999998
  0
ARC
  5
616
  8
_________1
 62
     7
 10
31.47232
 20
62.084074000000001
 30
0.0
 40
5.2861180000000001
 50
348.82974900000011
 51
354.53465599999998
  0
ARC
  5
617
  8
_________1
 62
     7
 10
35.163404999999997
 20
61.378672999999992
 30
0.0
 40
1.5284770000000001
 50
342.66366599999998
 51
347.96687400000002
  0
ARC
  5
618
  8
_________1
 62
     7
 10
36.023684000000003
 20
61.106698000000002
 30
0.0
 40
0.6262450000000001
 50
334.15972499999998
 51
342.96315099999998
  0
ARC
  5
619
  8
_________1
 62
     7
 10
36.39808
 20
60.921486999999999
 30
0.0
 40
0.208586
 50
313.89587999999998
 51
335.12302899999997
  0
ARC
  5
61A
  8
_________1
 62
     7
 10
36.490576000000011
 20
60.819111999999997
 30
0.0
 40
0.070815
 50
294.95195899999999
 51
317.400554
  0
ARC
  5
61B
  8
_________1
 62
     7
 10
36.346465999999999
 20
61.084426000000001
 30
0.0
 40
0.37263
 50
289.11997700000001
 51
297.83372700000001
  0
ARC
  5
61C
  8
_________1
 62
     7
 10
35.940185
 20
62.231000000000002
 30
0.0
 40
1.5890509999999991
 50
284.37738300000001
 51
289.41966400000001
  0
ARC
  5
61D
  8
_________1
 62
     7
 10
34.968783999999999
 20
65.941334999999995
 30
0.0
 40
5.4244250000000003
 50
281.94633199999998
 51
284.58520099999998
  0
ARC
  5
61E
  8
_________1
 62
     7
 10
32.997329999999998
 20
75.165575000000004
 30
0.0
 40
14.85698
 50
280.38620099999991
 51
282.02107999999998
  0
ARC
  5
61F
  8
_________1
 62
     7
 10
29.141708999999999
 20
96.052087999999983
 30
0.0
 40
36.096376999999997
 50
279.37221299999999
 51
280.42902900000001
  0
ARC
  5
620
  8
_________1
 62
     7
 10
22.026271999999999
 20
139.00038000000001
 30
0.0
 40
79.630098000000004
 50
278.669284
 51
279.39123699999999
  0
ARC
  5
621
  8
_________1
 62
     7
 10
-98.492522999999991
 20
936.96989900000005
 30
0.0
 40
886.649315
 50
278.50923599999999
 51
278.59583199999997
  0
LINE
  5
622
  8
_________1
 62
     7
 10
32.703800000000001
 20
60.080800000000004
 30
0.0
 11
32.512300000000003
 21
60.1173
 31
0.0
  0
LINE
  5
623
  8
_________1
 62
     7
 10
32.512300000000003
 20
60.1173
 30
0.0
 11
32.356200000000001
 21
60.243699999999997
 31
0.0
  0
ARC
  5
624
  8
_________1
 62
     7
 10
41.142963000000002
 20
65.153537
 30
0.0
 40
10.065458
 50
197.391356
 51
209.19528099999999
  0
ARC
  5
625
  8
_________1
 62
     7
 10
36.295861000000002
 20
63.603494999999988
 30
0.0
 40
4.9767289999999988
 50
189.99505400000001
 51
197.04136199999999
  0
LINE
  5
626
  8
_________1
 62
     7
 10
31.3947
 20
62.739699999999999
 30
0.0
 11
31.181100000000001
 21
64.055400000000006
 31
0.0
  0
ARC
  5
627
  8
_________1
 62
     7
 10
34.926864999999999
 20
64.659396000000001
 30
0.0
 40
3.7941790000000002
 50
183.05691100000001
 51
189.15976499999999
  0
ARC
  5
628
  8
_________1
 62
     7
 10
37.832804000000003
 20
64.858831000000009
 30
0.0
 40
6.7067639999999988
 50
178.312139
 51
183.43437800000001
  0
ARC
  5
629
  8
_________1
 62
     7
 10
41.690325999999999
 20
64.785948000000005
 30
0.0
 40
10.564838
 50
169.42008799999999
 51
178.533241
  0
LINE
  5
62A
  8
_________1
 62
     7
 10
31.305099999999999
 20
66.725700000000003
 30
0.0
 11
31.4129
 21
66.895899999999983
 31
0.0
  0
LINE
  5
62B
  8
_________1
 62
     7
 10
31.4129
 20
66.895899999999983
 30
0.0
 11
31.583500000000001
 21
66.991
 31
0.0
  0
LINE
  5
62C
  8
_________1
 62
     7
 10
49.779899999999998
 20
119.244
 30
0.0
 11
49.447099999999999
 21
119.244
 31
0.0
  0
LINE
  5
62D
  8
_________1
 62
     7
 10
51.279899999999998
 20
120.18600000000001
 30
0.0
 11
47.947099999999999
 21
120.18600000000001
 31
0.0
  0
LINE
  5
62E
  8
_________1
 62
     7
 10
47.947099999999999
 20
120.18600000000001
 30
0.0
 11
47.947099999999999
 21
119.31399999999999
 31
0.0
  0
ARC
  5
62F
  8
_________1
 62
     7
 10
48.113652000000002
 20
119.343486
 30
0.0
 40
0.169216
 50
190.13396
 51
202.0652070000001
  0
ARC
  5
630
  8
_________1
 62
     7
 10
48.269140999999991
 20
119.400735
 30
0.0
 40
0.334866
 50
201.14871400000001
 51
236.289579
  0
ARC
  5
631
  8
_________1
 62
     7
 10
48.363188000000001
 20
119.522221
 30
0.0
 40
0.48824
 50
235.02106000000001
 51
253.976404
  0
ARC
  5
632
  8
_________1
 62
     7
 10
48.462883000000012
 20
119.842924
 30
0.0
 40
0.8240350000000001
 50
253.46904900000001
 51
271.45623599999999
  0
LINE
  5
633
  8
_________1
 62
     7
 10
48.483800000000002
 20
119.01900000000001
 30
0.0
 11
51.279899999999998
 21
119.01900000000001
 31
0.0
  0
LINE
  5
634
  8
_________1
 62
     7
 10
49.779899999999998
 20
120.18600000000001
 30
0.0
 11
49.779899999999998
 21
119.244
 31
0.0
  0
ARC
  5
635
  8
_________1
 62
     7
 10
49.998798999999991
 20
119.382349
 30
0.0
 40
0.259093
 50
212.33281600000001
 51
222.09007800000001
  0
ARC
  5
636
  8
_________1
 62
     7
 10
50.211092999999991
 20
119.562994
 30
0.0
 40
0.5377830000000001
 50
221.21167000000011
 51
257.32915700000001
  0
ARC
  5
637
  8
_________1
 62
     7
 10
50.253320000000002
 20
119.69812400000001
 30
0.0
 40
0.6789830000000001
 50
256.35382700000002
 51
270.37093099999998
  0
LINE
  5
638
  8
_________1
 62
     7
 10
49.447099999999999
 20
120.18600000000001
 30
0.0
 11
49.447099999999999
 21
119.244
 31
0.0
  0
ARC
  5
639
  8
_________1
 62
     7
 10
48.709803999999998
 20
120.604305
 30
0.0
 40
1.5474540000000001
 50
294.49597899999998
 51
298.45343400000002
  0
ARC
  5
63A
  8
_________1
 62
     7
 10
48.421300000000002
 20
121.17807999999999
 30
0.0
 40
2.1893439999999988
 50
282.21574900000002
 51
295.14060999999998
  0
ARC
  5
63B
  8
_________1
 62
     7
 10
48.684942999999997
 20
120.065252
 30
0.0
 40
1.046163999999999
 50
270.64572500000003
 51
280.999482
  0
LINE
  5
63C
  8
_________1
 62
     7
 10
52.780200000000001
 20
119.244
 30
0.0
 11
53.113399999999999
 21
119.244
 31
0.0
  0
LINE
  5
63D
  8
_________1
 62
     7
 10
51.279899999999998
 20
120.18600000000001
 30
0.0
 11
54.613399999999992
 21
120.18600000000001
 31
0.0
  0
LINE
  5
63E
  8
_________1
 62
     7
 10
54.613399999999992
 20
120.18600000000001
 30
0.0
 11
54.613399999999992
 21
119.31399999999999
 31
0.0
  0
ARC
  5
63F
  8
_________1
 62
     7
 10
54.447566000000002
 20
119.34199599999999
 30
0.0
 40
0.168206
 50
338.34228100000001
 51
350.319751
  0
ARC
  5
640
  8
_________1
 62
     7
 10
54.294241000000007
 20
119.39709999999999
 30
0.0
 40
0.3310869999999999
 50
303.86319300000002
 51
339.272153
  0
ARC
  5
641
  8
_________1
 62
     7
 10
54.200603000000001
 20
119.51741699999999
 30
0.0
 40
0.48329
 50
286.04326700000001
 51
305.133284
  0
ARC
  5
642
  8
_________1
 62
     7
 10
54.100168000000011
 20
119.839572
 30
0.0
 40
0.8206889999999999
 50
268.52478600000001
 51
286.56631800000002
  0
LINE
  5
643
  8
_________1
 62
     7
 10
54.078999999999994
 20
119.01900000000001
 30
0.0
 11
51.279899999999998
 21
119.01900000000001
 31
0.0
  0
LINE
  5
644
  8
_________1
 62
     7
 10
52.780200000000001
 20
120.18600000000001
 30
0.0
 11
52.780200000000001
 21
119.244
 31
0.0
  0
ARC
  5
645
  8
_________1
 62
     7
 10
52.562977000000011
 20
119.380819
 30
0.0
 40
0.256865
 50
317.92100099999999
 51
327.75653799999998
  0
ARC
  5
646
  8
_________1
 62
     7
 10
52.349609000000001
 20
119.56202399999999
 30
0.0
 40
0.5367340000000002
 50
282.644589
 51
318.82786099999998
  0
ARC
  5
647
  8
_________1
 62
     7
 10
52.306818
 20
119.698902
 30
0.0
 40
0.679761
 50
269.626983
 51
283.63840800000003
  0
LINE
  5
648
  8
_________1
 62
     7
 10
53.113399999999999
 20
120.18600000000001
 30
0.0
 11
53.113399999999999
 21
119.244
 31
0.0
  0
ARC
  5
649
  8
_________1
 62
     7
 10
53.861455000000007
 20
120.625119
 30
0.0
 40
1.570902
 50
241.56173899999999
 51
245.45799099999999
  0
ARC
  5
64A
  8
_________1
 62
     7
 10
54.136237999999992
 20
121.169478
 30
0.0
 40
2.1803460000000001
 50
244.831165
 51
257.80810600000001
  0
ARC
  5
64B
  8
_________1
 62
     7
 10
53.875476999999997
 20
120.066226
 30
0.0
 40
1.0471360000000001
 50
259.005787
 51
269.35666500000002
  0
LINE
  5
64C
  8
_________1
 62
     7
 10
53.863700000000001
 20
119.01900000000001
 30
0.0
 11
53.863700000000001
 21
117.01900000000001
 31
0.0
  0
LINE
  5
64D
  8
_________1
 62
     7
 10
48.6967
 20
119.01900000000001
 30
0.0
 11
48.6967
 21
117.01900000000001
 31
0.0
  0
LINE
  5
64E
  8
_________1
 62
     7
 10
54.030099999999997
 20
117.18600000000001
 30
0.0
 11
48.530299999999997
 21
117.18600000000001
 31
0.0
  0
LINE
  5
64F
  8
_________1
 62
     7
 10
54.030099999999997
 20
117.18600000000001
 30
0.0
 11
53.863700000000001
 21
117.01900000000001
 31
0.0
  0
LINE
  5
650
  8
_________1
 62
     7
 10
53.863700000000001
 20
117.01900000000001
 30
0.0
 11
48.6967
 21
117.01900000000001
 31
0.0
  0
LINE
  5
651
  8
_________1
 62
     7
 10
48.6967
 20
117.01900000000001
 30
0.0
 11
48.530299999999997
 21
117.18600000000001
 31
0.0
  0
LINE
  5
652
  8
_________1
 62
     7
 10
48.530299999999997
 20
117.18600000000001
 30
0.0
 11
48.530299999999997
 21
119.01900000000001
 31
0.0
  0
LINE
  5
653
  8
_________1
 62
     7
 10
48.530299999999997
 20
119.01900000000001
 30
0.0
 11
54.030099999999997
 21
119.01900000000001
 31
0.0
  0
LINE
  5
654
  8
_________1
 62
     7
 10
54.030099999999997
 20
119.01900000000001
 30
0.0
 11
54.030099999999997
 21
117.18600000000001
 31
0.0
  0
LINE
  5
655
  8
_________1
 62
     7
 10
53.863700000000001
 20
130.352
 30
0.0
 11
53.863700000000001
 21
125.35299999999999
 31
0.0
  0
LINE
  5
656
  8
_________1
 62
     7
 10
48.6967
 20
130.352
 30
0.0
 11
48.6967
 21
125.35299999999999
 31
0.0
  0
LINE
  5
657
  8
_________1
 62
     7
 10
54.030099999999997
 20
125.35299999999999
 30
0.0
 11
48.530299999999997
 21
125.35299999999999
 31
0.0
  0
LINE
  5
658
  8
_________1
 62
     7
 10
48.530299999999997
 20
125.35299999999999
 30
0.0
 11
48.530299999999997
 21
130.352
 31
0.0
  0
LINE
  5
659
  8
_________1
 62
     7
 10
48.530299999999997
 20
130.352
 30
0.0
 11
54.030099999999997
 21
130.352
 31
0.0
  0
LINE
  5
65A
  8
_________1
 62
     7
 10
54.030099999999997
 20
130.352
 30
0.0
 11
54.030099999999997
 21
125.35299999999999
 31
0.0
  0
LINE
  5
65B
  8
_________1
 62
     7
 10
54.946899999999999
 20
120.18600000000001
 30
0.0
 11
47.613599999999991
 21
120.18600000000001
 31
0.0
  0
LINE
  5
65C
  8
_________1
 62
     7
 10
47.613599999999991
 20
120.18600000000001
 30
0.0
 11
47.613599999999991
 21
120.60299999999999
 31
0.0
  0
LINE
  5
65D
  8
_________1
 62
     7
 10
47.613599999999991
 20
120.60299999999999
 30
0.0
 11
54.946899999999999
 21
120.60299999999999
 31
0.0
  0
LINE
  5
65E
  8
_________1
 62
     7
 10
54.946899999999999
 20
120.60299999999999
 30
0.0
 11
54.946899999999999
 21
120.18600000000001
 31
0.0
  0
LINE
  5
65F
  8
_________1
 62
     7
 10
55.2804
 20
120.60299999999999
 30
0.0
 11
47.280099999999997
 21
120.60299999999999
 31
0.0
  0
LINE
  5
660
  8
_________1
 62
     7
 10
47.280099999999997
 20
120.60299999999999
 30
0.0
 11
47.280099999999997
 21
120.85299999999999
 31
0.0
  0
LINE
  5
661
  8
_________1
 62
     7
 10
47.280099999999997
 20
120.85299999999999
 30
0.0
 11
55.2804
 21
120.85299999999999
 31
0.0
  0
LINE
  5
662
  8
_________1
 62
     7
 10
55.2804
 20
120.85299999999999
 30
0.0
 11
55.2804
 21
120.60299999999999
 31
0.0
  0
LINE
  5
663
  8
_________1
 62
     7
 10
55.2804
 20
120.85299999999999
 30
0.0
 11
47.280099999999997
 21
120.85299999999999
 31
0.0
  0
LINE
  5
664
  8
_________1
 62
     7
 10
47.280099999999997
 20
120.85299999999999
 30
0.0
 11
47.280099999999997
 21
121.18600000000001
 31
0.0
  0
LINE
  5
665
  8
_________1
 62
     7
 10
47.280099999999997
 20
121.18600000000001
 30
0.0
 11
55.2804
 21
121.18600000000001
 31
0.0
  0
LINE
  5
666
  8
_________1
 62
     7
 10
55.2804
 20
121.18600000000001
 30
0.0
 11
55.2804
 21
120.85299999999999
 31
0.0
  0
LINE
  5
667
  8
_________1
 62
     7
 10
134.50899999999999
 20
114.176
 30
0.0
 11
142.13900000000001
 21
122.736
 31
0.0
  0
INSERT
  5
668
  8
_________1
 62
     7
  2
AIGNBL02010020
 10
0.0
 20
0.0
 30
0.0
  0
LINE
  5
669
  8
_________1
 62
     7
 10
86.625600000000006
 20
45.403199999999998
 30
0.0
 11
57.138300000000001
 21
45.403199999999998
 31
0.0
  0
INSERT
  5
66A
  8
_________1
 62
     7
  2
AIGNBL02010021
 10
0.0
 20
0.0
 30
0.0
  0
LINE
  5
66B
  8
_________1
 62
     7
 10
143.36099999999999
 20
119.244
 30
0.0
 11
143.02799999999999
 21
119.244
 31
0.0
  0
LINE
  5
66C
  8
_________1
 62
     7
 10
144.86099999999999
 20
120.18600000000001
 30
0.0
 11
141.529
 21
120.18600000000001
 31
0.0
  0
LINE
  5
66D
  8
_________1
 62
     7
 10
141.529
 20
120.18600000000001
 30
0.0
 11
141.529
 21
119.31399999999999
 31
0.0
  0
ARC
  5
66E
  8
_________1
 62
     7
 10
141.69660999999999
 20
119.343772
 30
0.0
 40
0.170758
 50
190.13896700000001
 51
201.959079
  0
ARC
  5
66F
  8
_________1
 62
     7
 10
141.850067
 20
119.40021299999999
 30
0.0
 40
0.334226
 50
201.09530599999999
 51
236.29298
  0
ARC
  5
670
  8
_________1
 62
     7
 10
141.944322
 20
119.5219
 30
0.0
 40
0.4878840000000001
 50
235.01514399999999
 51
253.985623
  0
ARC
  5
671
  8
_________1
 62
     7
 10
142.04427699999999
 20
119.843487
 30
0.0
 40
0.8245989999999999
 50
253.47448
 51
271.45865300000003
  0
LINE
  5
672
  8
_________1
 62
     7
 10
142.065
 20
119.01900000000001
 30
0.0
 11
144.86099999999999
 21
119.01900000000001
 31
0.0
  0
LINE
  5
673
  8
_________1
 62
     7
 10
143.36099999999999
 20
120.18600000000001
 30
0.0
 11
143.36099999999999
 21
119.244
 31
0.0
  0
ARC
  5
674
  8
_________1
 62
     7
 10
143.58049099999999
 20
119.382509
 30
0.0
 40
0.259389
 50
212.33318399999999
 51
222.07856200000001
  0
ARC
  5
675
  8
_________1
 62
     7
 10
143.79238699999999
 20
119.56262599999999
 30
0.0
 40
0.5374330000000001
 50
221.19224
 51
257.31643000000003
  0
ARC
  5
676
  8
_________1
 62
     7
 10
143.83444399999999
 20
119.697042
 30
0.0
 40
0.677901
 50
256.34293200000002
 51
270.36933499999998
  0
LINE
  5
677
  8
_________1
 62
     7
 10
143.02799999999999
 20
120.18600000000001
 30
0.0
 11
143.02799999999999
 21
119.244
 31
0.0
  0
ARC
  5
678
  8
_________1
 62
     7
 10
142.289985
 20
120.606002
 30
0.0
 40
1.549382
 50
294.501195
 51
298.45336499999991
  0
ARC
  5
679
  8
_________1
 62
     7
 10
142.00225900000001
 20
121.17800200000001
 30
0.0
 40
2.1893370000000001
 50
282.22456099999999
 51
295.14502900000002
  0
ARC
  5
67A
  8
_________1
 62
     7
 10
142.26637199999999
 20
120.063762
 30
0.0
 40
1.044673999999999
 50
270.64740999999998
 51
281.00741799999997
  0
LINE
  5
67B
  8
_________1
 62
     7
 10
146.36099999999999
 20
119.244
 30
0.0
 11
146.69499999999999
 21
119.244
 31
0.0
  0
LINE
  5
67C
  8
_________1
 62
     7
 10
144.86099999999999
 20
120.18600000000001
 30
0.0
 11
148.1939999999999
 21
120.18600000000001
 31
0.0
  0
LINE
  5
67D
  8
_________1
 62
     7
 10
148.1939999999999
 20
120.18600000000001
 30
0.0
 11
148.1939999999999
 21
119.31399999999999
 31
0.0
  0
ARC
  5
67E
  8
_________1
 62
     7
 10
148.03107299999999
 20
119.341296
 30
0.0
 40
0.165714
 50
338.260604
 51
350.41834999999998
  0
ARC
  5
67F
  8
_________1
 62
     7
 10
147.87519499999999
 20
119.39722500000001
 30
0.0
 40
0.331271
 50
303.87187
 51
339.261076
  0
ARC
  5
680
  8
_________1
 62
     7
 10
147.78155799999999
 20
119.517706
 30
0.0
 40
0.4836090000000001
 50
286.05074200000001
 51
305.12747200000001
  0
ARC
  5
681
  8
_________1
 62
     7
 10
147.68124900000001
 20
119.83973400000001
 30
0.0
 40
0.8208499999999999
 50
268.526229
 51
286.56455999999997
  0
LINE
  5
682
  8
_________1
 62
     7
 10
147.66
 20
119.01900000000001
 30
0.0
 11
144.86099999999999
 21
119.01900000000001
 31
0.0
  0
LINE
  5
683
  8
_________1
 62
     7
 10
146.36099999999999
 20
120.18600000000001
 30
0.0
 11
146.36099999999999
 21
119.244
 31
0.0
  0
ARC
  5
684
  8
_________1
 62
     7
 10
146.14014
 20
119.383802
 30
0.0
 40
0.261785
 50
318.0136490000001
 51
327.66388999999998
  0
ARC
  5
685
  8
_________1
 62
     7
 10
145.93080900000001
 20
119.561853
 30
0.0
 40
0.536544
 50
282.6379720000001
 51
318.83447799999999
  0
ARC
  5
686
  8
_________1
 62
     7
 10
145.88791599999999
 20
119.698902
 30
0.0
 40
0.679761
 50
269.626983
 51
283.63840800000003
  0
LINE
  5
687
  8
_________1
 62
     7
 10
146.69499999999999
 20
120.18600000000001
 30
0.0
 11
146.69499999999999
 21
119.244
 31
0.0
  0
ARC
  5
688
  8
_________1
 62
     7
 10
147.44139999999999
 20
120.62108499999999
 30
0.0
 40
1.5666409999999991
 50
241.53962899999999
 51
245.4440120000001
  0
ARC
  5
689
  8
_________1
 62
     7
 10
147.71841699999999
 20
121.17118600000001
 30
0.0
 40
2.182237999999999
 50
244.830952
 51
257.79066999999998
  0
ARC
  5
68A
  8
_________1
 62
     7
 10
147.456557
 20
120.065708
 30
0.0
 40
1.0466189999999991
 50
259.00311099999999
 51
269.35735499999998
  0
LINE
  5
68B
  8
_________1
 62
     7
 10
147.44499999999999
 20
119.01900000000001
 30
0.0
 11
147.44499999999999
 21
117.01900000000001
 31
0.0
  0
LINE
  5
68C
  8
_________1
 62
     7
 10
142.27799999999999
 20
119.01900000000001
 30
0.0
 11
142.27799999999999
 21
117.01900000000001
 31
0.0
  0
LINE
  5
68D
  8
_________1
 62
     7
 10
147.61099999999999
 20
117.18600000000001
 30
0.0
 11
142.11199999999999
 21
117.18600000000001
 31
0.0
  0
LINE
  5
68E
  8
_________1
 62
     7
 10
147.61099999999999
 20
117.18600000000001
 30
0.0
 11
147.44499999999999
 21
117.01900000000001
 31
0.0
  0
LINE
  5
68F
  8
_________1
 62
     7
 10
147.44499999999999
 20
117.01900000000001
 30
0.0
 11
142.27799999999999
 21
117.01900000000001
 31
0.0
  0
LINE
  5
690
  8
_________1
 62
     7
 10
142.27799999999999
 20
117.01900000000001
 30
0.0
 11
142.11199999999999
 21
117.18600000000001
 31
0.0
  0
LINE
  5
691
  8
_________1
 62
     7
 10
142.11199999999999
 20
117.18600000000001
 30
0.0
 11
142.11199999999999
 21
119.01900000000001
 31
0.0
  0
LINE
  5
692
  8
_________1
 62
     7
 10
142.11199999999999
 20
119.01900000000001
 30
0.0
 11
147.61099999999999
 21
119.01900000000001
 31
0.0
  0
LINE
  5
693
  8
_________1
 62
     7
 10
147.61099999999999
 20
119.01900000000001
 30
0.0
 11
147.61099999999999
 21
117.18600000000001
 31
0.0
  0
LINE
  5
694
  8
_________1
 62
     7
 10
147.44499999999999
 20
130.352
 30
0.0
 11
147.44499999999999
 21
125.35299999999999
 31
0.0
  0
LINE
  5
695
  8
_________1
 62
     7
 10
142.27799999999999
 20
130.352
 30
0.0
 11
142.27799999999999
 21
125.35299999999999
 31
0.0
  0
LINE
  5
696
  8
_________1
 62
     7
 10
147.61099999999999
 20
125.35299999999999
 30
0.0
 11
142.11199999999999
 21
125.35299999999999
 31
0.0
  0
LINE
  5
697
  8
_________1
 62
     7
 10
142.11199999999999
 20
125.35299999999999
 30
0.0
 11
142.11199999999999
 21
130.352
 31
0.0
  0
LINE
  5
698
  8
_________1
 62
     7
 10
142.11199999999999
 20
130.352
 30
0.0
 11
147.61099999999999
 21
130.352
 31
0.0
  0
LINE
  5
699
  8
_________1
 62
     7
 10
147.61099999999999
 20
130.352
 30
0.0
 11
147.61099999999999
 21
125.35299999999999
 31
0.0
  0
LINE
  5
69A
  8
_________1
 62
     7
 10
148.52799999999999
 20
120.18600000000001
 30
0.0
 11
141.19499999999999
 21
120.18600000000001
 31
0.0
  0
LINE
  5
69B
  8
_________1
 62
     7
 10
141.19499999999999
 20
120.18600000000001
 30
0.0
 11
141.19499999999999
 21
120.60299999999999
 31
0.0
  0
LINE
  5
69C
  8
_________1
 62
     7
 10
141.19499999999999
 20
120.60299999999999
 30
0.0
 11
148.52799999999999
 21
120.60299999999999
 31
0.0
  0
LINE
  5
69D
  8
_________1
 62
     7
 10
148.52799999999999
 20
120.60299999999999
 30
0.0
 11
148.52799999999999
 21
120.18600000000001
 31
0.0
  0
LINE
  5
69E
  8
_________1
 62
     7
 10
148.86099999999999
 20
120.60299999999999
 30
0.0
 11
140.86099999999999
 21
120.60299999999999
 31
0.0
  0
LINE
  5
69F
  8
_________1
 62
     7
 10
140.86099999999999
 20
120.60299999999999
 30
0.0
 11
140.86099999999999
 21
120.85299999999999
 31
0.0
  0
LINE
  5
6A0
  8
_________1
 62
     7
 10
140.86099999999999
 20
120.85299999999999
 30
0.0
 11
148.86099999999999
 21
120.85299999999999
 31
0.0
  0
LINE
  5
6A1
  8
_________1
 62
     7
 10
148.86099999999999
 20
120.85299999999999
 30
0.0
 11
148.86099999999999
 21
120.60299999999999
 31
0.0
  0
LINE
  5
6A2
  8
_________1
 62
     7
 10
148.86099999999999
 20
120.85299999999999
 30
0.0
 11
140.86099999999999
 21
120.85299999999999
 31
0.0
  0
LINE
  5
6A3
  8
_________1
 62
     7
 10
140.86099999999999
 20
120.85299999999999
 30
0.0
 11
140.86099999999999
 21
121.18600000000001
 31
0.0
  0
LINE
  5
6A4
  8
_________1
 62
     7
 10
140.86099999999999
 20
121.18600000000001
 30
0.0
 11
148.86099999999999
 21
121.18600000000001
 31
0.0
  0
LINE
  5
6A5
  8
_________1
 62
     7
 10
148.86099999999999
 20
121.18600000000001
 30
0.0
 11
148.86099999999999
 21
120.85299999999999
 31
0.0
  0
INSERT
  5
6A6
  8
_________1
 62
     7
  2
AIGNBL02010023
 10
0.0
 20
0.0
 30
0.0
  0
LINE
  5
6A7
  8
_________1
 62
     7
 10
139.328
 20
125.352
 30
0.0
 11
132.923
 21
125.352
 31
0.0
  0
LINE
  5
6A8
  8
_________1
 62
     7
 10
132.22399999999999
 20
244.82499999999999
 30
0.0
 11
138.79499999999999
 21
244.82499999999999
 31
0.0
  0
INSERT
  5
6A9
  8
_________1
 62
     7
  2
AIGNBL02010026
 10
0.0
 20
0.0
 30
0.0
  0
INSERT
  5
6AA
  8
_________1
 62
     7
  2
AIGNBL02010028
 10
0.0
 20
0.0
 30
0.0
  0
LINE
  5
6AB
  8
_________1
  6
AIGENLINE001
 62
     7
 10
144.86099999999999
 20
256.15800000000002
 30
0.0
 11
144.86099999999999
 21
245.19800000000001
 31
0.0
  0
ARC
  5
6AC
  8
_________1
 62
     7
 10
144.74968100000001
 20
250.77918
 30
0.0
 40
3.0303379999999991
 50
2.111613999999999
 51
87.895143999999988
  0
ARC
  5
6AD
  8
_________1
 62
     7
 10
144.97259199999999
 20
250.77886699999999
 30
0.0
 40
3.0306619999999991
 50
92.110538000000005
 51
177.882665
  0
ARC
  5
6AE
  8
_________1
 62
     7
 10
144.97227799999999
 20
251.00249299999999
 30
0.0
 40
3.0303369999999989
 50
182.111616
 51
267.89518099999998
  0
ARC
  5
6AF
  8
_________1
 62
     7
 10
144.749347
 20
251.00282799999999
 30
0.0
 40
3.030683999999999
 50
272.11093899999997
 51
357.88230299999998
  0
LINE
  5
6B0
  8
_________1
  6
AIGENLINE001
 62
     7
 10
139.07900000000001
 20
250.89099999999999
 30
0.0
 11
150.50899999999999
 21
250.89099999999999
 31
0.0
  0
TEXT
  5
6B1
  8
_________2
 62
     7
 10
24.586400000000001
 20
0.707627
 30
0.0
 40
3.9357000000000002
  1
（社）日本水道協会認証品
 41
0.5
  0
TEXT
  5
6B2
  8
_________2
 62
     7
 10
109.179
 20
24.226099999999999
 30
0.0
 40
3.9357000000000002
  1
シン キッチン用湯水混合栓
 41
0.5
  0
LINE
  5
6B3
  8
_________2
 62
     7
 10
205.30099999999999
 20
127.411
 30
0.0
 11
183.55099999999999
 21
127.411
 31
0.0
  0
LINE
  5
6B4
  8
_________2
 62
     7
 10
100.3
 20
-4.0910799999999998
 30
0.0
 11
100.3
 21
-21.071000000000002
 31
0.0
  0
LINE
  5
6B5
  8
_________2
 62
     7
 10
100.3
 20
275.93099999999998
 30
0.0
 11
100.3
 21
258.911
 31
0.0
  0
LINE
  5
6B6
  8
_________2
 62
     7
 10
17.049199999999999
 20
127.411
 30
0.0
 11
-4.7012099999999988
 21
127.411
 31
0.0
  0
INSERT
  5
6B7
  8
_________2
 62
     7
  2
AIGNBL03010002
 10
0.0
 20
0.0
 30
0.0
  0
TEXT
  5
6B8
  8
_________2
 62
     7
 10
104.605
 20
1.6794899999999999
 30
0.0
 40
3.0923400000000001
  1
図番
 41
0.5
  0
LINE
  5
6B9
  8
_________2
 62
     7
 10
103.55
 20
5.9087199999999989
 30
0.0
 11
183.55099999999999
 21
5.9087199999999989
 31
0.0
  0
TEXT
  5
6BA
  8
_________2
 62
     7
 10
104.605
 20
11.6793
 30
0.0
 40
3.0923400000000001
  1
品番
 41
0.5
  0
TEXT
  5
6BB
  8
_________2
 62
     7
 10
104.605
 20
31.8184
 30
0.0
 40
3.0923400000000001
  1
名称
 41
0.5
  0
TEXT
  5
6BC
  8
_________2
 62
     7
 10
91.844758333333345
 20
26.822299999999998
 30
0.0
 40
3.6545800000000002
  1
mm
 41
0.5
 72
     1
 11
93.367500000000007
 21
26.822299999999998
 31
0.0
  0
TEXT
  5
6BD
  8
_________2
 62
     7
 10
85.642899999999983
 20
31.8184
 30
0.0
 40
3.0923400000000001
  1
単位
 41
0.5
  0
TEXT
  5
6BE
  8
_________2
 62
     7
 10
85.642899999999983
 20
19.410799999999998
 30
0.0
 40
3.0923400000000001
  1
尺度
 41
0.5
  0
TEXT
  5
6BF
  8
_________2
 62
     7
 10
90.548458666666676
 20
13.2182
 30
0.0
 40
3.6545800000000002
  1
1 ： 6
 41
0.5
 72
     1
 11
93.959400000000016
 21
13.2182
 31
0.0
  0
TEXT
  5
6C0
  8
_________2
 62
     7
 10
134.5306875
 20
9.1082000000000001
 30
0.0
 40
3.9357000000000002
  1
KW0261002R
 41
0.5
 72
     1
 11
143.55000000000001
 21
9.1082000000000001
 31
0.0
  0
TEXT
  5
6C1
  8
_________2
 62
     7
 10
134.5306875
 20
-0.8926299999999999
 30
0.0
 40
3.9357000000000002
  1
KW0261002R
 41
0.5
 72
     1
 11
143.55000000000001
 21
-0.8926299999999999
 31
0.0
  0
TEXT
  5
6C2
  8
_________2
 62
     7
 10
39.364090666666669
 20
13.603400000000001
 30
0.0
 40
3.6545800000000002
  1
平井
 41
0.5
 72
     1
 11
41.313200000000002
 21
13.603400000000001
 31
0.0
  0
TEXT
  5
6C3
  8
_________2
 62
     7
 10
20.790090666666661
 20
13.603400000000001
 30
0.0
 40
3.6545800000000002
  1
石原
 41
0.5
 72
     1
 11
22.7392
 21
13.603400000000001
 31
0.0
  0
TEXT
  5
6C4
  8
_________2
 62
     7
 10
67.785399999999996
 20
13.2182
 30
0.0
 40
3.6545800000000002
  1
17.03.27
 41
0.5
  0
TEXT
  5
6C5
  8
_________2
 62
     7
 10
66.592699999999994
 20
19.410799999999998
 30
0.0
 40
3.0923400000000001
  1
日付
 41
0.5
  0
TEXT
  5
6C6
  8
_________2
 62
     7
 10
29.638999999999999
 20
19.410799999999998
 30
0.0
 40
3.0923400000000001
  1
検図
 41
0.5
  0
TEXT
  5
6C7
  8
_________2
 62
     7
 10
18.020700000000001
 20
5.21143
 30
0.0
 40
3.0923400000000001
  1
備考
 41
0.5
  0
TEXT
  5
6C8
  8
_________2
 62
     7
 10
18.020700000000001
 20
19.410799999999998
 30
0.0
 40
3.0923400000000001
  1
製図
 41
0.5
  0
TEXT
  5
6C9
  8
_________2
 62
     7
 10
23.788165333333339
 20
27.936800000000002
 30
0.0
 40
4.4979399999999989
  1
セラトレーディング株式会社
 41
0.5
 72
     1
 11
41.180199999999999
 21
27.936800000000002
 31
0.0
  0
LINE
  5
6CA
  8
_________2
 62
     7
 10
183.55099999999999
 20
-4.0910799999999998
 30
0.0
 11
17.049199999999999
 21
-4.0910799999999998
 31
0.0
  0
LINE
  5
6CB
  8
_________2
 62
     7
 10
17.049199999999999
 20
-4.0910799999999998
 30
0.0
 11
17.049199999999999
 21
258.911
 31
0.0
  0
LINE
  5
6CC
  8
_________2
 62
     7
 10
17.049199999999999
 20
258.911
 30
0.0
 11
183.55099999999999
 21
258.911
 31
0.0
  0
LINE
  5
6CD
  8
_________2
 62
     7
 10
183.55099999999999
 20
258.911
 30
0.0
 11
183.55099999999999
 21
-4.0910799999999998
 31
0.0
  0
LINE
  5
6CE
  8
_________2
 62
     7
 10
65.549599999999998
 20
9.4092999999999982
 30
0.0
 11
65.549599999999998
 21
35.909100000000002
 31
0.0
  0
LINE
  5
6CF
  8
_________2
 62
     7
 10
84.549400000000006
 20
9.4092999999999982
 30
0.0
 11
84.549400000000006
 21
35.909100000000002
 31
0.0
  0
LINE
  5
6D0
  8
_________2
 62
     7
 10
103.55
 20
-4.0910799999999998
 30
0.0
 11
103.55
 21
35.909100000000002
 31
0.0
  0
LINE
  5
6D1
  8
_________2
 62
     7
 10
28.548999999999999
 20
9.4092999999999982
 30
0.0
 11
28.548999999999999
 21
23.409199999999998
 31
0.0
  0
LINE
  5
6D2
  8
_________2
 62
     7
 10
17.049199999999999
 20
9.4092999999999982
 30
0.0
 11
103.55
 21
9.4092999999999982
 31
0.0
  0
LINE
  5
6D3
  8
_________2
 62
     7
 10
17.049199999999999
 20
23.409199999999998
 30
0.0
 11
103.55
 21
23.409199999999998
 31
0.0
  0
LINE
  5
6D4
  8
_________2
 62
     7
 10
103.55
 20
15.9085
 30
0.0
 11
183.55099999999999
 21
15.9085
 31
0.0
  0
LINE
  5
6D5
  8
_________2
 62
     7
 10
17.049199999999999
 20
35.909100000000002
 30
0.0
 11
183.55099999999999
 21
35.909100000000002
 31
0.0
  0
ENDSEC
  0
EOF
