  0
SECTION
  2
HEADER
  9
$ACADVER
  1
AC1009
  9
$INSBASE
 10
0.0
 20
0.0
 30
0.0
  9
$EXTMIN
 10
-104.794
 20
0.176045
 30
0.0
  9
$EXTMAX
 10
315.209
 20
297.178
 30
0.0
  9
$LIMMIN
 10
0.0
 20
0.0
  9
$LIMMAX
 10
12.0
 20
9.0
  9
$ORTHOMODE
 70
     0
  9
$REGENMODE
 70
     1
  9
$FILLMODE
 70
     1
  9
$QTEXTMODE
 70
     0
  9
$MIRRTEXT
 70
     1
  9
$DRAGMODE
 70
     2
  9
$LTSCALE
 40
1.0
  9
$OSMODE
 70
    37
  9
$ATTMODE
 70
     1
  9
$TEXTSIZE
 40
0.0
  9
$TRACEWID
 40
0.05
  9
$TEXTSTYLE
  7
STANDARD
  9
$CLAYER
  8
0
  9
$CELTYPE
  6
CONTINUOUS
  9
$CECOLOR
 62
   256
  9
$DIMSCALE
 40
1.0
  9
$DIMASZ
 40
0.18
  9
$DIMEXO
 40
0.0625
  9
$DIMDLI
 40
0.38
  9
$DIMRND
 40
0.0
  9
$DIMDLE
 40
0.0
  9
$DIMEXE
 40
0.18
  9
$DIMTP
 40
0.0
  9
$DIMTM
 40
0.0
  9
$DIMTXT
 40
0.18
  9
$DIMCEN
 40
0.09
  9
$DIMTSZ
 40
0.0
  9
$DIMTOL
 70
     0
  9
$DIMLIM
 70
     0
  9
$DIMTIH
 70
     1
  9
$DIMTOH
 70
     1
  9
$DIMSE1
 70
     0
  9
$DIMSE2
 70
     0
  9
$DIMTAD
 70
     0
  9
$DIMZIN
 70
     0
  9
$DIMBLK
  1

  9
$DIMASO
 70
     1
  9
$DIMSHO
 70
     1
  9
$DIMPOST
  1

  9
$DIMAPOST
  1

  9
$DIMALT
 70
     0
  9
$DIMALTD
 70
     2
  9
$DIMALTF
 40
25.399999999999999
  9
$DIMLFAC
 40
1.0
  9
$DIMTOFL
 70
     0
  9
$DIMTVP
 40
0.0
  9
$DIMTIX
 70
     0
  9
$DIMSOXD
 70
     0
  9
$DIMSAH
 70
     0
  9
$DIMBLK1
  1

  9
$DIMBLK2
  1

  9
$DIMSTYLE
  2
STANDARD
  9
$DIMCLRD
 70
     0
  9
$DIMCLRE
 70
     0
  9
$DIMCLRT
 70
     0
  9
$DIMTFAC
 40
1.0
  9
$DIMGAP
 40
0.09
  9
$LUNITS
 70
     2
  9
$LUPREC
 70
     4
  9
$SKETCHINC
 40
0.1
  9
$FILLETRAD
 40
0.0
  9
$AUNITS
 70
     0
  9
$AUPREC
 70
     0
  9
$MENU
  1
.
  9
$ELEVATION
 40
0.0
  9
$PELEVATION
 40
0.0
  9
$THICKNESS
 40
0.0
  9
$LIMCHECK
 70
     0
  9
$BLIPMODE
 70
     0
  9
$CHAMFERA
 40
0.0
  9
$CHAMFERB
 40
0.0
  9
$SKPOLY
 70
     0
  9
$TDCREATE
 40
2444972.375
  9
$TDUPDATE
 40
2459062.2469793749
  9
$TDINDWG
 40
0.0000573611
  9
$TDUSRTIMER
 40
0.0000573611
  9
$USRTIMER
 70
     1
  9
$ANGBASE
 50
0.0
  9
$ANGDIR
 70
     0
  9
$PDMODE
 70
     0
  9
$PDSIZE
 40
0.0
  9
$PLINEWID
 40
0.0
  9
$COORDS
 70
     1
  9
$SPLFRAME
 70
     0
  9
$SPLINETYPE
 70
     6
  9
$SPLINESEGS
 70
     8
  9
$ATTDIA
 70
     1
  9
$ATTREQ
 70
     1
  9
$HANDLING
 70
     1
  9
$HANDSEED
  5
7A3
  9
$SURFTAB1
 70
     6
  9
$SURFTAB2
 70
     6
  9
$SURFTYPE
 70
     6
  9
$SURFU
 70
     6
  9
$SURFV
 70
     6
  9
$UCSNAME
  2

  9
$UCSORG
 10
0.0
 20
0.0
 30
0.0
  9
$UCSXDIR
 10
1.0
 20
0.0
 30
0.0
  9
$UCSYDIR
 10
0.0
 20
1.0
 30
0.0
  9
$PUCSNAME
  2

  9
$PUCSORG
 10
0.0
 20
0.0
 30
0.0
  9
$PUCSXDIR
 10
1.0
 20
0.0
 30
0.0
  9
$PUCSYDIR
 10
0.0
 20
1.0
 30
0.0
  9
$USERI1
 70
     0
  9
$USERI2
 70
     0
  9
$USERI3
 70
     0
  9
$USERI4
 70
     0
  9
$USERI5
 70
     0
  9
$USERR1
 40
0.0
  9
$USERR2
 40
0.0
  9
$USERR3
 40
0.0
  9
$USERR4
 40
0.0
  9
$USERR5
 40
0.0
  9
$WORLDVIEW
 70
     1
  9
$SHADEDGE
 70
     3
  9
$SHADEDIF
 70
    70
  9
$TILEMODE
 70
     1
  9
$MAXACTVP
 70
    48
  9
$PLIMCHECK
 70
     0
  9
$PEXTMIN
 10
1.0000000000000000E+020
 20
1.0000000000000000E+020
 30
1.0000000000000000E+020
  9
$PEXTMAX
 10
-1.0000000000000000E+020
 20
-1.0000000000000000E+020
 30
-1.0000000000000000E+020
  9
$PLIMMIN
 10
0.0
 20
0.0
  9
$PLIMMAX
 10
12.0
 20
9.0
  9
$UNITMODE
 70
     0
  9
$VISRETAIN
 70
     1
  9
$PLINEGEN
 70
     0
  9
$PSLTSCALE
 70
     1
  0
ENDSEC
  0
SECTION
  2
TABLES
  0
TABLE
  2
VPORT
 70
     1
  0
VPORT
  2
*ACTIVE
 70
     0
 10
0.0
 20
0.0
 11
1.0
 21
1.0
 12
159.5855372518389
 22
148.589
 13
0.0
 23
0.0
 14
1.0
 24
1.0
 15
0.0
 25
0.0
 16
0.0
 26
0.0
 36
1.0
 17
0.0
 27
0.0
 37
0.0
 40
204.90490258392791
 41
2.801587301587301
 42
50.0
 43
0.0
 44
0.0
 50
0.0
 51
0.0
 71
     0
 72
   100
 73
     1
 74
     1
 75
     0
 76
     0
 77
     0
 78
     0
  0
ENDTAB
  0
TABLE
  2
LTYPE
 70
     3
  0
LTYPE
  2
CONTINUOUS
 70
     0
  3
Solid line
 72
    65
 73
     0
 40
0.0
  0
LTYPE
  2
AIGENLINE001
 70
     0
  3
generate AI->DXF Converter
 72
    65
 73
     4
 40
5.8561449999999988
 49
3.5278
 49
-0.776115
 49
0.776115
 49
-0.776115
  0
LTYPE
  2
AIGENLINE002
 70
     0
  3
generate AI->DXF Converter
 72
    65
 73
     6
 40
7.4083750000000004
 49
3.5278
 49
-0.776115
 49
0.776115
 49
-0.776115
 49
0.776115
 49
-0.776115
  0
ENDTAB
  0
TABLE
  2
LAYER
 70
     4
  0
LAYER
  2
0
 70
     0
 62
     7
  6
CONTINUOUS
  0
LAYER
  2
____
 70
     0
 62
     7
  6
CONTINUOUS
  0
LAYER
  2
_________1
 70
     0
 62
     7
  6
CONTINUOUS
  0
LAYER
  2
_________2
 70
     0
 62
     7
  6
CONTINUOUS
  0
ENDTAB
  0
TABLE
  2
STYLE
 70
     1
  0
STYLE
  2
STANDARD
 70
     0
 40
0.0
 41
0.0
 50
0.0
 71
     0
 42
0.0
  3
TXT
  4
EXTFONT.SHX
  0
ENDTAB
  0
TABLE
  2
VIEW
 70
     0
  0
ENDTAB
  0
TABLE
  2
UCS
 70
     0
  0
ENDTAB
  0
TABLE
  2
APPID
 70
     3
  0
APPID
  2
ACAD
 70
     0
  0
APPID
  2
ACAD_NAV_VCDISPLAY
 70
     0
  0
APPID
  2
ACAD_MLEADERVER
 70
     0
  0
ENDTAB
  0
TABLE
  2
DIMSTYLE
 70
     1
  0
DIMSTYLE
  2
STANDARD
 70
     0
  3

  4

  5

  6

  7

 40
1.0
 41
0.18
 42
0.0625
 43
0.38
 44
0.18
 45
0.0
 46
0.0
 47
0.0
 48
0.0
140
0.18
141
0.09
142
0.0
143
25.399999999999999
144
1.0
145
0.0
146
1.0
147
0.09
 71
     0
 72
     0
 73
     1
 74
     1
 75
     0
 76
     0
 77
     0
 78
     0
170
     0
171
     2
172
     0
173
     0
174
     0
175
     0
176
     0
177
     0
178
     0
  0
ENDTAB
  0
ENDSEC
  0
SECTION
  2
BLOCKS
  0
BLOCK
  8
0
  2
$MODEL_SPACE
 70
     0
 10
0.0
 20
0.0
 30
0.0
  3
$MODEL_SPACE
  1

  0
ENDBLK
  5
1A
  8
0
  0
BLOCK
 67
     1
  8
0
  2
$PAPER_SPACE
 70
     0
 10
0.0
 20
0.0
 30
0.0
  3
$PAPER_SPACE
  1

  0
ENDBLK
  5
17
 67
     1
  8
0
  0
BLOCK
  8
_________1
  2
AIGNBL0203001F
 70
     0
 10
0.0
 20
0.0
 30
0.0
  3
AIGNBL0203001F
  1

  0
LINE
  5
27
  8
_________1
 62
     7
 10
-28.140599999999999
 20
37.314799999999998
 30
0.0
 11
-30.351299999999998
 21
36.722499999999997
 31
0.0
  0
LINE
  5
28
  8
_________1
 62
     7
 10
-30.351299999999998
 20
36.722499999999997
 30
0.0
 11
-28.140599999999999
 21
36.130299999999998
 31
0.0
  0
LINE
  5
29
  8
_________1
 62
     7
 10
-28.140599999999999
 20
36.130299999999998
 30
0.0
 11
-28.140599999999999
 21
37.314799999999998
 31
0.0
  0
LINE
  5
2A
  8
_________1
 62
     7
 10
-35.311900000000001
 20
36.130299999999998
 30
0.0
 11
-33.101199999999999
 21
36.722499999999997
 31
0.0
  0
LINE
  5
2B
  8
_________1
 62
     7
 10
-33.101199999999999
 20
36.722499999999997
 30
0.0
 11
-35.311900000000001
 21
37.314799999999998
 31
0.0
  0
LINE
  5
2C
  8
_________1
 62
     7
 10
-35.311900000000001
 20
37.314799999999998
 30
0.0
 11
-35.311900000000001
 21
36.130299999999998
 31
0.0
  0
LINE
  5
2D
  8
_________1
 62
     7
 10
-44.116599999999998
 20
36.722499999999997
 30
0.0
 11
-27.213200000000001
 21
36.722499999999997
 31
0.0
  0
ENDBLK
  5
2E
  8
_________1
  0
BLOCK
  8
_________1
  2
AIGNBL02030025
 70
     0
 10
0.0
 20
0.0
 30
0.0
  3
AIGNBL02030025
  1

  0
LINE
  5
31
  8
_________1
 62
     7
 10
55.052100000000003
 20
132.01900000000001
 30
0.0
 11
54.459600000000002
 21
134.23099999999999
 31
0.0
  0
LINE
  5
32
  8
_________1
 62
     7
 10
54.459600000000002
 20
134.23099999999999
 30
0.0
 11
53.866999999999997
 21
132.01900000000001
 31
0.0
  0
LINE
  5
33
  8
_________1
 62
     7
 10
53.866999999999997
 20
132.01900000000001
 30
0.0
 11
55.052100000000003
 21
132.01900000000001
 31
0.0
  0
LINE
  5
34
  8
_________1
 62
     7
 10
53.881500000000003
 20
131.441
 30
0.0
 11
54.473999999999997
 21
129.22900000000001
 31
0.0
  0
LINE
  5
35
  8
_________1
 62
     7
 10
54.473999999999997
 20
129.22900000000001
 30
0.0
 11
55.066600000000001
 21
131.441
 31
0.0
  0
LINE
  5
36
  8
_________1
 62
     7
 10
55.066600000000001
 20
131.441
 30
0.0
 11
53.881500000000003
 21
131.441
 31
0.0
  0
LINE
  5
37
  8
_________1
 62
     7
 10
54.466799999999999
 20
134.22999999999999
 30
0.0
 11
54.466799999999999
 21
129.22999999999999
 31
0.0
  0
ENDBLK
  5
38
  8
_________1
  0
BLOCK
  8
_________1
  2
AIGNBL02020004
 70
     0
 10
0.0
 20
0.0
 30
0.0
  3
AIGNBL02020004
  1

  0
LINE
  5
3B
  8
_________1
 62
     7
 10
70.038700000000006
 20
128.22999999999999
 30
0.0
 11
70.538899999999984
 21
128.56399999999999
 31
0.0
  0
LINE
  5
3C
  8
_________1
 62
     7
 10
70.038700000000006
 20
125.063
 30
0.0
 11
70.038700000000006
 21
128.22999999999999
 31
0.0
  0
LINE
  5
3D
  8
_________1
 62
     7
 10
69.038300000000007
 20
125.063
 30
0.0
 11
69.038300000000007
 21
128.56399999999999
 31
0.0
  0
LINE
  5
3E
  8
_________1
 62
     7
 10
68.538700000000006
 20
125.063
 30
0.0
 11
68.538700000000006
 21
128.56399999999999
 31
0.0
  0
LINE
  5
3F
  8
_________1
 62
     7
 10
67.704999999999998
 20
125.063
 30
0.0
 11
67.704999999999998
 21
128.56399999999999
 31
0.0
  0
LINE
  5
40
  8
_________1
 62
     7
 10
66.538499999999999
 20
125.063
 30
0.0
 11
66.538499999999999
 21
128.56399999999999
 31
0.0
  0
LINE
  5
41
  8
_________1
 62
     7
 10
66.038200000000003
 20
125.063
 30
0.0
 11
66.038200000000003
 21
128.56399999999999
 31
0.0
  0
LINE
  5
42
  8
_________1
 62
     7
 10
65.872200000000007
 20
125.063
 30
0.0
 11
65.872200000000007
 21
128.56399999999999
 31
0.0
  0
LINE
  5
43
  8
_________1
 62
     7
 10
64.038700000000006
 20
125.063
 30
0.0
 11
64.038700000000006
 21
128.56399999999999
 31
0.0
  0
LINE
  5
44
  8
_________1
 62
     7
 10
63.705199999999991
 20
125.063
 30
0.0
 11
61.704999999999998
 21
128.56399999999999
 31
0.0
  0
LINE
  5
45
  8
_________1
 62
     7
 10
63.2057
 20
125.063
 30
0.0
 11
61.204700000000003
 21
128.56399999999999
 31
0.0
  0
LINE
  5
46
  8
_________1
 62
     7
 10
62.538699999999999
 20
125.063
 30
0.0
 11
62.538699999999999
 21
126.23
 31
0.0
  0
LINE
  5
47
  8
_________1
 62
     7
 10
61.204700000000003
 20
125.063
 30
0.0
 11
70.038700000000006
 21
125.063
 31
0.0
  0
LINE
  5
48
  8
_________1
 62
     7
 10
61.204700000000003
 20
125.063
 30
0.0
 11
61.204700000000003
 21
128.56399999999999
 31
0.0
  0
ENDBLK
  5
49
  8
_________1
  0
BLOCK
  8
_________1
  2
AIGNBL02020007
 70
     0
 10
0.0
 20
0.0
 30
0.0
  3
AIGNBL02020007
  1

  0
ARC
  5
4C
  8
_________1
 62
     7
 10
64.938527000000008
 20
84.459434000000002
 30
0.0
 40
0.31778
 50
232.93893499999999
 51
241.79974799999999
  0
ARC
  5
4D
  8
_________1
 62
     7
 10
64.829355000000007
 20
84.315387999999999
 30
0.0
 40
0.137039
 50
214.70792499999999
 51
233.06740199999999
  0
ARC
  5
4E
  8
_________1
 62
     7
 10
64.771446999999995
 20
84.275074000000004
 30
0.0
 40
0.06648
 50
181.421716
 51
214.56343799999999
  0
ARC
  5
4F
  8
_________1
 62
     7
 10
64.771506000000002
 20
84.272834999999986
 30
0.0
 40
0.066522
 50
133.98621800000001
 51
179.49221399999999
  0
ARC
  5
50
  8
_________1
 62
     7
 10
64.858320999999989
 20
84.200316999999998
 30
0.0
 40
0.1794
 50
122.645478
 51
137.85391100000001
  0
ARC
  5
51
  8
_________1
 62
     7
 10
64.982407999999992
 20
84.010588999999996
 30
0.0
 40
0.4060990000000001
 50
112.696304
 51
122.947059
  0
ARC
  5
52
  8
_________1
 62
     7
 10
65.160004000000001
 20
83.595088000000004
 30
0.0
 40
0.857957
 50
105.841052
 51
112.931611
  0
ARC
  5
53
  8
_________1
 62
     7
 10
65.366861999999998
 20
82.881112000000016
 30
0.0
 40
1.6012889999999991
 50
100.720996
 51
105.98805
  0
ARC
  5
54
  8
_________1
 62
     7
 10
65.604368999999991
 20
81.623051000000004
 30
0.0
 40
2.8815719999999998
 50
92.728371999999993
 51
100.70763700000001
  0
ARC
  5
55
  8
_________1
 62
     7
 10
65.703051000000002
 20
80.341684999999984
 30
0.0
 40
4.1663529999999991
 50
89.971757999999994
 51
93.245118999999988
  0
ARC
  5
56
  8
_________1
 62
     7
 10
65.704980000000006
 20
80.643544999999975
 30
0.0
 40
3.8644919999999989
 50
81.091071000000014
 51
89.998142999999999
  0
ARC
  5
57
  8
_________1
 62
     7
 10
66.057627999999994
 20
82.987685999999997
 30
0.0
 40
1.4940910000000001
 50
69.834214000000003
 51
80.530063999999996
  0
ARC
  5
58
  8
_________1
 62
     7
 10
66.408218000000005
 20
83.973528000000002
 30
0.0
 40
0.4479490000000001
 50
58.161477000000012
 51
68.457906999999992
  0
ARC
  5
59
  8
_________1
 62
     7
 10
66.546043999999995
 20
84.193842000000004
 30
0.0
 40
0.188079
 50
42.414006000000001
 51
58.425599999999989
  0
ARC
  5
5A
  8
_________1
 62
     7
 10
66.628646000000003
 20
84.268512999999999
 30
0.0
 40
0.076734
 50
3.6705879999999991
 51
42.850939999999987
  0
ARC
  5
5B
  8
_________1
 62
     7
 10
66.637826000000004
 20
84.274067999999986
 30
0.0
 40
0.067399
 50
312.862594
 51
359.45328499999999
  0
ARC
  5
5C
  8
_________1
 62
     7
 10
66.534048999999996
 20
84.365708999999995
 30
0.0
 40
0.205623
 50
296.772964
 51
316.69104099999998
  0
ARC
  5
5D
  8
_________1
 62
     7
 10
64.771506000000002
 20
86.703366000000003
 30
0.0
 40
0.066522
 50
133.98621800000001
 51
179.49221399999999
  0
ARC
  5
5E
  8
_________1
 62
     7
 10
64.858320999999989
 20
86.630847000000003
 30
0.0
 40
0.1794
 50
122.645478
 51
137.85391100000001
  0
ARC
  5
5F
  8
_________1
 62
     7
 10
64.982407999999992
 20
86.441119
 30
0.0
 40
0.4060990000000001
 50
112.696304
 51
122.947059
  0
ARC
  5
60
  8
_________1
 62
     7
 10
65.160004000000001
 20
86.025618000000009
 30
0.0
 40
0.857957
 50
105.841052
 51
112.931611
  0
ARC
  5
61
  8
_________1
 62
     7
 10
65.366861999999998
 20
85.311642000000006
 30
0.0
 40
1.6012889999999991
 50
100.720996
 51
105.98805
  0
ARC
  5
62
  8
_________1
 62
     7
 10
65.604368999999991
 20
84.053582000000006
 30
0.0
 40
2.8815719999999998
 50
92.728371999999993
 51
100.70763700000001
  0
ARC
  5
63
  8
_________1
 62
     7
 10
65.703051000000002
 20
82.772215000000017
 30
0.0
 40
4.1663529999999991
 50
89.971757999999994
 51
93.245118999999988
  0
ARC
  5
64
  8
_________1
 62
     7
 10
65.704980000000006
 20
83.074074999999993
 30
0.0
 40
3.8644919999999989
 50
81.091071000000014
 51
89.998142999999999
  0
ARC
  5
65
  8
_________1
 62
     7
 10
66.057627999999994
 20
85.418216000000001
 30
0.0
 40
1.4940910000000001
 50
69.834214000000003
 51
80.530063999999996
  0
ARC
  5
66
  8
_________1
 62
     7
 10
66.408218000000005
 20
86.404057999999992
 30
0.0
 40
0.4479490000000001
 50
58.161477000000012
 51
68.457906999999992
  0
ARC
  5
67
  8
_________1
 62
     7
 10
66.546043999999995
 20
86.624371999999994
 30
0.0
 40
0.188079
 50
42.414006000000001
 51
58.425599999999989
  0
ARC
  5
68
  8
_________1
 62
     7
 10
66.628646000000003
 20
86.699043000000003
 30
0.0
 40
0.076734
 50
3.6705879999999991
 51
42.850939999999987
  0
LINE
  5
69
  8
_________1
 62
     7
 10
64.704999999999998
 20
86.703999999999979
 30
0.0
 11
64.704999999999998
 21
84.273399999999995
 31
0.0
  0
LINE
  5
6A
  8
_________1
 62
     7
 10
66.705200000000005
 20
86.703999999999979
 30
0.0
 11
66.705200000000005
 21
84.273399999999995
 31
0.0
  0
ENDBLK
  5
6B
  8
_________1
  0
BLOCK
  8
_________1
  2
AIGNBL02020008
 70
     0
 10
0.0
 20
0.0
 30
0.0
  3
AIGNBL02020008
  1

  0
ARC
  5
6E
  8
_________1
 62
     7
 10
64.976916000000003
 20
87.403464999999997
 30
0.0
 40
0.9166869999999999
 50
241.39483000000001
 51
252.69876099999999
  0
ARC
  5
6F
  8
_________1
 62
     7
 10
64.672955999999985
 20
86.827511999999999
 30
0.0
 40
0.265656
 50
225.97165799999999
 51
239.476947
  0
ARC
  5
70
  8
_________1
 62
     7
 10
64.560523000000003
 20
86.713793999999993
 30
0.0
 40
0.105766
 50
185.33738299999999
 51
226.948294
  0
ARC
  5
71
  8
_________1
 62
     7
 10
64.535392000000002
 20
86.703408999999994
 30
0.0
 40
0.080178
 50
139.15971099999999
 51
179.60965200000001
  0
ARC
  5
72
  8
_________1
 62
     7
 10
64.622131999999993
 20
86.639285000000001
 30
0.0
 40
0.187914
 50
126.106115
 51
141.66439600000001
  0
ARC
  5
73
  8
_________1
 62
     7
 10
64.744143999999991
 20
86.475195999999997
 30
0.0
 40
0.392389
 50
116.029281
 51
126.380854
  0
ARC
  5
74
  8
_________1
 62
     7
 10
64.919150999999985
 20
86.123621
 30
0.0
 40
0.7851090000000001
 50
109.250426
 51
116.246331
  0
ARC
  5
75
  8
_________1
 62
     7
 10
65.133081000000004
 20
85.516182999999984
 30
0.0
 40
1.4291160000000001
 50
103.88925399999999
 51
109.318478
  0
ARC
  5
76
  8
_________1
 62
     7
 10
65.440477000000001
 20
84.255729999999986
 30
0.0
 40
2.7265079999999999
 50
95.547833000000026
 51
103.801866
  0
ARC
  5
77
  8
_________1
 62
     7
 10
65.687744999999993
 20
82.213070000000016
 30
0.0
 40
4.7837519999999989
 50
89.792080000000013
 51
96.130313999999998
  0
ARC
  5
78
  8
_________1
 62
     7
 10
65.706502
 20
82.086251000000004
 30
0.0
 40
4.9105389999999991
 50
81.981842
 51
90.016304000000005
  0
ARC
  5
79
  8
_________1
 62
     7
 10
66.063343000000003
 20
84.727846
 30
0.0
 40
2.245045999999999
 50
72.643856999999997
 51
81.596071999999992
  0
ARC
  5
7A
  8
_________1
 62
     7
 10
66.474851999999998
 20
86.08685899999999
 30
0.0
 40
0.8252489999999999
 50
63.873274000000002
 51
71.766641000000021
  0
ARC
  5
7B
  8
_________1
 62
     7
 10
66.670479999999998
 20
86.483171999999996
 30
0.0
 40
0.383286
 50
52.59896899999999
 51
64.040580000000006
  0
ARC
  5
7C
  8
_________1
 62
     7
 10
66.797657999999998
 20
86.64892900000001
 30
0.0
 40
0.174361
 50
36.328965000000011
 51
52.714289000000001
  0
ARC
  5
7D
  8
_________1
 62
     7
 10
66.869326000000001
 20
86.701104999999984
 30
0.0
 40
0.085715
 50
1.9057959999999989
 51
36.612234999999998
  0
ARC
  5
7E
  8
_________1
 62
     7
 10
66.874697999999995
 20
86.704538999999997
 30
0.0
 40
0.080297
 50
318.38064600000001
 51
359.58352300000001
  0
ARC
  5
7F
  8
_________1
 62
     7
 10
66.788793999999996
 20
86.768321999999984
 30
0.0
 40
0.187115
 50
306.62407999999999
 51
321.251734
  0
ARC
  5
80
  8
_________1
 62
     7
 10
66.668809999999993
 20
86.928149000000005
 30
0.0
 40
0.386966
 50
296.34119800000002
 51
306.76460200000002
  0
ARC
  5
81
  8
_________1
 62
     7
 10
66.464956000000001
 20
87.339191999999997
 30
0.0
 40
0.8457819999999999
 50
286.50357200000002
 51
296.36158399999999
  0
ARC
  5
82
  8
_________1
 62
     7
 10
64.535392000000002
 20
89.133938999999998
 30
0.0
 40
0.080178
 50
139.15971099999999
 51
179.60965200000001
  0
ARC
  5
83
  8
_________1
 62
     7
 10
64.622131999999993
 20
89.069815999999989
 30
0.0
 40
0.187914
 50
126.106115
 51
141.66439600000001
  0
ARC
  5
84
  8
_________1
 62
     7
 10
64.744143999999991
 20
88.905726999999985
 30
0.0
 40
0.392389
 50
116.029281
 51
126.380854
  0
ARC
  5
85
  8
_________1
 62
     7
 10
64.919150999999985
 20
88.554151000000005
 30
0.0
 40
0.7851090000000001
 50
109.250426
 51
116.246331
  0
ARC
  5
86
  8
_________1
 62
     7
 10
65.133081000000004
 20
87.946713000000003
 30
0.0
 40
1.4291160000000001
 50
103.88925399999999
 51
109.318478
  0
ARC
  5
87
  8
_________1
 62
     7
 10
65.440477000000001
 20
86.686260000000004
 30
0.0
 40
2.7265079999999999
 50
95.547833000000026
 51
103.801866
  0
ARC
  5
88
  8
_________1
 62
     7
 10
65.687744999999993
 20
84.643600000000006
 30
0.0
 40
4.7837519999999989
 50
89.792080000000013
 51
96.130313999999998
  0
ARC
  5
89
  8
_________1
 62
     7
 10
65.706502
 20
84.516781999999992
 30
0.0
 40
4.9105389999999991
 50
81.981842
 51
90.016304000000005
  0
ARC
  5
8A
  8
_________1
 62
     7
 10
66.063343000000003
 20
87.158376000000004
 30
0.0
 40
2.245045999999999
 50
72.643856999999997
 51
81.596071999999992
  0
ARC
  5
8B
  8
_________1
 62
     7
 10
66.474851999999998
 20
88.517388999999994
 30
0.0
 40
0.8252489999999999
 50
63.873274000000002
 51
71.766641000000021
  0
ARC
  5
8C
  8
_________1
 62
     7
 10
66.670479999999998
 20
88.913702000000001
 30
0.0
 40
0.383286
 50
52.59896899999999
 51
64.040580000000006
  0
ARC
  5
8D
  8
_________1
 62
     7
 10
66.797657999999998
 20
89.079459999999997
 30
0.0
 40
0.174361
 50
36.328965000000011
 51
52.714289000000001
  0
ARC
  5
8E
  8
_________1
 62
     7
 10
66.869326000000001
 20
89.131635000000017
 30
0.0
 40
0.085715
 50
1.9057959999999989
 51
36.612234999999998
  0
LINE
  5
8F
  8
_________1
 62
     7
 10
64.455200000000005
 20
89.134500000000003
 30
0.0
 11
64.455200000000005
 21
86.703999999999979
 31
0.0
  0
LINE
  5
90
  8
_________1
 62
     7
 10
66.954999999999998
 20
89.134500000000003
 30
0.0
 11
66.954999999999998
 21
86.703999999999979
 31
0.0
  0
ENDBLK
  5
91
  8
_________1
  0
BLOCK
  8
_________1
  2
AIGNBL0202000C
 70
     0
 10
0.0
 20
0.0
 30
0.0
  3
AIGNBL0202000C
  1

  0
LINE
  5
94
  8
_________1
 62
     7
 10
-22.271100000000001
 20
178.346
 30
0.0
 11
-20.0594
 21
178.93899999999999
 31
0.0
  0
LINE
  5
95
  8
_________1
 62
     7
 10
-20.0594
 20
178.93899999999999
 30
0.0
 11
-22.271100000000001
 21
179.53099999999989
 31
0.0
  0
LINE
  5
96
  8
_________1
 62
     7
 10
-22.271100000000001
 20
179.53099999999989
 30
0.0
 11
-22.271100000000001
 21
178.346
 31
0.0
  0
LINE
  5
97
  8
_________1
 62
     7
 10
-29.515499999999999
 20
179.517
 30
0.0
 11
-31.7273
 21
178.92400000000001
 31
0.0
  0
LINE
  5
98
  8
_________1
 62
     7
 10
-31.7273
 20
178.92400000000001
 30
0.0
 11
-29.515499999999999
 21
178.33099999999999
 31
0.0
  0
LINE
  5
99
  8
_________1
 62
     7
 10
-29.515499999999999
 20
178.33099999999999
 30
0.0
 11
-29.515499999999999
 21
179.517
 31
0.0
  0
LINE
  5
9A
  8
_________1
 62
     7
 10
-20.060400000000001
 20
178.93100000000001
 30
0.0
 11
-31.726299999999998
 21
178.93100000000001
 31
0.0
  0
ENDBLK
  5
9B
  8
_________1
  0
BLOCK
  8
_________1
  2
AIGNBL0202001E
 70
     0
 10
0.0
 20
0.0
 30
0.0
  3
AIGNBL0202001E
  1

  0
INSERT
  5
9E
  8
_________1
 62
     7
  2
AIGNBL0203001F
 10
0.0
 20
0.0
 30
0.0
  0
ENDBLK
  5
9F
  8
_________1
  0
BLOCK
  8
_________1
  2
AIGNBL02020022
 70
     0
 10
0.0
 20
0.0
 30
0.0
  3
AIGNBL02020022
  1

  0
LINE
  5
A2
  8
_________1
 62
     7
 10
-10.9474
 20
132.01900000000001
 30
0.0
 11
-11.539899999999999
 21
134.22999999999999
 31
0.0
  0
LINE
  5
A3
  8
_________1
 62
     7
 10
-11.539899999999999
 20
134.22999999999999
 30
0.0
 11
-12.1325
 21
132.01900000000001
 31
0.0
  0
LINE
  5
A4
  8
_________1
 62
     7
 10
-12.1325
 20
132.01900000000001
 30
0.0
 11
-10.9474
 21
132.01900000000001
 31
0.0
  0
LINE
  5
A5
  8
_________1
 62
     7
 10
-12.118
 20
51.439700000000002
 30
0.0
 11
-11.525499999999999
 21
49.228000000000002
 31
0.0
  0
LINE
  5
A6
  8
_________1
 62
     7
 10
-11.525499999999999
 20
49.228000000000002
 30
0.0
 11
-10.9329
 21
51.439700000000002
 31
0.0
  0
LINE
  5
A7
  8
_________1
 62
     7
 10
-10.9329
 20
51.439700000000002
 30
0.0
 11
-12.118
 21
51.439700000000002
 31
0.0
  0
LINE
  5
A8
  8
_________1
 62
     7
 10
-11.5327
 20
134.22900000000001
 30
0.0
 11
-11.5327
 21
49.228999999999999
 31
0.0
  0
ENDBLK
  5
A9
  8
_________1
  0
BLOCK
  8
_________1
  2
AIGNBL02020024
 70
     0
 10
0.0
 20
0.0
 30
0.0
  3
AIGNBL02020024
  1

  0
INSERT
  5
AC
  8
_________1
 62
     7
  2
AIGNBL02030025
 10
0.0
 20
0.0
 30
0.0
  0
ENDBLK
  5
AD
  8
_________1
  0
BLOCK
  8
_________1
  2
AIGNBL02020027
 70
     0
 10
0.0
 20
0.0
 30
0.0
  3
AIGNBL02020027
  1

  0
LINE
  5
B0
  8
_________1
 62
     7
 10
62.497700000000002
 20
263.34500000000003
 30
0.0
 11
63.642499999999998
 21
265.32799999999997
 31
0.0
  0
LINE
  5
B1
  8
_________1
 62
     7
 10
63.642499999999998
 20
265.32799999999997
 30
0.0
 11
61.659500000000001
 21
264.18299999999999
 31
0.0
  0
LINE
  5
B2
  8
_________1
 62
     7
 10
61.659500000000001
 20
264.18299999999999
 30
0.0
 11
62.497700000000002
 21
263.34500000000003
 31
0.0
  0
LINE
  5
B3
  8
_________1
 62
     7
 10
68.912199999999999
 20
271.43599999999998
 30
0.0
 11
67.767399999999995
 21
269.45299999999997
 31
0.0
  0
LINE
  5
B4
  8
_________1
 62
     7
 10
67.767399999999995
 20
269.45299999999997
 30
0.0
 11
69.750399999999985
 21
270.59800000000001
 31
0.0
  0
LINE
  5
B5
  8
_________1
 62
     7
 10
69.750399999999985
 20
270.59800000000001
 30
0.0
 11
68.912199999999999
 21
271.43599999999998
 31
0.0
  0
ENDBLK
  5
B6
  8
_________1
  0
BLOCK
  8
_________1
  2
AIGNBL02010002
 70
     0
 10
0.0
 20
0.0
 30
0.0
  3
AIGNBL02010002
  1

  0
LINE
  5
B9
  8
_________1
 62
     7
 10
-38.725999999999999
 20
128.56399999999999
 30
0.0
 11
-35.725999999999999
 21
125.063
 31
0.0
  0
LINE
  5
BA
  8
_________1
 62
     7
 10
-24.7258
 20
128.56399999999999
 30
0.0
 11
-27.7258
 21
125.063
 31
0.0
  0
LINE
  5
BB
  8
_________1
 62
     7
 10
-29.976099999999999
 20
128.56399999999999
 30
0.0
 11
-29.976099999999999
 21
125.063
 31
0.0
  0
LINE
  5
BC
  8
_________1
 62
     7
 10
-33.475999999999999
 20
125.063
 30
0.0
 11
-33.475999999999999
 21
128.56399999999999
 31
0.0
  0
LINE
  5
BD
  8
_________1
 62
     7
 10
-30.475999999999999
 20
128.56399999999999
 30
0.0
 11
-30.475999999999999
 21
125.063
 31
0.0
  0
LINE
  5
BE
  8
_________1
 62
     7
 10
-32.97610000000001
 20
125.063
 30
0.0
 11
-32.97610000000001
 21
128.56399999999999
 31
0.0
  0
LINE
  5
BF
  8
_________1
 62
     7
 10
-30.809200000000001
 20
128.56399999999999
 30
0.0
 11
-30.809200000000001
 21
125.063
 31
0.0
  0
LINE
  5
C0
  8
_________1
 62
     7
 10
-32.642699999999998
 20
125.063
 30
0.0
 11
-32.642699999999998
 21
128.56399999999999
 31
0.0
  0
LINE
  5
C1
  8
_________1
 62
     7
 10
-28.8093
 20
128.56399999999999
 30
0.0
 11
-28.8093
 21
125.063
 31
0.0
  0
LINE
  5
C2
  8
_________1
 62
     7
 10
-34.642899999999997
 20
125.063
 30
0.0
 11
-34.642899999999997
 21
128.56399999999999
 31
0.0
  0
LINE
  5
C3
  8
_________1
 62
     7
 10
-27.226199999999999
 20
125.64700000000001
 30
0.0
 11
-27.226199999999999
 21
125.063
 31
0.0
  0
LINE
  5
C4
  8
_________1
 62
     7
 10
-27.226199999999999
 20
125.063
 30
0.0
 11
-36.22590000000001
 21
125.063
 31
0.0
  0
LINE
  5
C5
  8
_________1
 62
     7
 10
-36.22590000000001
 20
125.063
 30
0.0
 11
-36.22590000000001
 21
125.64700000000001
 31
0.0
  0
ENDBLK
  5
C6
  8
_________1
  0
BLOCK
  8
_________1
  2
AIGNBL02010003
 70
     0
 10
0.0
 20
0.0
 30
0.0
  3
AIGNBL02010003
  1

  0
LINE
  5
C9
  8
_________1
 62
     7
 10
70.538899999999984
 20
128.56399999999999
 30
0.0
 11
60.871899999999989
 21
128.56399999999999
 31
0.0
  0
LINE
  5
CA
  8
_________1
 62
     7
 10
60.871899999999989
 20
128.56399999999999
 30
0.0
 11
60.871899999999989
 21
129.22999999999999
 31
0.0
  0
LINE
  5
CB
  8
_________1
 62
     7
 10
60.871899999999989
 20
129.22999999999999
 30
0.0
 11
70.538899999999984
 21
129.22999999999999
 31
0.0
  0
LINE
  5
CC
  8
_________1
 62
     7
 10
70.538899999999984
 20
129.22999999999999
 30
0.0
 11
70.538899999999984
 21
128.56399999999999
 31
0.0
  0
INSERT
  5
CD
  8
_________1
 62
     7
  2
AIGNBL02020004
 10
0.0
 20
0.0
 30
0.0
  0
ENDBLK
  5
CE
  8
_________1
  0
BLOCK
  8
_________1
  2
AIGNBL02010005
 70
     0
 10
0.0
 20
0.0
 30
0.0
  3
AIGNBL02010005
  1

  0
LINE
  5
D1
  8
_________1
 62
     7
 10
-24.226199999999999
 20
128.56399999999999
 30
0.0
 11
-39.226300000000002
 21
128.56399999999999
 31
0.0
  0
LINE
  5
D2
  8
_________1
 62
     7
 10
-39.226300000000002
 20
128.56399999999999
 30
0.0
 11
-39.226300000000002
 21
129.22999999999999
 31
0.0
  0
LINE
  5
D3
  8
_________1
 62
     7
 10
-39.226300000000002
 20
129.22999999999999
 30
0.0
 11
-24.226199999999999
 21
129.22999999999999
 31
0.0
  0
LINE
  5
D4
  8
_________1
 62
     7
 10
-24.226199999999999
 20
129.22999999999999
 30
0.0
 11
-24.226199999999999
 21
128.56399999999999
 31
0.0
  0
ENDBLK
  5
D5
  8
_________1
  0
BLOCK
  8
_________1
  2
AIGNBL02010006
 70
     0
 10
0.0
 20
0.0
 30
0.0
  3
AIGNBL02010006
  1

  0
LINE
  5
D8
  8
_________1
 62
     7
 10
66.621799999999993
 20
72.176199999999994
 30
0.0
 11
66.621799999999993
 21
42.562399999999997
 31
0.0
  0
LINE
  5
D9
  8
_________1
 62
     7
 10
64.788399999999996
 20
72.474199999999996
 30
0.0
 11
64.788399999999996
 21
42.562399999999997
 31
0.0
  0
LINE
  5
DA
  8
_________1
 62
     7
 10
66.621799999999993
 20
84.273399999999995
 30
0.0
 11
66.621799999999993
 21
73.066500000000005
 31
0.0
  0
LINE
  5
DB
  8
_________1
 62
     7
 10
64.788399999999996
 20
84.273399999999995
 30
0.0
 11
64.788399999999996
 21
73.364500000000007
 31
0.0
  0
ARC
  5
DC
  8
_________1
 62
     7
 10
64.85069
 20
84.272763999999995
 30
0.0
 40
0.062335
 50
131.56068999999999
 51
179.39278300000001
  0
ARC
  5
DD
  8
_________1
 62
     7
 10
64.936858000000001
 20
84.197014999999993
 30
0.0
 40
0.176753
 50
121.70367400000001
 51
136.176255
  0
ARC
  5
DE
  8
_________1
 62
     7
 10
65.053010999999998
 20
84.012675000000016
 30
0.0
 40
0.394632
 50
112.133133
 51
121.98596999999999
  0
ARC
  5
DF
  8
_________1
 62
     7
 10
65.225139999999996
 20
83.595706000000007
 30
0.0
 40
0.845729
 50
105.107828
 51
112.29215000000001
  0
ARC
  5
E0
  8
_________1
 62
     7
 10
65.424389000000005
 20
82.870334999999983
 30
0.0
 40
1.5979639999999991
 50
99.968687000000003
 51
105.22629499999999
  0
ARC
  5
E1
  8
_________1
 62
     7
 10
65.661976999999993
 20
81.498014999999995
 30
0.0
 40
2.9906959999999989
 50
89.173723999999993
 51
99.900456000000005
  0
ARC
  5
E2
  8
_________1
 62
     7
 10
65.706109999999995
 20
80.994821000000016
 30
0.0
 40
3.4935800000000001
 50
80.549143999999984
 51
90.016480999999985
  0
ARC
  5
E3
  8
_________1
 62
     7
 10
66.066625000000002
 20
83.246121000000016
 30
0.0
 40
1.2137209999999989
 50
67.985344999999995
 51
79.886133999999998
  0
ARC
  5
E4
  8
_________1
 62
     7
 10
66.392506999999995
 20
84.078384000000014
 30
0.0
 40
0.320136
 50
54.006740999999998
 51
66.222718
  0
ARC
  5
E5
  8
_________1
 62
     7
 10
66.505698999999993
 20
84.233178000000009
 30
0.0
 40
0.128375
 50
34.663364999999999
 51
54.279501000000003
  0
ARC
  5
E6
  8
_________1
 62
     7
 10
66.561049999999994
 20
84.271912999999998
 30
0.0
 40
0.060819
 50
1.424656999999999
 51
34.306328000000001
  0
INSERT
  5
E7
  8
_________1
 62
     7
  2
AIGNBL02020007
 10
0.0
 20
0.0
 30
0.0
  0
INSERT
  5
E8
  8
_________1
 62
     7
  2
AIGNBL02020008
 10
0.0
 20
0.0
 30
0.0
  0
ENDBLK
  5
E9
  8
_________1
  0
BLOCK
  8
_________1
  2
AIGNBL02010009
 70
     0
 10
0.0
 20
0.0
 30
0.0
  3
AIGNBL02010009
  1

  0
LINE
  5
EC
  8
_________1
 62
     7
 10
-19.363099999999999
 20
62.599499999999992
 30
0.0
 11
-24.540400000000002
 21
84.058800000000005
 31
0.0
  0
LINE
  5
ED
  8
_________1
 62
     7
 10
-22.758299999999998
 20
84.488699999999994
 30
0.0
 11
-17.5806
 21
63.028100000000002
 31
0.0
  0
LINE
  5
EE
  8
_________1
 62
     7
 10
-22.677299999999999
 20
84.507999999999996
 30
0.0
 11
-24.621400000000001
 21
84.039199999999994
 31
0.0
  0
LINE
  5
EF
  8
_________1
 62
     7
 10
-24.621400000000001
 20
84.039199999999994
 30
0.0
 11
-25.207799999999999
 21
86.469700000000003
 31
0.0
  0
LINE
  5
F0
  8
_________1
 62
     7
 10
-25.207799999999999
 20
86.469700000000003
 30
0.0
 11
-23.263300000000001
 21
86.938599999999994
 31
0.0
  0
LINE
  5
F1
  8
_________1
 62
     7
 10
-23.263300000000001
 20
86.938599999999994
 30
0.0
 11
-22.677299999999999
 21
84.507999999999996
 31
0.0
  0
LINE
  5
F2
  8
_________1
 62
     7
 10
-23.020399999999999
 20
86.997100000000003
 30
0.0
 11
-25.450600000000001
 21
86.411100000000005
 31
0.0
  0
LINE
  5
F3
  8
_________1
 62
     7
 10
-25.450600000000001
 20
86.411100000000005
 30
0.0
 11
-26.036999999999999
 21
88.841300000000004
 31
0.0
  0
LINE
  5
F4
  8
_________1
 62
     7
 10
-26.036999999999999
 20
88.841300000000004
 30
0.0
 11
-23.6068
 21
89.427700000000016
 31
0.0
  0
LINE
  5
F5
  8
_________1
 62
     7
 10
-23.6068
 20
89.427700000000016
 30
0.0
 11
-23.020399999999999
 21
86.997100000000003
 31
0.0
  0
LINE
  5
F6
  8
_________1
  6
AIGENLINE001
 62
     7
 10
-18.471900000000002
 20
62.813800000000001
 30
0.0
 11
-29.8232
 21
109.86499999999999
 31
0.0
  0
LINE
  5
F7
  8
_________1
 62
     7
 10
-25.631799999999998
 20
88.939099999999996
 30
0.0
 11
-30.668600000000001
 21
109.818
 31
0.0
  0
LINE
  5
F8
  8
_________1
 62
     7
 10
-29.0487
 20
110.208
 30
0.0
 11
-24.012
 21
89.329800000000006
 31
0.0
  0
ENDBLK
  5
F9
  8
_________1
  0
BLOCK
  8
_________1
  2
AIGNBL0201000A
 70
     0
 10
0.0
 20
0.0
 30
0.0
  3
AIGNBL0201000A
  1

  0
LINE
  5
FC
  8
_________1
 62
     7
 10
-4.4116400000000002
 20
156.274
 30
0.0
 11
-3.81908
 21
154.06200000000001
 31
0.0
  0
LINE
  5
FD
  8
_________1
 62
     7
 10
-3.81908
 20
154.06200000000001
 30
0.0
 11
-3.2265199999999998
 21
156.274
 31
0.0
  0
LINE
  5
FE
  8
_________1
 62
     7
 10
-3.2265199999999998
 20
156.274
 30
0.0
 11
-4.4116400000000002
 21
156.274
 31
0.0
  0
LINE
  5
FF
  8
_________1
 62
     7
 10
-3.24099
 20
166.18600000000001
 30
0.0
 11
-3.8335499999999989
 21
168.398
 31
0.0
  0
LINE
  5
100
  8
_________1
 62
     7
 10
-3.8335499999999989
 20
168.398
 30
0.0
 11
-4.4261099999999987
 21
166.18600000000001
 31
0.0
  0
LINE
  5
101
  8
_________1
 62
     7
 10
-4.4261099999999987
 20
166.18600000000001
 30
0.0
 11
-3.24099
 21
166.18600000000001
 31
0.0
  0
LINE
  5
102
  8
_________1
 62
     7
 10
-3.8263199999999991
 20
154.06299999999999
 30
0.0
 11
-3.8263199999999991
 21
168.39699999999999
 31
0.0
  0
ENDBLK
  5
103
  8
_________1
  0
BLOCK
  8
_________1
  2
AIGNBL0201000B
 70
     0
 10
0.0
 20
0.0
 30
0.0
  3
AIGNBL0201000B
  1

  0
LINE
  5
106
  8
_________1
 62
     7
 10
3.4969699999999988
 20
166.18600000000001
 30
0.0
 11
2.9044099999999999
 21
168.398
 31
0.0
  0
LINE
  5
107
  8
_________1
 62
     7
 10
2.9044099999999999
 20
168.398
 30
0.0
 11
2.3118500000000002
 21
166.18600000000001
 31
0.0
  0
LINE
  5
108
  8
_________1
 62
     7
 10
2.3118500000000002
 20
166.18600000000001
 30
0.0
 11
3.4969699999999988
 21
166.18600000000001
 31
0.0
  0
LINE
  5
109
  8
_________1
 62
     7
 10
2.3263199999999991
 20
136.44
 30
0.0
 11
2.9188800000000001
 21
134.22900000000001
 31
0.0
  0
LINE
  5
10A
  8
_________1
 62
     7
 10
2.9188800000000001
 20
134.22900000000001
 30
0.0
 11
3.5114399999999999
 21
136.44
 31
0.0
  0
LINE
  5
10B
  8
_________1
 62
     7
 10
3.5114399999999999
 20
136.44
 30
0.0
 11
2.3263199999999991
 21
136.44
 31
0.0
  0
LINE
  5
10C
  8
_________1
 62
     7
 10
-20.0594
 20
179.631
 30
0.0
 11
-20.0594
 21
169.035
 31
0.0
  0
INSERT
  5
10D
  8
_________1
 62
     7
  2
AIGNBL0202000C
 10
0.0
 20
0.0
 30
0.0
  0
LINE
  5
10E
  8
_________1
 62
     7
 10
-14.2971
 20
164.304
 30
0.0
 11
-14.2971
 21
140.56100000000001
 31
0.0
  0
LINE
  5
10F
  8
_________1
 62
     7
 10
2.9116399999999998
 20
168.39699999999999
 30
0.0
 11
2.9116399999999998
 21
134.22999999999999
 31
0.0
  0
ENDBLK
  5
110
  8
_________1
  0
BLOCK
  8
_________1
  2
AIGNBL0201000D
 70
     0
 10
0.0
 20
0.0
 30
0.0
  3
AIGNBL0201000D
  1

  0
LINE
  5
113
  8
_________1
 62
     7
 10
63.332099999999997
 20
140.52199999999999
 30
0.0
 11
61.12169999999999
 21
139.93000000000001
 31
0.0
  0
LINE
  5
114
  8
_________1
 62
     7
 10
61.12169999999999
 20
139.93000000000001
 30
0.0
 11
63.332099999999997
 21
139.33799999999999
 31
0.0
  0
LINE
  5
115
  8
_________1
 62
     7
 10
63.332099999999997
 20
139.33799999999999
 30
0.0
 11
63.332099999999997
 21
140.52199999999999
 31
0.0
  0
LINE
  5
116
  8
_________1
 62
     7
 10
68.078100000000006
 20
139.352
 30
0.0
 11
70.288499999999999
 21
139.94499999999999
 31
0.0
  0
LINE
  5
117
  8
_________1
 62
     7
 10
70.288499999999999
 20
139.94499999999999
 30
0.0
 11
68.078100000000006
 21
140.53700000000001
 31
0.0
  0
LINE
  5
118
  8
_________1
 62
     7
 10
68.078100000000006
 20
140.53700000000001
 30
0.0
 11
68.078100000000006
 21
139.352
 31
0.0
  0
LINE
  5
119
  8
_________1
 62
     7
 10
61.12169999999999
 20
139.93700000000001
 30
0.0
 11
76.837699999999984
 21
139.93700000000001
 31
0.0
  0
ENDBLK
  5
11A
  8
_________1
  0
BLOCK
  8
_________1
  2
AIGNBL0201000E
 70
     0
 10
0.0
 20
0.0
 30
0.0
  3
AIGNBL0201000E
  1

  0
LINE
  5
11D
  8
_________1
 62
     7
 10
23.287400000000002
 20
169.51900000000001
 30
0.0
 11
22.694900000000001
 21
171.73099999999999
 31
0.0
  0
LINE
  5
11E
  8
_________1
 62
     7
 10
22.694900000000001
 20
171.73099999999999
 30
0.0
 11
22.1023
 21
169.51900000000001
 31
0.0
  0
LINE
  5
11F
  8
_________1
 62
     7
 10
22.1023
 20
169.51900000000001
 30
0.0
 11
23.287400000000002
 21
169.51900000000001
 31
0.0
  0
LINE
  5
120
  8
_________1
 62
     7
 10
22.702100000000002
 20
134.22900000000001
 30
0.0
 11
22.702100000000002
 21
171.72999999999999
 31
0.0
  0
ENDBLK
  5
121
  8
_________1
  0
BLOCK
  8
_________1
  2
AIGNBL0201000F
 70
     0
 10
0.0
 20
0.0
 30
0.0
  3
AIGNBL0201000F
  1

  0
LINE
  5
124
  8
_________1
 62
     7
 10
60.744100000000003
 20
129.53200000000001
 30
0.0
 11
62.9559
 21
130.124
 31
0.0
  0
LINE
  5
125
  8
_________1
 62
     7
 10
62.9559
 20
130.124
 30
0.0
 11
60.744100000000003
 21
130.71799999999999
 31
0.0
  0
LINE
  5
126
  8
_________1
 62
     7
 10
60.744100000000003
 20
130.71799999999999
 30
0.0
 11
60.744100000000003
 21
129.53200000000001
 31
0.0
  0
LINE
  5
127
  8
_________1
 62
     7
 10
70.667100000000005
 20
130.71799999999999
 30
0.0
 11
68.455299999999994
 21
130.124
 31
0.0
  0
LINE
  5
128
  8
_________1
 62
     7
 10
68.455299999999994
 20
130.124
 30
0.0
 11
70.667100000000005
 21
129.53200000000001
 31
0.0
  0
LINE
  5
129
  8
_________1
 62
     7
 10
70.667100000000005
 20
129.53200000000001
 30
0.0
 11
70.667100000000005
 21
130.71799999999999
 31
0.0
  0
LINE
  5
12A
  8
_________1
 62
     7
 10
76.118700000000004
 20
130.124
 30
0.0
 11
59.595500000000001
 21
130.124
 31
0.0
  0
ENDBLK
  5
12B
  8
_________1
  0
BLOCK
  8
_________1
  2
AIGNBL02010010
 70
     0
 10
0.0
 20
0.0
 30
0.0
  3
AIGNBL02010010
  1

  0
LINE
  5
12E
  8
_________1
 62
     7
 10
67.161000000000001
 20
144.071
 30
0.0
 11
69.372799999999998
 21
144.66300000000001
 31
0.0
  0
LINE
  5
12F
  8
_________1
 62
     7
 10
69.372799999999998
 20
144.66300000000001
 30
0.0
 11
67.161000000000001
 21
145.256
 31
0.0
  0
LINE
  5
130
  8
_________1
 62
     7
 10
67.161000000000001
 20
145.256
 30
0.0
 11
67.161000000000001
 21
144.071
 31
0.0
  0
LINE
  5
131
  8
_________1
 62
     7
 10
64.249200000000002
 20
145.24100000000001
 30
0.0
 11
62.037399999999991
 21
144.649
 31
0.0
  0
LINE
  5
132
  8
_________1
 62
     7
 10
62.037399999999991
 20
144.649
 30
0.0
 11
64.249200000000002
 21
144.05600000000001
 31
0.0
  0
LINE
  5
133
  8
_________1
 62
     7
 10
64.249200000000002
 20
144.05600000000001
 30
0.0
 11
64.249200000000002
 21
145.24100000000001
 31
0.0
  0
LINE
  5
134
  8
_________1
 62
     7
 10
69.371700000000004
 20
144.65600000000001
 30
0.0
 11
55.031799999999997
 21
144.65600000000001
 31
0.0
  0
ENDBLK
  5
135
  8
_________1
  0
BLOCK
  8
_________1
  2
AIGNBL02010011
 70
     0
 10
0.0
 20
0.0
 30
0.0
  3
AIGNBL02010011
  1

  0
LINE
  5
138
  8
_________1
 62
     7
 10
75.161299999999997
 20
147.499
 30
0.0
 11
77.373000000000005
 21
148.09200000000001
 31
0.0
  0
LINE
  5
139
  8
_________1
 62
     7
 10
77.373000000000005
 20
148.09200000000001
 30
0.0
 11
75.161299999999997
 21
148.684
 31
0.0
  0
LINE
  5
13A
  8
_________1
 62
     7
 10
75.161299999999997
 20
148.684
 30
0.0
 11
75.161299999999997
 21
147.499
 31
0.0
  0
LINE
  5
13B
  8
_________1
 62
     7
 10
67.915499999999994
 20
148.66999999999999
 30
0.0
 11
65.703699999999998
 21
148.077
 31
0.0
  0
LINE
  5
13C
  8
_________1
 62
     7
 10
65.703699999999998
 20
148.077
 30
0.0
 11
67.915499999999994
 21
147.48400000000001
 31
0.0
  0
LINE
  5
13D
  8
_________1
 62
     7
 10
67.915499999999994
 20
147.48400000000001
 30
0.0
 11
67.915499999999994
 21
148.66999999999999
 31
0.0
  0
LINE
  5
13E
  8
_________1
 62
     7
 10
77.372
 20
148.084
 30
0.0
 11
65.705100000000002
 21
148.084
 31
0.0
  0
ENDBLK
  5
13F
  8
_________1
  0
BLOCK
  8
_________1
  2
AIGNBL02010012
 70
     0
 10
0.0
 20
0.0
 30
0.0
  3
AIGNBL02010012
  1

  0
LINE
  5
142
  8
_________1
 62
     7
 10
-16.5078
 20
140.67599999999999
 30
0.0
 11
-14.295999999999999
 21
141.268
 31
0.0
  0
LINE
  5
143
  8
_________1
 62
     7
 10
-14.295999999999999
 20
141.268
 30
0.0
 11
-16.5078
 21
141.86099999999999
 31
0.0
  0
LINE
  5
144
  8
_________1
 62
     7
 10
-16.5078
 20
141.86099999999999
 30
0.0
 11
-16.5078
 21
140.67599999999999
 31
0.0
  0
LINE
  5
145
  8
_________1
 62
     7
 10
-29.515499999999999
 20
141.846
 30
0.0
 11
-31.7273
 21
141.25399999999999
 31
0.0
  0
LINE
  5
146
  8
_________1
 62
     7
 10
-31.7273
 20
141.25399999999999
 30
0.0
 11
-29.515499999999999
 21
140.661
 31
0.0
  0
LINE
  5
147
  8
_________1
 62
     7
 10
-29.515499999999999
 20
140.661
 30
0.0
 11
-29.515499999999999
 21
141.846
 31
0.0
  0
LINE
  5
148
  8
_________1
 62
     7
 10
-14.2971
 20
141.261
 30
0.0
 11
-31.726299999999998
 21
141.261
 31
0.0
  0
ENDBLK
  5
149
  8
_________1
  0
BLOCK
  8
_________1
  2
AIGNBL02010013
 70
     0
 10
0.0
 20
0.0
 30
0.0
  3
AIGNBL02010013
  1

  0
LINE
  5
14C
  8
_________1
 62
     7
 10
63.493299999999998
 20
170.00299999999999
 30
0.0
 11
65.705100000000002
 21
170.595
 31
0.0
  0
LINE
  5
14D
  8
_________1
 62
     7
 10
65.705100000000002
 20
170.595
 30
0.0
 11
63.493299999999998
 21
171.18799999999999
 31
0.0
  0
LINE
  5
14E
  8
_________1
 62
     7
 10
63.493299999999998
 20
171.18799999999999
 30
0.0
 11
63.493299999999998
 21
170.00299999999999
 31
0.0
  0
LINE
  5
14F
  8
_________1
 62
     7
 10
61.493400000000001
 20
180.55699999999999
 30
0.0
 11
63.705199999999991
 21
181.149
 31
0.0
  0
LINE
  5
150
  8
_________1
 62
     7
 10
63.705199999999991
 20
181.149
 30
0.0
 11
61.493400000000001
 21
181.74199999999999
 31
0.0
  0
LINE
  5
151
  8
_________1
 62
     7
 10
61.493400000000001
 20
181.74199999999999
 30
0.0
 11
61.493400000000001
 21
180.55699999999999
 31
0.0
  0
LINE
  5
152
  8
_________1
 62
     7
 10
67.916899999999998
 20
171.18799999999999
 30
0.0
 11
65.705100000000002
 21
170.595
 31
0.0
  0
LINE
  5
153
  8
_________1
 62
     7
 10
65.705100000000002
 20
170.595
 30
0.0
 11
67.916899999999998
 21
170.00299999999999
 31
0.0
  0
LINE
  5
154
  8
_________1
 62
     7
 10
67.916899999999998
 20
170.00299999999999
 30
0.0
 11
67.916899999999998
 21
171.18799999999999
 31
0.0
  0
LINE
  5
155
  8
_________1
 62
     7
 10
69.916799999999995
 20
181.74199999999999
 30
0.0
 11
67.704999999999998
 21
181.149
 31
0.0
  0
LINE
  5
156
  8
_________1
 62
     7
 10
67.704999999999998
 20
181.149
 30
0.0
 11
69.916799999999995
 21
180.55699999999999
 31
0.0
  0
LINE
  5
157
  8
_________1
 62
     7
 10
69.916799999999995
 20
180.55699999999999
 30
0.0
 11
69.916799999999995
 21
181.74199999999999
 31
0.0
  0
LINE
  5
158
  8
_________1
 62
     7
 10
71.580100000000002
 20
181.149
 30
0.0
 11
54.723799999999997
 21
181.149
 31
0.0
  0
ENDBLK
  5
159
  8
_________1
  0
BLOCK
  8
_________1
  2
AIGNBL02010014
 70
     0
 10
0.0
 20
0.0
 30
0.0
  3
AIGNBL02010014
  1

  0
LINE
  5
15C
  8
_________1
 62
     7
 10
63.494700000000002
 20
225.184
 30
0.0
 11
65.706500000000005
 21
225.77600000000001
 31
0.0
  0
LINE
  5
15D
  8
_________1
 62
     7
 10
65.706500000000005
 20
225.77600000000001
 30
0.0
 11
63.494700000000002
 21
226.369
 31
0.0
  0
LINE
  5
15E
  8
_________1
 62
     7
 10
63.494700000000002
 20
226.369
 30
0.0
 11
63.494700000000002
 21
225.184
 31
0.0
  0
LINE
  5
15F
  8
_________1
 62
     7
 10
32.083199999999998
 20
226.35400000000001
 30
0.0
 11
29.871400000000001
 21
225.762
 31
0.0
  0
LINE
  5
160
  8
_________1
 62
     7
 10
29.871400000000001
 20
225.762
 30
0.0
 11
32.083199999999998
 21
225.16900000000001
 31
0.0
  0
LINE
  5
161
  8
_________1
 62
     7
 10
32.083199999999998
 20
225.16900000000001
 30
0.0
 11
32.083199999999998
 21
226.35400000000001
 31
0.0
  0
LINE
  5
162
  8
_________1
 62
     7
 10
65.705100000000002
 20
225.76900000000001
 30
0.0
 11
29.872800000000002
 21
225.76900000000001
 31
0.0
  0
ENDBLK
  5
163
  8
_________1
  0
BLOCK
  8
_________1
  2
AIGNBL02010015
 70
     0
 10
0.0
 20
0.0
 30
0.0
  3
AIGNBL02010015
  1

  0
LINE
  5
166
  8
_________1
 62
     7
 10
63.494700000000002
 20
217.84100000000001
 30
0.0
 11
65.706500000000005
 21
218.434
 31
0.0
  0
LINE
  5
167
  8
_________1
 62
     7
 10
65.706500000000005
 20
218.434
 30
0.0
 11
63.494700000000002
 21
219.02600000000001
 31
0.0
  0
LINE
  5
168
  8
_________1
 62
     7
 10
63.494700000000002
 20
219.02600000000001
 30
0.0
 11
63.494700000000002
 21
217.84100000000001
 31
0.0
  0
LINE
  5
169
  8
_________1
 62
     7
 10
34.581899999999997
 20
219.012
 30
0.0
 11
32.370100000000001
 21
218.41900000000001
 31
0.0
  0
LINE
  5
16A
  8
_________1
 62
     7
 10
32.370100000000001
 20
218.41900000000001
 30
0.0
 11
34.581899999999997
 21
217.82599999999999
 31
0.0
  0
LINE
  5
16B
  8
_________1
 62
     7
 10
34.581899999999997
 20
217.82599999999999
 30
0.0
 11
34.581899999999997
 21
219.012
 31
0.0
  0
LINE
  5
16C
  8
_________1
 62
     7
 10
65.705100000000002
 20
218.42599999999999
 30
0.0
 11
32.371499999999997
 21
218.42599999999999
 31
0.0
  0
ENDBLK
  5
16D
  8
_________1
  0
BLOCK
  8
_________1
  2
AIGNBL02010016
 70
     0
 10
0.0
 20
0.0
 30
0.0
  3
AIGNBL02010016
  1

  0
LINE
  5
170
  8
_________1
 62
     7
 10
77.870800000000003
 20
164.5979999999999
 30
0.0
 11
79.572699999999998
 21
163.06800000000001
 31
0.0
  0
LINE
  5
171
  8
_________1
 62
     7
 10
79.572699999999998
 20
163.06800000000001
 30
0.0
 11
78.863699999999994
 21
165.24299999999999
 31
0.0
  0
LINE
  5
172
  8
_________1
 62
     7
 10
78.863699999999994
 20
165.24299999999999
 30
0.0
 11
77.870800000000003
 21
164.5979999999999
 31
0.0
  0
LINE
  5
173
  8
_________1
 62
     7
 10
52.547199999999989
 20
165.244
 30
0.0
 11
51.837800000000001
 21
163.06800000000001
 31
0.0
  0
LINE
  5
174
  8
_________1
 62
     7
 10
51.837800000000001
 20
163.06800000000001
 30
0.0
 11
53.540100000000002
 21
164.5979999999999
 31
0.0
  0
LINE
  5
175
  8
_________1
 62
     7
 10
53.540100000000002
 20
164.5979999999999
 30
0.0
 11
52.547199999999989
 21
165.244
 31
0.0
  0
ARC
  5
176
  8
_________1
 62
     7
 10
65.526980000000009
 20
153.729994
 30
0.0
 40
16.866436
 50
33.616306000000002
 51
89.394885000000016
  0
ARC
  5
177
  8
_________1
 62
     7
 10
65.870380999999995
 20
153.75387799999999
 30
0.0
 40
16.842421999999999
 50
90.562250000000006
 51
146.42551499999999
  0
ENDBLK
  5
178
  8
_________1
  0
BLOCK
  8
_________1
  2
AIGNBL02010017
 70
     0
 10
0.0
 20
0.0
 30
0.0
  3
AIGNBL02010017
  1

  0
LINE
  5
17B
  8
_________1
 62
     7
 10
-40.972999999999992
 20
246.15600000000001
 30
0.0
 11
-43.193999999999988
 21
246.71199999999999
 31
0.0
  0
LINE
  5
17C
  8
_________1
 62
     7
 10
-43.193999999999988
 20
246.71199999999999
 30
0.0
 11
-41.5486
 21
245.12
 31
0.0
  0
LINE
  5
17D
  8
_________1
 62
     7
 10
-41.5486
 20
245.12
 30
0.0
 11
-40.972999999999992
 21
246.15600000000001
 31
0.0
  0
LINE
  5
17E
  8
_________1
 62
     7
 10
-22.117799999999999
 20
245.02600000000001
 30
0.0
 11
-20.4573
 21
246.60300000000001
 31
0.0
  0
LINE
  5
17F
  8
_________1
 62
     7
 10
-20.4573
 20
246.60300000000001
 30
0.0
 11
-22.683499999999999
 21
246.06800000000001
 31
0.0
  0
LINE
  5
180
  8
_________1
 62
     7
 10
-22.683499999999999
 20
246.06800000000001
 30
0.0
 11
-22.117799999999999
 21
245.02600000000001
 31
0.0
  0
ARC
  5
181
  8
_________1
 62
     7
 10
-31.732873999999999
 20
267.39869399999998
 30
0.0
 40
23.649241
 50
241.01174399999999
 51
270.01604200000003
  0
ARC
  5
182
  8
_________1
 62
     7
 10
-31.756440999999999
 20
267.54760299999998
 30
0.0
 40
23.798168
 50
270.07267899999999
 51
298.34576600000003
  0
ENDBLK
  5
183
  8
_________1
  0
BLOCK
  8
_________1
  2
AIGNBL02010018
 70
     0
 10
0.0
 20
0.0
 30
0.0
  3
AIGNBL02010018
  1

  0
ARC
  5
186
  8
_________1
  6
AIGENLINE002
 62
     7
 10
54.64818799999999
 20
161.26932500000001
 30
0.0
 40
0.6057360000000001
 50
149.09087
 51
234.91813999999999
  0
ARC
  5
187
  8
_________1
  6
AIGENLINE002
 62
     7
 10
54.624233999999987
 20
161.232033
 30
0.0
 40
0.605962
 50
59.110684999999989
 51
144.89830499999999
  0
LINE
  5
188
  8
_________1
 62
     7
 10
53.563099999999999
 20
161.94800000000001
 30
0.0
 11
51.498800000000003
 21
163.28800000000001
 31
0.0
  0
LINE
  5
189
  8
_________1
  6
AIGENLINE001
 62
     7
 10
65.705100000000002
 20
154.06299999999999
 30
0.0
 11
53.771599999999992
 21
161.81200000000001
 31
0.0
  0
LINE
  5
18A
  8
_________1
  6
AIGENLINE002
 62
     7
 10
62.101199999999992
 20
155.70699999999999
 30
0.0
 11
54.29999999999999
 21
160.774
 31
0.0
  0
LINE
  5
18B
  8
_________1
  6
AIGENLINE002
 62
     7
 10
54.935299999999991
 20
161.75200000000001
 30
0.0
 11
62.736800000000002
 21
156.68600000000001
 31
0.0
  0
ENDBLK
  5
18C
  8
_________1
  0
BLOCK
  8
_________1
  2
AIGNBL02010019
 70
     0
 10
0.0
 20
0.0
 30
0.0
  3
AIGNBL02010019
  1

  0
ARC
  5
18F
  8
_________1
  6
AIGENLINE002
 62
     7
 10
76.762019999999993
 20
161.26932500000001
 30
0.0
 40
0.605737
 50
305.08189700000003
 51
30.909092999999999
  0
ARC
  5
190
  8
_________1
  6
AIGENLINE002
 62
     7
 10
76.785974999999993
 20
161.232033
 30
0.0
 40
0.605962
 50
35.101675
 51
120.889295
  0
LINE
  5
191
  8
_________1
 62
     7
 10
77.847099999999998
 20
161.94800000000001
 30
0.0
 11
79.850399999999993
 21
163.249
 31
0.0
  0
LINE
  5
192
  8
_________1
  6
AIGENLINE001
 62
     7
 10
65.705100000000002
 20
154.06299999999999
 30
0.0
 11
77.638999999999996
 21
161.81200000000001
 31
0.0
  0
LINE
  5
193
  8
_________1
  6
AIGENLINE002
 62
     7
 10
69.308999999999997
 20
155.70699999999999
 30
0.0
 11
77.110200000000006
 21
160.774
 31
0.0
  0
LINE
  5
194
  8
_________1
  6
AIGENLINE002
 62
     7
 10
76.474900000000005
 20
161.75200000000001
 30
0.0
 11
68.6738
 21
156.68600000000001
 31
0.0
  0
ENDBLK
  5
195
  8
_________1
  0
BLOCK
  8
_________1
  2
AIGNBL0201001A
 70
     0
 10
0.0
 20
0.0
 30
0.0
  3
AIGNBL0201001A
  1

  0
LINE
  5
198
  8
_________1
 62
     7
 10
93.384200000000007
 20
159.63300000000001
 30
0.0
 11
92.791600000000003
 21
161.845
 31
0.0
  0
LINE
  5
199
  8
_________1
 62
     7
 10
92.791600000000003
 20
161.845
 30
0.0
 11
92.199100000000001
 21
159.63300000000001
 31
0.0
  0
LINE
  5
19A
  8
_________1
 62
     7
 10
92.199100000000001
 20
159.63300000000001
 30
0.0
 11
93.384200000000007
 21
159.63300000000001
 31
0.0
  0
LINE
  5
19B
  8
_________1
 62
     7
 10
92.2136
 20
136.44
 30
0.0
 11
92.806100000000015
 21
134.22900000000001
 31
0.0
  0
LINE
  5
19C
  8
_________1
 62
     7
 10
92.806100000000015
 20
134.22900000000001
 30
0.0
 11
93.398700000000005
 21
136.44
 31
0.0
  0
LINE
  5
19D
  8
_________1
 62
     7
 10
93.398700000000005
 20
136.44
 30
0.0
 11
92.2136
 21
136.44
 31
0.0
  0
LINE
  5
19E
  8
_________1
 62
     7
 10
92.799199999999999
 20
161.84399999999999
 30
0.0
 11
92.799199999999999
 21
134.22999999999999
 31
0.0
  0
LINE
  5
19F
  8
_________1
 62
     7
 10
99.146500000000003
 20
210.18600000000001
 30
0.0
 11
98.554000000000016
 21
212.398
 31
0.0
  0
LINE
  5
1A0
  8
_________1
 62
     7
 10
98.554000000000016
 20
212.398
 30
0.0
 11
97.961400000000012
 21
210.18600000000001
 31
0.0
  0
LINE
  5
1A1
  8
_________1
 62
     7
 10
97.961400000000012
 20
210.18600000000001
 30
0.0
 11
99.146500000000003
 21
210.18600000000001
 31
0.0
  0
LINE
  5
1A2
  8
_________1
 62
     7
 10
22.1096
 20
136.44
 30
0.0
 11
22.702100000000002
 21
134.22900000000001
 31
0.0
  0
LINE
  5
1A3
  8
_________1
 62
     7
 10
22.702100000000002
 20
134.22900000000001
 30
0.0
 11
23.294699999999999
 21
136.44
 31
0.0
  0
LINE
  5
1A4
  8
_________1
 62
     7
 10
23.294699999999999
 20
136.44
 30
0.0
 11
22.1096
 21
136.44
 31
0.0
  0
LINE
  5
1A5
  8
_________1
 62
     7
 10
97.975899999999996
 20
136.44
 30
0.0
 11
98.568399999999997
 21
134.22900000000001
 31
0.0
  0
LINE
  5
1A6
  8
_________1
 62
     7
 10
98.568399999999997
 20
134.22900000000001
 30
0.0
 11
99.161000000000001
 21
136.44
 31
0.0
  0
LINE
  5
1A7
  8
_________1
 62
     7
 10
99.161000000000001
 20
136.44
 30
0.0
 11
97.975899999999996
 21
136.44
 31
0.0
  0
LINE
  5
1A8
  8
_________1
 62
     7
 10
98.5608
 20
212.39699999999999
 30
0.0
 11
98.5608
 21
134.22999999999999
 31
0.0
  0
ENDBLK
  5
1A9
  8
_________1
  0
BLOCK
  8
_________1
  2
AIGNBL0201001B
 70
     0
 10
0.0
 20
0.0
 30
0.0
  3
AIGNBL0201001B
  1

  0
LINE
  5
1AC
  8
_________1
 62
     7
 10
26.5197
 20
175.69099999999989
 30
0.0
 11
27.112200000000001
 21
173.47900000000001
 31
0.0
  0
LINE
  5
1AD
  8
_________1
 62
     7
 10
27.112200000000001
 20
173.47900000000001
 30
0.0
 11
27.704799999999999
 21
175.69099999999989
 31
0.0
  0
LINE
  5
1AE
  8
_________1
 62
     7
 10
27.704799999999999
 20
175.69099999999989
 30
0.0
 11
26.5197
 21
175.69099999999989
 31
0.0
  0
LINE
  5
1AF
  8
_________1
 62
     7
 10
27.105
 20
196.33099999999999
 30
0.0
 11
27.105
 21
173.47999999999999
 31
0.0
  0
ENDBLK
  5
1B0
  8
_________1
  0
BLOCK
  8
_________1
  2
AIGNBL0201001C
 70
     0
 10
0.0
 20
0.0
 30
0.0
  3
AIGNBL0201001C
  1

  0
LINE
  5
1B3
  8
_________1
 62
     7
 10
-16.2074
 20
170.554
 30
0.0
 11
-13.9526
 21
170.155
 31
0.0
  0
LINE
  5
1B4
  8
_________1
 62
     7
 10
-13.9526
 20
170.155
 30
0.0
 11
-15.7058
 21
171.62799999999999
 31
0.0
  0
LINE
  5
1B5
  8
_________1
 62
     7
 10
-15.7058
 20
171.62799999999999
 30
0.0
 11
-16.2074
 21
170.554
 31
0.0
  0
LINE
  5
1B6
  8
_________1
 62
     7
 10
-19.3476
 20
172.429
 30
0.0
 11
-21.5594
 21
171.83699999999999
 31
0.0
  0
LINE
  5
1B7
  8
_________1
 62
     7
 10
-21.5594
 20
171.83699999999999
 30
0.0
 11
-19.3476
 21
171.244
 31
0.0
  0
LINE
  5
1B8
  8
_________1
 62
     7
 10
-19.3476
 20
171.244
 30
0.0
 11
-19.3476
 21
172.429
 31
0.0
  0
ARC
  5
1B9
  8
_________1
 62
     7
 10
-21.545742000000001
 20
153.857133
 30
0.0
 40
17.979465000000001
 50
65.018489999999986
 51
90.043423999999973
  0
ENDBLK
  5
1BA
  8
_________1
  0
BLOCK
  8
_________1
  2
AIGNBL0201001D
 70
     0
 10
0.0
 20
0.0
 30
0.0
  3
AIGNBL0201001D
  1

  0
INSERT
  5
1BD
  8
_________1
 62
     7
  2
AIGNBL0202001E
 10
0.0
 20
0.0
 30
0.0
  0
ENDBLK
  5
1BE
  8
_________1
  0
BLOCK
  8
_________1
  2
AIGNBL02010020
 70
     0
 10
0.0
 20
0.0
 30
0.0
  3
AIGNBL02010020
  1

  0
LINE
  5
1C1
  8
_________1
 62
     7
 10
3.4973099999999988
 20
132.01900000000001
 30
0.0
 11
2.9047499999999991
 21
134.23099999999999
 31
0.0
  0
LINE
  5
1C2
  8
_________1
 62
     7
 10
2.9047499999999991
 20
134.23099999999999
 30
0.0
 11
2.3121900000000002
 21
132.01900000000001
 31
0.0
  0
LINE
  5
1C3
  8
_________1
 62
     7
 10
2.3121900000000002
 20
132.01900000000001
 30
0.0
 11
3.4973099999999988
 21
132.01900000000001
 31
0.0
  0
LINE
  5
1C4
  8
_________1
 62
     7
 10
2.3266599999999991
 20
44.77409999999999
 30
0.0
 11
2.9192200000000001
 21
42.562399999999997
 31
0.0
  0
LINE
  5
1C5
  8
_________1
 62
     7
 10
2.9192200000000001
 20
42.562399999999997
 30
0.0
 11
3.5117799999999999
 21
44.77409999999999
 31
0.0
  0
LINE
  5
1C6
  8
_________1
 62
     7
 10
3.5117799999999999
 20
44.77409999999999
 30
0.0
 11
2.3266599999999991
 21
44.77409999999999
 31
0.0
  0
LINE
  5
1C7
  8
_________1
 62
     7
 10
2.912329999999999
 20
134.22999999999999
 30
0.0
 11
2.912329999999999
 21
42.56369999999999
 31
0.0
  0
ENDBLK
  5
1C8
  8
_________1
  0
BLOCK
  8
_________1
  2
AIGNBL02010021
 70
     0
 10
0.0
 20
0.0
 30
0.0
  3
AIGNBL02010021
  1

  0
INSERT
  5
1CB
  8
_________1
 62
     7
  2
AIGNBL02020022
 10
0.0
 20
0.0
 30
0.0
  0
ENDBLK
  5
1CC
  8
_________1
  0
BLOCK
  8
_________1
  2
AIGNBL02010023
 70
     0
 10
0.0
 20
0.0
 30
0.0
  3
AIGNBL02010023
  1

  0
INSERT
  5
1CF
  8
_________1
 62
     7
  2
AIGNBL02020024
 10
0.0
 20
0.0
 30
0.0
  0
ENDBLK
  5
1D0
  8
_________1
  0
BLOCK
  8
_________1
  2
AIGNBL02010026
 70
     0
 10
0.0
 20
0.0
 30
0.0
  3
AIGNBL02010026
  1

  0
INSERT
  5
1D3
  8
_________1
 62
     7
  2
AIGNBL02020027
 10
0.0
 20
0.0
 30
0.0
  0
ENDBLK
  5
1D4
  8
_________1
  0
BLOCK
  8
_________1
  2
AIGNBL02010028
 70
     0
 10
0.0
 20
0.0
 30
0.0
  3
AIGNBL02010028
  1

  0
LINE
  5
1D7
  8
_________1
 62
     7
 10
71.006799999999998
 20
272.69200000000001
 30
0.0
 11
59.639299999999999
 21
261.32499999999999
 31
0.0
  0
ENDBLK
  5
1D8
  8
_________1
  0
BLOCK
  8
_________2
  2
AIGNBL03010002
 70
     0
 10
0.0
 20
0.0
 30
0.0
  3
AIGNBL03010002
  1

  0
LINE
  5
1DB
  8
_________2
 62
     7
 10
186.649
 20
51.052199999999999
 30
0.0
 11
184.46299999999999
 21
51.052199999999999
 31
0.0
  0
LINE
  5
1DC
  8
_________2
 62
     7
 10
187.142
 20
51.052199999999999
 30
0.0
 11
186.88900000000001
 21
51.052199999999999
 31
0.0
  0
LINE
  5
1DD
  8
_________2
 62
     7
 10
187.63399999999999
 20
51.052199999999999
 30
0.0
 11
190.559
 21
51.052199999999999
 31
0.0
  0
LINE
  5
1DE
  8
_________2
 62
     7
 10
187.142
 20
51.052199999999999
 30
0.0
 11
187.39400000000001
 21
51.052199999999999
 31
0.0
  0
LINE
  5
1DF
  8
_________2
 62
     7
 10
180.745
 20
51.052199999999999
 30
0.0
 11
178.55799999999999
 21
51.052199999999999
 31
0.0
  0
LINE
  5
1E0
  8
_________2
 62
     7
 10
181.23699999999999
 20
51.052199999999999
 30
0.0
 11
180.98599999999999
 21
51.052199999999999
 31
0.0
  0
LINE
  5
1E1
  8
_________2
 62
     7
 10
181.23699999999999
 20
51.544800000000002
 30
0.0
 11
181.23699999999999
 21
53.7318
 31
0.0
  0
LINE
  5
1E2
  8
_________2
 62
     7
 10
181.23699999999999
 20
51.052199999999999
 30
0.0
 11
181.23699999999999
 21
51.304299999999998
 31
0.0
  0
LINE
  5
1E3
  8
_________2
 62
     7
 10
181.72999999999999
 20
51.052199999999999
 30
0.0
 11
183.917
 21
51.052199999999999
 31
0.0
  0
LINE
  5
1E4
  8
_________2
 62
     7
 10
181.23699999999999
 20
51.052199999999999
 30
0.0
 11
181.489
 21
51.052199999999999
 31
0.0
  0
LINE
  5
1E5
  8
_________2
 62
     7
 10
181.23699999999999
 20
50.560200000000002
 30
0.0
 11
181.23699999999999
 21
48.373199999999997
 31
0.0
  0
LINE
  5
1E6
  8
_________2
 62
     7
 10
181.23699999999999
 20
51.052199999999999
 30
0.0
 11
181.23699999999999
 21
50.800699999999999
 31
0.0
  0
LINE
  5
1E7
  8
_________2
 62
     7
 10
184.94799999999989
 20
49.832599999999999
 30
0.0
 11
190.12599999999989
 21
48.9679
 31
0.0
  0
LINE
  5
1E8
  8
_________2
 62
     7
 10
184.94799999999989
 20
52.271700000000003
 30
0.0
 11
190.12599999999989
 21
53.137099999999997
 31
0.0
  0
LINE
  5
1E9
  8
_________2
 62
     7
 10
190.12599999999989
 20
48.9679
 30
0.0
 11
190.12599999999989
 21
53.137099999999997
 31
0.0
  0
LINE
  5
1EA
  8
_________2
 62
     7
 10
184.94799999999989
 20
49.832599999999999
 30
0.0
 11
184.94799999999989
 21
52.271700000000003
 31
0.0
  0
ARC
  5
1EB
  8
_________2
 62
     7
 10
181.190651
 20
51.004810999999989
 30
0.0
 40
1.2677780000000001
 50
2.1403449999999991
 51
87.892005999999995
  0
ARC
  5
1EC
  8
_________2
 62
     7
 10
181.28420199999999
 20
51.005241999999988
 30
0.0
 40
1.2673579999999991
 50
92.121564999999975
 51
177.87840600000001
  0
ARC
  5
1ED
  8
_________2
 62
     7
 10
181.28381400000001
 20
51.098689
 30
0.0
 40
1.2669559999999991
 50
182.10473099999999
 51
267.89529900000002
  0
ARC
  5
1EE
  8
_________2
 62
     7
 10
181.19038399999999
 20
51.099775000000001
 30
0.0
 40
1.268054
 50
272.11960599999998
 51
357.84804300000002
  0
ARC
  5
1EF
  8
_________2
 62
     7
 10
181.23728399999999
 20
51.05215900000001
 30
0.0
 40
2.0849849999999992
 50
0.00001
 51
89.999980000000008
  0
ARC
  5
1F0
  8
_________2
 62
     7
 10
181.317331
 20
50.972827000000002
 30
0.0
 40
2.1657969999999991
 50
92.118111999999996
 51
177.90079600000001
  0
ARC
  5
1F1
  8
_________2
 62
     7
 10
181.31728799999999
 20
51.132162999999998
 30
0.0
 40
2.1657779999999991
 50
182.11700400000001
 51
267.88302499999998
  0
ARC
  5
1F2
  8
_________2
 62
     7
 10
181.15730300000001
 20
51.132855999999997
 30
0.0
 40
2.166469999999999
 50
272.115725
 51
357.86534699999999
  0
ENDBLK
  5
1F3
  8
_________2
  0
ENDSEC
  0
SECTION
  2
ENTITIES
  0
TEXT
  5
1F4
  8
____
 62
     7
 10
81.671800000000005
 20
226.07026999999999
 30
0.0
 40
3.0923400000000001
  1
W.L
 50
90.0
 41
0.5
 72
     2
 11
81.671800000000005
 21
229.678
 31
0.0
  0
TEXT
  5
1F5
  8
____
 62
     7
 10
97.61169757142855
 20
218.16499999999999
 30
0.0
 40
3.0923400000000001
  1
100mm以上スペースを設けてください。
 41
0.5
 72
     2
 11
130.76599999999999
 21
218.16499999999999
 31
0.0
  0
TEXT
  5
1F6
  8
____
 62
     7
 10
56.153452000000001
 20
44.155000000000001
 30
0.0
 40
3.0923400000000001
  1
湯側
 41
0.5
 72
     1
 11
57.802700000000002
 21
44.155000000000001
 31
0.0
  0
TEXT
  5
1F7
  8
____
 62
     7
 10
71.958951999999996
 20
44.155000000000001
 30
0.0
 40
3.0923400000000001
  1
水側
 41
0.5
 72
     1
 11
73.608199999999997
 21
44.155000000000001
 31
0.0
  0
TEXT
  5
1F8
  8
____
 62
     7
 10
43.119599999999998
 20
114.001
 30
0.0
 40
3.0923400000000001
  1
（t＝25）
 41
0.5
  0
TEXT
  5
1F9
  8
____
 62
     7
 10
43.119599999999998
 20
118.636
 30
0.0
 40
3.0923400000000001
  1
スペーサー
 41
0.5
  0
TEXT
  5
1FA
  8
____
 62
     7
 10
-44.015300000000003
 20
37.401200000000003
 30
0.0
 40
3.0923400000000001
  1
PF 3/8
 41
0.5
  0
TEXT
  5
1FB
  8
____
 62
     7
 10
92.099199999999996
 20
146.233135
 30
0.0
 40
3.0923400000000001
  1
164
 50
90.0
 41
0.5
 72
     1
 11
92.099199999999996
 21
148.03700000000001
 31
0.0
  0
TEXT
  5
1FC
  8
____
 62
     7
 10
97.860799999999998
 20
171.25144
 30
0.0
 40
3.0923400000000001
  1
469
 50
90.0
 41
0.5
 72
     1
 11
97.860799999999998
 21
173.31299999999999
 31
0.0
  0
TEXT
  5
1FD
  8
____
 62
     7
 10
22.1661
 20
175.673
 30
0.0
 40
3.0923400000000001
  1
ホース引出し長さ
 50
90.0
 41
0.5
  0
TEXT
  5
1FE
  8
____
 62
     7
 10
26.031500000000001
 20
175.673
 30
0.0
 40
3.0923400000000001
  1
max.400
 50
90.0
 41
0.5
  0
TEXT
  5
1FF
  8
____
 62
     7
 10
-4.52637
 20
159.94152500000001
 30
0.0
 40
3.0923400000000001
  1
86
 50
90.0
 41
0.5
 72
     1
 11
-4.52637
 21
161.22999999999999
 31
0.0
  0
TEXT
  5
200
  8
____
 62
     7
 10
2.2115900000000002
 20
149.38028750000001
 30
0.0
 40
3.0923400000000001
  1
205
 50
90.0
 41
0.5
 72
     1
 11
2.2115900000000002
 21
151.31299999999999
 31
0.0
  0
TEXT
  5
201
  8
____
 62
     7
 10
22.002099999999999
 20
150.91844
 30
0.0
 40
3.0923400000000001
  1
225
 50
90.0
 41
0.5
 72
     1
 11
22.002099999999999
 21
152.97999999999999
 31
0.0
  0
TEXT
  5
202
  8
____
 62
     7
 10
2.2122799999999989
 20
86.463487499999985
 30
0.0
 40
3.0923400000000001
  1
550
 50
90.0
 41
0.5
 72
     1
 11
2.2122799999999989
 21
88.396199999999993
 31
0.0
  0
TEXT
  5
203
  8
____
 62
     7
 10
-12.232799999999999
 20
90.054282499999985
 30
0.0
 40
3.0923400000000001
  1
510
 50
90.0
 41
0.5
 72
     1
 11
-12.232799999999999
 21
91.729299999999995
 31
0.0
  0
TEXT
  5
204
  8
____
 62
     7
 10
53.350900000000003
 20
126.534845
 30
0.0
 40
3.0923400000000001
  1
max.40
 50
90.0
 41
0.5
 72
     2
 11
53.350900000000003
 21
134.00800000000001
 31
0.0
  0
TEXT
  5
205
  8
____
 62
     7
 10
72.714579999999984
 20
140.637
 30
0.0
 40
3.0923400000000001
  1
%%c55
 41
0.5
 72
     2
 11
76.837699999999984
 21
140.637
 31
0.0
  0
TEXT
  5
206
  8
____
 62
     7
 10
54.723799999999997
 20
181.84899999999999
 30
0.0
 40
3.0923400000000001
  1
%%c24
 41
0.5
  0
TEXT
  5
207
  8
____
 62
     7
 10
71.995580000000004
 20
130.82400000000001
 30
0.0
 40
3.0923400000000001
  1
%%c33
 41
0.5
 72
     2
 11
76.118700000000004
 21
130.82400000000001
 31
0.0
  0
TEXT
  5
208
  8
____
 62
     7
 10
55.031799999999997
 20
145.35599999999999
 30
0.0
 40
3.0923400000000001
  1
%%c44
 41
0.5
  0
TEXT
  5
209
  8
____
 62
     7
 10
-24.5707925
 20
247.56399999999999
 30
0.0
 40
3.0923400000000001
  1
スパウト回転360%%d
 41
0.5
 72
     1
 11
-16.453399999999998
 21
247.56399999999999
 31
0.0
  0
TEXT
  5
20A
  8
____
 62
     7
 10
45.984535000000001
 20
226.46899999999999
 30
0.0
 40
3.0923400000000001
  1
215
 41
0.5
 72
     1
 11
47.788400000000003
 21
226.46899999999999
 31
0.0
  0
TEXT
  5
20B
  8
____
 62
     7
 10
47.234434999999998
 20
219.12700000000001
 30
0.0
 40
3.0923400000000001
  1
200
 41
0.5
 72
     1
 11
49.0383
 21
219.12700000000001
 31
0.0
  0
TEXT
  5
20C
  8
____
 62
     7
 10
-26.7780275
 20
179.631
 30
0.0
 40
3.0923400000000001
  1
70
 41
0.5
 72
     1
 11
-25.618400000000001
 21
179.631
 31
0.0
  0
TEXT
  5
20D
  8
____
 62
     7
 10
-24.428822499999999
 20
141.96100000000001
 30
0.0
 40
3.0923400000000001
  1
110
 41
0.5
 72
     1
 11
-23.011500000000002
 21
141.96100000000001
 31
0.0
  0
TEXT
  5
20E
  8
____
 62
     7
 10
70.728772500000005
 20
148.785
 30
0.0
 40
3.0923400000000001
  1
70
 41
0.5
 72
     1
 11
71.888400000000004
 21
148.785
 31
0.0
  0
TEXT
  5
20F
  8
____
 62
     7
 10
53.068100000000001
 20
262.02499999999998
 30
0.0
 40
3.0923400000000001
  1
%%c35
 41
0.5
  0
TEXT
  5
210
  8
____
 62
     7
 10
61.272745999999991
 20
254.84899999999999
 30
0.0
 40
3.0923400000000001
  1
水栓取付穴
 41
0.5
 72
     1
 11
65.705100000000002
 21
254.84899999999999
 31
0.0
  0
TEXT
  5
211
  8
____
 62
     7
 10
78.066699999999997
 20
158.00899999999999
 30
0.0
 40
3.0923400000000001
  1
水
 41
0.5
  0
TEXT
  5
212
  8
____
 62
     7
 10
73.372534999999999
 20
169.46600000000001
 30
0.0
 40
3.0923400000000001
  1
57%%d
 41
0.5
 72
     1
 11
75.176400000000001
 21
169.46600000000001
 31
0.0
  0
TEXT
  5
213
  8
____
 62
     7
 10
55.230534999999989
 20
169.46600000000001
 30
0.0
 40
3.0923400000000001
  1
57%%d
 41
0.5
 72
     1
 11
57.034399999999998
 21
169.46600000000001
 31
0.0
  0
TEXT
  5
214
  8
____
 62
     7
 10
-17.771464999999999
 20
172.58000000000001
 30
0.0
 40
3.0923400000000001
  1
25%%d
 41
0.5
 72
     1
 11
-15.967599999999999
 21
172.58000000000001
 31
0.0
  0
TEXT
  5
215
  8
____
 62
     7
 10
51.878208000000001
 20
158.00899999999999
 30
0.0
 40
3.0923400000000001
  1
湯
 41
0.5
 72
     2
 11
53.321300000000001
 21
158.00899999999999
 31
0.0
  0
TEXT
  5
216
  8
____
 62
     7
 10
-13.663500000000001
 20
163.87
 30
0.0
 40
3.0923400000000001
  1
開
 41
0.5
  0
TEXT
  5
217
  8
____
 62
     7
 10
-23.925014000000001
 20
167.387
 30
0.0
 40
3.0923400000000001
  1
閉
 41
0.5
 72
     2
 11
-22.585000000000001
 21
167.387
 31
0.0
  0
TEXT
  5
218
  8
____
 62
     7
 10
-77.847200000000001
 20
22.237500000000001
 30
0.0
 40
3.6545800000000002
  1
※水受けトレイ（別売）が必要です。
 41
0.5
  0
LINE
  5
219
  8
_________1
 62
     7
 10
73.663200000000003
 20
204.31399999999999
 30
0.0
 11
84.484099999999998
 21
217.465
 31
0.0
  0
LINE
  5
21A
  8
_________1
 62
     7
 10
67.915499999999994
 20
204.899
 30
0.0
 11
65.705100000000002
 21
204.30600000000001
 31
0.0
  0
LINE
  5
21B
  8
_________1
 62
     7
 10
65.705100000000002
 20
204.30600000000001
 30
0.0
 11
67.915499999999994
 21
203.714
 31
0.0
  0
LINE
  5
21C
  8
_________1
 62
     7
 10
67.915499999999994
 20
203.714
 30
0.0
 11
67.915499999999994
 21
204.899
 31
0.0
  0
LINE
  5
21D
  8
_________1
 62
     7
 10
80.160799999999995
 20
203.72900000000001
 30
0.0
 11
82.371899999999997
 21
204.321
 31
0.0
  0
LINE
  5
21E
  8
_________1
 62
     7
 10
82.371899999999997
 20
204.321
 30
0.0
 11
80.160799999999995
 21
204.91300000000001
 31
0.0
  0
LINE
  5
21F
  8
_________1
 62
     7
 10
80.160799999999995
 20
204.91300000000001
 30
0.0
 11
80.160799999999995
 21
203.72900000000001
 31
0.0
  0
LINE
  5
220
  8
_________1
 62
     7
 10
65.705100000000002
 20
204.31399999999999
 30
0.0
 11
82.371899999999997
 21
204.31399999999999
 31
0.0
  0
LINE
  5
221
  8
_________1
 62
     7
 10
84.484099999999998
 20
217.465
 30
0.0
 11
130.76599999999999
 21
217.465
 31
0.0
  0
LINE
  5
222
  8
_________1
  6
AIGENLINE002
 62
     7
 10
82.371899999999997
 20
111.06399999999999
 30
0.0
 11
82.371899999999997
 21
229.678
 31
0.0
  0
ARC
  5
223
  8
_________1
  6
AIGENLINE001
 62
     7
 10
-54.726663000000002
 20
111.863051
 30
0.0
 40
21.333659000000001
 50
348.93965100000003
 51
0.008076
  0
ARC
  5
224
  8
_________1
  6
AIGENLINE001
 62
     7
 10
-53.581861000000004
 20
111.778975
 30
0.0
 40
20.194455999999999
 50
336.62756899999999
 51
348.55064499999997
  0
ARC
  5
225
  8
_________1
  6
AIGENLINE001
 62
     7
 10
-58.785876000000002
 20
113.860629
 30
0.0
 40
25.797722
 50
330.399652
 51
336.96875599999998
  0
ARC
  5
226
  8
_________1
  6
AIGENLINE001
 62
     7
 10
-66.135866000000007
 20
117.87088
 30
0.0
 40
34.169632
 50
325.98771099999999
 51
330.64048500000001
  0
ARC
  5
227
  8
_________1
  6
AIGENLINE001
 62
     7
 10
-49.659737999999997
 20
106.36158
 30
0.0
 40
14.078042999999999
 50
325.81333899999998
 51
327.30645299999998
  0
ARC
  5
228
  8
_________1
  6
AIGENLINE001
 62
     7
 10
-59.986144000000003
 20
113.34480499999999
 30
0.0
 40
26.543986
 50
324.63174600000002
 51
325.86883499999999
  0
ARC
  5
229
  8
_________1
  6
AIGENLINE001
 62
     7
 10
-79.021846999999994
 20
126.82022499999999
 30
0.0
 40
49.866602999999998
 50
323.80941300000001
 51
324.66611599999999
  0
ARC
  5
22A
  8
_________1
  6
AIGENLINE001
 62
     7
 10
-118.061882
 20
155.38243800000001
 30
0.0
 40
98.239367999999999
 50
323.15015399999999
 51
323.80985099999998
  0
ARC
  5
22B
  8
_________1
  6
AIGENLINE001
 62
     7
 10
-231.92369600000001
 20
240.70756900000001
 30
0.0
 40
240.523909
 50
322.750471
 51
323.15186899999998
  0
ARC
  5
22C
  8
_________1
  6
AIGENLINE001
 62
     7
 10
562.17926199999988
 20
-364.24960700000003
 30
0.0
 40
757.76109199999985
 50
142.68319299999999
 51
142.938873
  0
ARC
  5
22D
  8
_________1
  6
AIGENLINE001
 62
     7
 10
62.812967999999998
 20
12.961320000000001
 30
0.0
 40
131.937828
 50
142.965104
 51
144.11382800000001
  0
ARC
  5
22E
  8
_________1
  6
AIGENLINE001
 62
     7
 10
-10.985955000000001
 20
66.427026999999995
 30
0.0
 40
40.806866999999997
 50
144.19501199999999
 51
146.832345
  0
ARC
  5
22F
  8
_________1
  6
AIGENLINE001
 62
     7
 10
-91.598414000000005
 20
116.896874
 30
0.0
 40
54.314954999999998
 50
328.04145399999999
 51
328.78991100000002
  0
ARC
  5
230
  8
_________1
  6
AIGENLINE001
 62
     7
 10
10.111806
 20
53.300736000000001
 30
0.0
 40
65.641078000000007
 50
147.935678
 51
149.218706
  0
ARC
  5
231
  8
_________1
  6
AIGENLINE001
 62
     7
 10
-16.555043000000001
 20
69.157798999999997
 30
0.0
 40
34.615825999999998
 50
149.17922799999999
 51
154.617062
  0
ARC
  5
232
  8
_________1
  6
AIGENLINE001
 62
     7
 10
-23.015027
 20
72.398262000000003
 30
0.0
 40
27.390851999999999
 50
154.94853699999999
 51
176.855435
  0
ARC
  5
233
  8
_________1
  6
AIGENLINE001
 62
     7
 10
-18.332654999999999
 20
72.024456000000001
 30
0.0
 40
32.086890000000011
 50
176.64760100000001
 51
187.13009500000001
  0
ARC
  5
234
  8
_________1
  6
AIGENLINE001
 62
     7
 10
49.039008000000003
 20
193.738406
 30
0.0
 40
16.658522999999999
 50
90.0
 51
179.99996999999999
  0
ARC
  5
235
  8
_________1
  6
AIGENLINE001
 62
     7
 10
49.039002000000004
 20
193.738406
 30
0.0
 40
16.658522999999999
 50
0.00001
 51
89.999980000000008
  0
INSERT
  5
236
  8
_________1
 62
     7
  2
AIGNBL02010002
 10
0.0
 20
0.0
 30
0.0
  0
INSERT
  5
237
  8
_________1
 62
     7
  2
AIGNBL02010003
 10
0.0
 20
0.0
 30
0.0
  0
INSERT
  5
238
  8
_________1
 62
     7
  2
AIGNBL02010005
 10
0.0
 20
0.0
 30
0.0
  0
ARC
  5
239
  8
_________1
 62
     7
 10
70.477620999999985
 20
120.319671
 30
0.0
 40
4.103002
 50
196.281577
 51
204.86066099999999
  0
ARC
  5
23A
  8
_________1
 62
     7
 10
60.896994999999997
 20
120.332353
 30
0.0
 40
4.140941999999999
 50
335.1891950000001
 51
343.72869300000002
  0
LINE
  5
23B
  8
_________1
 62
     7
 10
63.074800000000003
 20
59.650799999999997
 30
0.0
 11
64.788399999999996
 21
59.650799999999997
 31
0.0
  0
LINE
  5
23C
  8
_________1
 62
     7
 10
66.621799999999993
 20
59.650799999999997
 30
0.0
 11
68.385400000000004
 21
59.650799999999997
 31
0.0
  0
LINE
  5
23D
  8
_________1
 62
     7
 10
63.02579999999999
 20
62.459299999999999
 30
0.0
 11
64.788399999999996
 21
62.459299999999999
 31
0.0
  0
LINE
  5
23E
  8
_________1
 62
     7
 10
66.621799999999993
 20
62.459299999999999
 30
0.0
 11
68.385400000000004
 21
62.459299999999999
 31
0.0
  0
LINE
  5
23F
  8
_________1
 62
     7
 10
66.621799999999993
 20
64.524600000000007
 30
0.0
 11
67.559299999999993
 21
64.524600000000007
 31
0.0
  0
LINE
  5
240
  8
_________1
 62
     7
 10
67.559299999999993
 20
64.524600000000007
 30
0.0
 11
67.742500000000007
 21
64.458100000000002
 31
0.0
  0
ARC
  5
241
  8
_________1
 62
     7
 10
67.675515000000004
 20
64.348061000000001
 30
0.0
 40
0.128885
 50
43.347856
 51
58.662168000000008
  0
ARC
  5
242
  8
_________1
 62
     7
 10
67.556896999999992
 20
64.231758999999997
 30
0.0
 40
0.294994
 50
33.298082999999998
 51
43.960014000000001
  0
ARC
  5
243
  8
_________1
 62
     7
 10
67.234121000000002
 20
64.015794
 30
0.0
 40
0.68335
 50
26.526378000000001
 51
33.575334000000012
  0
ARC
  5
244
  8
_________1
 62
     7
 10
66.478941000000006
 20
63.63814
 30
0.0
 40
1.527695
 50
21.246578
 51
26.549900999999998
  0
ARC
  5
245
  8
_________1
 62
     7
 10
64.974564000000001
 20
63.046082999999989
 30
0.0
 40
3.1443779999999988
 50
17.828279999999999
 51
21.367842
  0
ARC
  5
246
  8
_________1
 62
     7
 10
62.30986
 20
62.182380000000002
 30
0.0
 40
5.9455569999999991
 50
15.21297
 51
17.889834
  0
ARC
  5
247
  8
_________1
 62
     7
 10
56.762866000000002
 20
60.677286999999993
 30
0.0
 40
11.693118
 50
11.209417999999999
 51
15.197172999999999
  0
ARC
  5
248
  8
_________1
 62
     7
 10
52.66407199999999
 20
59.761750999999997
 30
0.0
 40
15.892018
 50
8.287825999999999
 51
11.574579
  0
ARC
  5
249
  8
_________1
 62
     7
 10
64.832828000000006
 20
61.516182999999991
 30
0.0
 40
3.5974979999999999
 50
2.7912300000000001
 51
8.5739770000000011
  0
LINE
  5
24A
  8
_________1
 62
     7
 10
68.426100000000005
 20
61.691400000000002
 30
0.0
 11
68.426100000000005
 21
60.358499999999992
 31
0.0
  0
ARC
  5
24B
  8
_________1
 62
     7
 10
67.426374999999993
 20
60.361916999999998
 30
0.0
 40
0.9996889999999998
 50
354.5060180000001
 51
359.80152299999997
  0
ARC
  5
24C
  8
_________1
 62
     7
 10
64.251784000000001
 20
60.623761999999999
 30
0.0
 40
4.1849899999999991
 50
352.25358699999998
 51
355.09881200000001
  0
ARC
  5
24D
  8
_________1
 62
     7
 10
57.497008999999998
 20
61.517457999999998
 30
0.0
 40
10.998612
 50
350.41942599999999
 51
352.38344799999999
  0
ARC
  5
24E
  8
_________1
 62
     7
 10
52.731363999999999
 20
62.297431000000003
 30
0.0
 40
15.82762
 50
345.59303699999998
 51
350.50656900000001
  0
ARC
  5
24F
  8
_________1
 62
     7
 10
62.940981999999998
 20
59.700580000000002
 30
0.0
 40
5.2930089999999987
 50
339.62409100000002
 51
345.32195200000001
  0
ARC
  5
250
  8
_________1
 62
     7
 10
66.474498999999994
 20
58.412793000000001
 30
0.0
 40
1.5323839999999991
 50
333.47087900000002
 51
338.76091200000002
  0
ARC
  5
251
  8
_________1
 62
     7
 10
67.283299
 20
58.005452000000012
 30
0.0
 40
0.6268130000000001
 50
324.96734700000002
 51
333.76321799999999
  0
ARC
  5
252
  8
_________1
 62
     7
 10
67.623653000000004
 20
57.762498000000001
 30
0.0
 40
0.208687
 50
304.73103700000001
 51
325.94460299999997
  0
ARC
  5
253
  8
_________1
 62
     7
 10
67.706210999999996
 20
57.635336999999993
 30
0.0
 40
0.05733
 50
288.34525600000001
 51
309.33070199999997
  0
ARC
  5
254
  8
_________1
 62
     7
 10
67.609195999999997
 20
57.891021000000002
 30
0.0
 40
0.330759
 50
279.61185599999999
 51
290.35684600000002
  0
ARC
  5
255
  8
_________1
 62
     7
 10
67.393458999999993
 20
59.04948199999999
 30
0.0
 40
1.5091019999999991
 50
275.19623100000001
 51
280.34375299999999
  0
ARC
  5
256
  8
_________1
 62
     7
 10
67.033504000000008
 20
62.737145999999989
 30
0.0
 40
5.2142679999999988
 50
272.75377600000002
 51
275.46538800000002
  0
ARC
  5
257
  8
_________1
 62
     7
 10
66.477236000000005
 20
74.026521000000002
 30
0.0
 40
16.517337000000001
 50
270.580535
 51
272.79971
  0
ARC
  5
258
  8
_________1
 62
     7
 10
76.585825999999983
 20
1078.1849999999999
 30
0.0
 40
1020.7405199999999
 50
269.28469799999999
 51
269.337785
  0
LINE
  5
259
  8
_________1
 62
     7
 10
63.842700000000001
 20
57.5242
 30
0.0
 11
63.659399999999998
 21
57.591000000000001
 31
0.0
  0
LINE
  5
25A
  8
_________1
 62
     7
 10
63.659399999999998
 20
57.591000000000001
 30
0.0
 11
63.525700000000001
 21
57.740900000000011
 31
0.0
  0
ARC
  5
25B
  8
_________1
 62
     7
 10
72.982737
 20
61.181082999999987
 30
0.0
 40
10.063314
 50
188.1844219999999
 51
199.99015900000001
  0
ARC
  5
25C
  8
_________1
 62
     7
 10
67.952382999999998
 20
60.427306000000009
 30
0.0
 40
4.9769769999999989
 50
180.79267400000001
 51
187.83926799999989
  0
LINE
  5
25D
  8
_________1
 62
     7
 10
62.975900000000003
 20
60.358499999999992
 30
0.0
 11
62.975900000000003
 21
61.691400000000002
 31
0.0
  0
ARC
  5
25E
  8
_________1
 62
     7
 10
66.764487000000003
 20
61.689048999999997
 30
0.0
 40
3.788605
 50
173.854094
 51
179.96488099999999
  0
ARC
  5
25F
  8
_________1
 62
     7
 10
69.662172999999996
 20
61.421640000000011
 30
0.0
 40
6.6984119999999994
 50
169.104859
 51
174.233495
  0
ARC
  5
260
  8
_________1
 62
     7
 10
73.448719999999994
 20
60.734729000000002
 30
0.0
 40
10.546621
 50
160.19811999999999
 51
169.32853600000001
  0
LINE
  5
261
  8
_________1
 62
     7
 10
63.525700000000001
 20
64.307599999999994
 30
0.0
 11
63.659399999999998
 21
64.458100000000002
 31
0.0
  0
LINE
  5
262
  8
_________1
 62
     7
 10
63.659399999999998
 20
64.458100000000002
 30
0.0
 11
63.842700000000001
 21
64.524600000000007
 31
0.0
  0
LINE
  5
263
  8
_________1
 62
     7
 10
63.842700000000001
 20
64.524600000000007
 30
0.0
 11
64.788399999999996
 21
64.524600000000007
 31
0.0
  0
INSERT
  5
264
  8
_________1
 62
     7
  2
AIGNBL02010006
 10
0.0
 20
0.0
 30
0.0
  0
ARC
  5
265
  8
_________1
 62
     7
 10
65.669946999999993
 20
42.597513999999997
 30
0.0
 40
0.952552
 50
272.1151680000001
 51
357.88484199999999
  0
ARC
  5
266
  8
_________1
 62
     7
 10
65.740256000000002
 20
42.597507999999998
 30
0.0
 40
0.9525459999999998
 50
182.11487
 51
267.88515999999998
  0
LINE
  5
267
  8
_________1
  6
AIGENLINE001
 62
     7
 10
65.705100000000002
 20
193.739
 30
0.0
 11
65.705100000000002
 21
40.162500000000001
 31
0.0
  0
ARC
  5
268
  8
_________1
 62
     7
 10
64.870232999999999
 20
71.088339000000005
 30
0.0
 40
1.3997129999999991
 50
103.723596
 51
128.29210599999999
  0
ARC
  5
269
  8
_________1
 62
     7
 10
64.822597000000002
 20
71.142675999999994
 30
0.0
 40
1.3360430000000001
 50
85.166651000000016
 51
102.29171700000001
  0
ARC
  5
26A
  8
_________1
 62
     7
 10
64.773184999999984
 20
70.282006999999993
 30
0.0
 40
2.1979380000000002
 50
76.743984999999995
 51
85.773567000000014
  0
ARC
  5
26B
  8
_________1
 62
     7
 10
64.157980000000009
 20
67.460885000000005
 30
0.0
 40
5.0851870000000003
 50
74.542857999999995
 51
77.285684000000003
  0
ARC
  5
26C
  8
_________1
 62
     7
 10
69.42824499999999
 20
85.941613000000004
 30
0.0
 40
14.132553
 50
253.91768999999999
 51
255.788738
  0
ARC
  5
26D
  8
_________1
 62
     7
 10
66.628043999999974
 20
74.943352000000004
 30
0.0
 40
2.7834639999999991
 50
256.08625499999999
 51
263.77293399999991
  0
ARC
  5
26E
  8
_________1
 62
     7
 10
66.466018999999989
 20
73.574352000000005
 30
0.0
 40
1.4050240000000001
 50
264.285732
 51
290.58804199999997
  0
ARC
  5
26F
  8
_________1
 62
     7
 10
66.43453199999999
 20
73.540731999999991
 30
0.0
 40
1.385238999999999
 50
292.2964750000001
 51
313.47902599999998
  0
ARC
  5
270
  8
_________1
 62
     7
 10
64.870232999999999
 20
71.978557999999992
 30
0.0
 40
1.3997129999999991
 50
103.723596
 51
128.29210599999999
  0
ARC
  5
271
  8
_________1
 62
     7
 10
64.822597000000002
 20
72.032893999999999
 30
0.0
 40
1.3360430000000001
 50
85.166651000000016
 51
102.29171700000001
  0
ARC
  5
272
  8
_________1
 62
     7
 10
64.773184999999984
 20
71.172225999999995
 30
0.0
 40
2.1979380000000002
 50
76.743984999999995
 51
85.773567000000014
  0
ARC
  5
273
  8
_________1
 62
     7
 10
64.157980000000009
 20
68.351104000000007
 30
0.0
 40
5.0851870000000003
 50
74.542857999999995
 51
77.285684000000003
  0
ARC
  5
274
  8
_________1
 62
     7
 10
69.42824499999999
 20
86.831832000000006
 30
0.0
 40
14.132553
 50
253.91768999999999
 51
255.788738
  0
ARC
  5
275
  8
_________1
 62
     7
 10
66.628043999999974
 20
75.833569999999995
 30
0.0
 40
2.7834639999999991
 50
256.08625499999999
 51
263.77293399999991
  0
ARC
  5
276
  8
_________1
 62
     7
 10
66.466018999999989
 20
74.464569999999995
 30
0.0
 40
1.4050240000000001
 50
264.285732
 51
290.58804199999997
  0
ARC
  5
277
  8
_________1
 62
     7
 10
66.43453199999999
 20
74.430949999999996
 30
0.0
 40
1.385238999999999
 50
292.2964750000001
 51
313.47902599999998
  0
ARC
  5
278
  8
_________1
 62
     7
 10
60.845416
 20
120.362573
 30
0.0
 40
4.2004449999999993
 50
317.91055799999998
 51
335.11025699999999
  0
ARC
  5
279
  8
_________1
 62
     7
 10
60.846125000000001
 20
120.35132299999999
 30
0.0
 40
2.5259649999999998
 50
318.10766799999999
 51
359.774721
  0
ARC
  5
27A
  8
_________1
  6
AIGENLINE001
 62
     7
 10
60.839638000000001
 20
120.353196
 30
0.0
 40
3.3654829999999998
 50
318.09755899999999
 51
359.79903000000002
  0
ARC
  5
27B
  8
_________1
 62
     7
 10
61.178917000000013
 20
110.68025299999999
 30
0.0
 40
4.2096279999999986
 50
138.10838200000001
 51
179.77964800000001
  0
ARC
  5
27C
  8
_________1
 62
     7
 10
61.163008999999988
 20
110.685953
 30
0.0
 40
2.5273080000000001
 50
138.10752600000001
 51
179.76221799999999
  0
ARC
  5
27D
  8
_________1
  6
AIGENLINE001
 62
     7
 10
61.168142000000003
 20
110.68464
 30
0.0
 40
3.3654699999999989
 50
138.09742299999999
 51
179.793207
  0
LINE
  5
27E
  8
_________1
 62
     7
 10
63.372100000000003
 20
120.34099999999999
 30
0.0
 11
63.372100000000003
 21
120.89700000000001
 31
0.0
  0
LINE
  5
27F
  8
_________1
 62
     7
 10
58.045200000000001
 20
113.491
 30
0.0
 11
62.726500000000001
 21
118.66500000000001
 31
0.0
  0
LINE
  5
280
  8
_________1
 62
     7
 10
63.962600000000002
 20
117.547
 30
0.0
 11
59.281700000000001
 21
112.374
 31
0.0
  0
LINE
  5
281
  8
_________1
  6
AIGENLINE001
 62
     7
 10
63.344499999999996
 20
118.10599999999999
 30
0.0
 11
58.6633
 21
112.932
 31
0.0
  0
LINE
  5
282
  8
_________1
 62
     7
 10
56.969299999999997
 20
54.401499999999999
 30
0.0
 11
56.969299999999997
 21
110.696
 31
0.0
  0
LINE
  5
283
  8
_________1
 62
     7
 10
58.6357
 20
110.696
 30
0.0
 11
58.6357
 21
54.401499999999999
 31
0.0
  0
LINE
  5
284
  8
_________1
  6
AIGENLINE001
 62
     7
 10
57.802700000000002
 20
110.697
 30
0.0
 11
57.802700000000002
 21
48.425600000000003
 31
0.0
  0
LINE
  5
285
  8
_________1
 62
     7
 10
55.967100000000002
 20
51.151000000000003
 30
0.0
 11
55.967100000000002
 21
49.400199999999998
 31
0.0
  0
LINE
  5
286
  8
_________1
 62
     7
 10
56.8842
 20
51.151000000000003
 30
0.0
 11
56.8842
 21
49.400199999999998
 31
0.0
  0
ARC
  5
287
  8
_________1
 62
     7
 10
58.092893999999987
 20
54.371603
 30
0.0
 40
5.406795999999999
 50
246.848491
 51
248.90717100000009
  0
ARC
  5
288
  8
_________1
 62
     7
 10
56.486414000000003
 20
50.230865999999999
 30
0.0
 40
0.965393
 50
249.42192800000001
 51
266.88467300000002
  0
ARC
  5
289
  8
_________1
 62
     7
 10
56.433760999999997
 20
49.887669000000002
 30
0.0
 40
0.6207699999999999
 50
270.01739300000003
 51
284.90479800000003
  0
ARC
  5
28A
  8
_________1
 62
     7
 10
56.277211999999992
 20
50.53784799999999
 30
0.0
 40
1.289437999999999
 50
284.195897
 51
298.08354700000001
  0
ARC
  5
28B
  8
_________1
 62
     7
 10
56.391770000000001
 20
50.422781999999998
 30
0.0
 40
0.879127
 50
55.932757999999993
 51
87.249941000000007
  0
ARC
  5
28C
  8
_________1
 62
     7
 10
56.433987000000002
 20
50.673394999999999
 30
0.0
 40
0.627502
 50
90.003457000000026
 51
104.70263199999999
  0
ARC
  5
28D
  8
_________1
 62
     7
 10
56.543174
 20
50.211347000000004
 30
0.0
 40
1.1021939999999999
 50
104.096614
 51
121.50870500000001
  0
LINE
  5
28E
  8
_________1
 62
     7
 10
59.634099999999989
 20
51.151000000000003
 30
0.0
 11
59.634099999999989
 21
49.400199999999998
 31
0.0
  0
LINE
  5
28F
  8
_________1
 62
     7
 10
58.717700000000001
 20
51.151000000000003
 30
0.0
 11
58.717700000000001
 21
49.400199999999998
 31
0.0
  0
ARC
  5
290
  8
_________1
 62
     7
 10
60.664012
 20
53.918593999999992
 30
0.0
 40
4.9197280000000001
 50
246.69597200000001
 51
248.86657700000001
  0
ARC
  5
291
  8
_________1
 62
     7
 10
59.244512999999998
 20
50.249735999999999
 30
0.0
 40
0.985837
 50
248.93945199999999
 51
265.52826600000009
  0
ARC
  5
292
  8
_________1
 62
     7
 10
59.167607999999987
 20
49.883032
 30
0.0
 40
0.6161330000000002
 50
270.00386400000002
 51
284.76201400000002
  0
ARC
  5
293
  8
_________1
 62
     7
 10
59.045499
 20
50.426265000000001
 30
0.0
 40
1.172725
 50
283.76822700000002
 51
289.835892
  0
ARC
  5
294
  8
_________1
 62
     7
 10
58.432271
 20
52.098044999999999
 30
0.0
 40
2.9534159999999989
 50
290.02144300000009
 51
294.01243699999998
  0
ARC
  5
295
  8
_________1
 62
     7
 10
58.989943999999987
 20
50.048312000000003
 30
0.0
 40
1.277088999999999
 50
59.707909999999991
 51
75.049284
  0
ARC
  5
296
  8
_________1
 62
     7
 10
59.160456000000003
 20
50.618262999999992
 30
0.0
 40
0.6826720000000001
 50
76.534885000000003
 51
89.396184000000005
  0
ARC
  5
297
  8
_________1
 62
     7
 10
59.168582999999998
 20
50.761547999999998
 30
0.0
 40
0.53935
 50
90.099139000000022
 51
106.437637
  0
ARC
  5
298
  8
_________1
 62
     7
 10
59.322600999999999
 20
50.151499999999999
 30
0.0
 40
1.168312
 50
105.21627100000001
 51
121.180885
  0
ARC
  5
299
  8
_________1
 62
     7
 10
55.929298000000003
 20
44.615394000000002
 30
0.0
 40
4.8791900000000004
 50
76.463498999999999
 51
78.713533999999996
  0
ARC
  5
29A
  8
_________1
 62
     7
 10
57.957659999999997
 20
52.768930000000012
 30
0.0
 40
3.5231910000000002
 50
255.42979299999999
 51
261.79798299999999
  0
ARC
  5
29B
  8
_________1
 62
     7
 10
57.662712999999997
 20
50.719315000000002
 30
0.0
 40
1.4524619999999999
 50
261.7792060000001
 51
269.54225300000002
  0
LINE
  5
29C
  8
_________1
 62
     7
 10
57.651099999999992
 20
49.2669
 30
0.0
 11
57.950800000000001
 21
49.2669
 31
0.0
  0
ARC
  5
29D
  8
_________1
 62
     7
 10
57.950031000000003
 20
50.631830999999991
 30
0.0
 40
1.364932
 50
270.03370999999999
 51
280.17909400000002
  0
ARC
  5
29E
  8
_________1
 62
     7
 10
57.634538999999997
 20
52.627865
 30
0.0
 40
3.3855680000000001
 50
279.46451300000001
 51
283.012833
  0
ARC
  5
29F
  8
_________1
 62
     7
 10
52.501627999999997
 20
76.736218000000008
 30
0.0
 40
28.033840999999999
 50
282.13935500000002
 51
282.81097899999997
  0
ARC
  5
2A0
  8
_________1
 62
     7
 10
57.854810000000001
 20
48.599752000000002
 30
0.0
 40
2.6932599999999991
 50
71.313171999999994
 51
78.446673000000004
  0
ARC
  5
2A1
  8
_________1
 62
     7
 10
57.742158000000003
 20
48.225099999999998
 30
0.0
 40
3.0830860000000002
 50
77.790006999999989
 51
85.358813999999995
  0
ARC
  5
2A2
  8
_________1
 62
     7
 10
57.873140999999997
 20
49.743035999999989
 30
0.0
 40
1.559547
 50
85.642786999999998
 51
92.665021999999993
  0
ARC
  5
2A3
  8
_________1
 62
     7
 10
57.742913000000001
 20
50.339530000000003
 30
0.0
 40
0.9630969999999999
 50
86.564448999999996
 51
91.664973000000003
  0
ARC
  5
2A4
  8
_________1
 62
     7
 10
57.763531000000008
 20
49.371713999999997
 30
0.0
 40
1.9311189999999989
 50
91.442119999999989
 51
95.888008999999997
  0
ARC
  5
2A5
  8
_________1
 62
     7
 10
57.908393999999987
 20
47.933612999999987
 30
0.0
 40
3.3764959999999991
 50
95.829841000000002
 51
107.65727800000001
  0
LINE
  5
2A6
  8
_________1
 62
     7
 10
56.967599999999997
 20
51.417999999999992
 30
0.0
 11
57.800600000000003
 21
51.417999999999992
 31
0.0
  0
LINE
  5
2A7
  8
_________1
 62
     7
 10
58.63430000000001
 20
51.417999999999992
 30
0.0
 11
57.800600000000003
 21
51.417999999999992
 31
0.0
  0
LINE
  5
2A8
  8
_________1
 62
     7
 10
59.334699999999991
 20
49.233800000000002
 30
0.0
 11
57.800600000000003
 21
49.233800000000002
 31
0.0
  0
LINE
  5
2A9
  8
_________1
 62
     7
 10
57.800600000000003
 20
49.233800000000002
 30
0.0
 11
56.267200000000003
 21
49.233800000000002
 31
0.0
  0
LINE
  5
2AA
  8
_________1
 62
     7
 10
56.067
 20
49.367199999999997
 30
0.0
 11
56.267200000000003
 21
49.250700000000002
 31
0.0
  0
LINE
  5
2AB
  8
_________1
 62
     7
 10
56.267200000000003
 20
49.250700000000002
 30
0.0
 11
56.267200000000003
 21
49.233800000000002
 31
0.0
  0
LINE
  5
2AC
  8
_________1
 62
     7
 10
55.967100000000002
 20
49.400199999999998
 30
0.0
 11
56.267200000000003
 21
49.250700000000002
 31
0.0
  0
LINE
  5
2AD
  8
_________1
 62
     7
 10
59.634099999999989
 20
49.400199999999998
 30
0.0
 11
59.334699999999991
 21
49.233800000000002
 31
0.0
  0
LINE
  5
2AE
  8
_________1
 62
     7
 10
59.334699999999991
 20
51.317799999999998
 30
0.0
 11
56.267200000000003
 21
51.317799999999998
 31
0.0
  0
LINE
  5
2AF
  8
_________1
 62
     7
 10
58.834200000000003
 20
51.400799999999997
 30
0.0
 11
56.767099999999992
 21
51.400799999999997
 31
0.0
  0
ARC
  5
2B0
  8
_________1
 62
     7
 10
57.138472
 20
51.870113000000003
 30
0.0
 40
0.4832970000000001
 50
214.74445
 51
249.29489300000009
  0
ARC
  5
2B1
  8
_________1
 62
     7
 10
57.023918999999992
 20
51.774366999999998
 30
0.0
 40
0.33487
 50
198.555915
 51
212.452966
  0
LINE
  5
2B2
  8
_________1
 62
     7
 10
56.706499999999998
 20
51.6678
 30
0.0
 11
56.684399999999997
 21
51.73429999999999
 31
0.0
  0
LINE
  5
2B3
  8
_________1
 62
     7
 10
56.684399999999997
 20
51.73429999999999
 30
0.0
 11
56.684399999999997
 21
51.834499999999998
 31
0.0
  0
LINE
  5
2B4
  8
_________1
 62
     7
 10
56.684399999999997
 20
51.834499999999998
 30
0.0
 11
56.717500000000001
 21
51.951000000000001
 31
0.0
  0
LINE
  5
2B5
  8
_________1
 62
     7
 10
58.901000000000003
 20
51.951000000000001
 30
0.0
 11
58.884500000000003
 21
51.951000000000001
 31
0.0
  0
ARC
  5
2B6
  8
_________1
 62
     7
 10
49.029456000000003
 20
50.489718000000003
 30
0.0
 40
9.9791109999999996
 50
7.7449869999999992
 51
8.4202759999999994
  0
LINE
  5
2B7
  8
_________1
 62
     7
 10
58.917499999999997
 20
51.834499999999998
 30
0.0
 11
58.917499999999997
 21
51.73429999999999
 31
0.0
  0
LINE
  5
2B8
  8
_________1
 62
     7
 10
58.917499999999997
 20
51.73429999999999
 30
0.0
 11
58.8962
 21
51.6678
 31
0.0
  0
ARC
  5
2B9
  8
_________1
 62
     7
 10
58.214359999999999
 20
51.897095
 30
0.0
 40
0.719337
 50
335.68087600000001
 51
341.41225300000002
  0
ARC
  5
2BA
  8
_________1
 62
     7
 10
58.607781999999993
 20
51.719128000000012
 30
0.0
 40
0.287536
 50
296.47708699999998
 51
335.712132
  0
ARC
  5
2BB
  8
_________1
 62
     7
 10
57.613397999999997
 20
53.550151
 30
0.0
 40
2.370989999999999
 50
295.93996499999997
 51
298.25940400000002
  0
LINE
  5
2BC
  8
_________1
 62
     7
 10
58.650500000000001
 20
51.417999999999992
 30
0.0
 11
58.63430000000001
 21
51.417999999999992
 31
0.0
  0
LINE
  5
2BD
  8
_________1
 62
     7
 10
58.767699999999998
 20
52.23449999999999
 30
0.0
 11
56.850499999999997
 21
52.23449999999999
 31
0.0
  0
LINE
  5
2BE
  8
_________1
 62
     7
 10
58.767699999999998
 20
53.567799999999998
 30
0.0
 11
57.800600000000003
 21
53.567799999999998
 31
0.0
  0
LINE
  5
2BF
  8
_________1
 62
     7
 10
57.800600000000003
 20
53.567799999999998
 30
0.0
 11
56.850499999999997
 21
53.567799999999998
 31
0.0
  0
LINE
  5
2C0
  8
_________1
 62
     7
 10
56.684399999999997
 20
53.934699999999999
 30
0.0
 11
56.684399999999997
 21
53.851300000000002
 31
0.0
  0
LINE
  5
2C1
  8
_________1
 62
     7
 10
56.684399999999997
 20
53.851300000000002
 30
0.0
 11
56.733999999999988
 21
53.767600000000002
 31
0.0
  0
LINE
  5
2C2
  8
_________1
 62
     7
 10
58.934100000000001
 20
53.934699999999999
 30
0.0
 11
58.917499999999997
 21
53.851300000000002
 31
0.0
  0
LINE
  5
2C3
  8
_________1
 62
     7
 10
58.917499999999997
 20
53.851300000000002
 30
0.0
 11
58.884500000000003
 21
53.767600000000002
 31
0.0
  0
LINE
  5
2C4
  8
_________1
 62
     7
 10
58.934100000000001
 20
54.401499999999999
 30
0.0
 11
56.684399999999997
 21
54.401499999999999
 31
0.0
  0
LINE
  5
2C5
  8
_________1
 62
     7
 10
58.934100000000001
 20
54.401499999999999
 30
0.0
 11
58.934100000000001
 21
53.934699999999999
 31
0.0
  0
LINE
  5
2C6
  8
_________1
 62
     7
 10
56.684399999999997
 20
54.401499999999999
 30
0.0
 11
56.684399999999997
 21
53.934699999999999
 31
0.0
  0
LINE
  5
2C7
  8
_________1
 62
     7
 10
56.267200000000003
 20
51.317799999999998
 30
0.0
 11
55.967100000000002
 21
51.151000000000003
 31
0.0
  0
LINE
  5
2C8
  8
_________1
 62
     7
 10
59.334699999999991
 20
51.317799999999998
 30
0.0
 11
59.634099999999989
 21
51.151000000000003
 31
0.0
  0
LINE
  5
2C9
  8
_________1
 62
     7
 10
58.884500000000003
 20
53.767600000000002
 30
0.0
 11
58.767699999999998
 21
53.567799999999998
 31
0.0
  0
LINE
  5
2CA
  8
_________1
 62
     7
 10
58.767699999999998
 20
52.23449999999999
 30
0.0
 11
58.884500000000003
 21
51.951000000000001
 31
0.0
  0
LINE
  5
2CB
  8
_________1
 62
     7
 10
56.733999999999988
 20
53.767600000000002
 30
0.0
 11
56.850499999999997
 21
53.567799999999998
 31
0.0
  0
LINE
  5
2CC
  8
_________1
 62
     7
 10
56.850499999999997
 20
52.23449999999999
 30
0.0
 11
56.717500000000001
 21
51.951000000000001
 31
0.0
  0
LINE
  5
2CD
  8
_________1
 62
     7
 10
58.767699999999998
 20
53.567799999999998
 30
0.0
 11
58.767699999999998
 21
52.23449999999999
 31
0.0
  0
LINE
  5
2CE
  8
_________1
 62
     7
 10
56.850499999999997
 20
53.567799999999998
 30
0.0
 11
56.850499999999997
 21
52.23449999999999
 31
0.0
  0
LINE
  5
2CF
  8
_________1
 62
     7
 10
58.834200000000003
 20
51.400799999999997
 30
0.0
 11
58.834200000000003
 21
51.317799999999998
 31
0.0
  0
LINE
  5
2D0
  8
_________1
 62
     7
 10
56.767099999999992
 20
51.400799999999997
 30
0.0
 11
56.767099999999992
 21
51.317799999999998
 31
0.0
  0
LINE
  5
2D1
  8
_________1
 62
     7
 10
59.634099999999989
 20
49.400199999999998
 30
0.0
 11
59.334699999999991
 21
49.233800000000002
 31
0.0
  0
LINE
  5
2D2
  8
_________1
 62
     7
 10
55.967100000000002
 20
49.400199999999998
 30
0.0
 11
56.267200000000003
 21
49.233800000000002
 31
0.0
  0
LINE
  5
2D3
  8
_________1
  6
AIGENLINE001
 62
     7
 10
64.205100000000002
 20
120.34099999999999
 30
0.0
 11
64.205100000000002
 21
135.494
 31
0.0
  0
ARC
  5
2D4
  8
_________1
 62
     7
 10
70.551573000000005
 20
120.354619
 30
0.0
 40
4.1847949999999994
 50
204.86914200000001
 51
222.13628800000001
  0
ARC
  5
2D5
  8
_________1
 62
     7
 10
70.564425999999997
 20
120.351322
 30
0.0
 40
2.5259629999999991
 50
180.225279
 51
221.892371
  0
ARC
  5
2D6
  8
_________1
  6
AIGENLINE001
 62
     7
 10
70.569067000000004
 20
120.352485
 30
0.0
 40
3.3636319999999991
 50
180.18898300000001
 51
221.914467
  0
ARC
  5
2D7
  8
_________1
 62
     7
 10
70.235326000000001
 20
110.681673
 30
0.0
 40
4.205932999999999
 50
0.201173
 51
41.910756999999997
  0
ARC
  5
2D8
  8
_________1
 62
     7
 10
70.250375000000005
 20
110.687562
 30
0.0
 40
2.5241250000000002
 50
0.201535
 51
41.908182000000011
  0
ARC
  5
2D9
  8
_________1
  6
AIGENLINE001
 62
     7
 10
70.241943999999975
 20
110.683555
 30
0.0
 40
3.3662849999999991
 50
0.225184
 51
41.914904
  0
LINE
  5
2DA
  8
_________1
 62
     7
 10
68.038499999999999
 20
120.34099999999999
 30
0.0
 11
68.038499999999999
 21
120.89700000000001
 31
0.0
  0
LINE
  5
2DB
  8
_________1
 62
     7
 10
73.365300000000005
 20
113.491
 30
0.0
 11
68.684100000000001
 21
118.66500000000001
 31
0.0
  0
LINE
  5
2DC
  8
_________1
 62
     7
 10
67.448300000000003
 20
117.547
 30
0.0
 11
72.128900000000002
 21
112.374
 31
0.0
  0
LINE
  5
2DD
  8
_________1
  6
AIGENLINE001
 62
     7
 10
68.066000000000003
 20
118.10599999999999
 30
0.0
 11
72.746899999999997
 21
112.932
 31
0.0
  0
LINE
  5
2DE
  8
_________1
 62
     7
 10
74.441199999999995
 20
54.401499999999999
 30
0.0
 11
74.441199999999995
 21
110.696
 31
0.0
  0
LINE
  5
2DF
  8
_________1
 62
     7
 10
72.774500000000003
 20
110.696
 30
0.0
 11
72.774500000000003
 21
54.401499999999999
 31
0.0
  0
LINE
  5
2E0
  8
_________1
  6
AIGENLINE001
 62
     7
 10
73.608199999999997
 20
110.697
 30
0.0
 11
73.608199999999997
 21
48.425600000000003
 31
0.0
  0
LINE
  5
2E1
  8
_________1
 62
     7
 10
75.443399999999997
 20
51.151000000000003
 30
0.0
 11
75.443399999999997
 21
49.400199999999998
 31
0.0
  0
LINE
  5
2E2
  8
_________1
 62
     7
 10
74.526700000000005
 20
51.151000000000003
 30
0.0
 11
74.526700000000005
 21
49.400199999999998
 31
0.0
  0
ARC
  5
2E3
  8
_________1
 62
     7
 10
73.340692000000004
 20
54.301960999999991
 30
0.0
 40
5.3337099999999991
 50
291.17575499999998
 51
293.2181589999999
  0
ARC
  5
2E4
  8
_________1
 62
     7
 10
74.923710999999983
 20
50.234870000000001
 30
0.0
 40
0.969433
 50
273.14803000000001
 51
290.76360199999999
  0
ARC
  5
2E5
  8
_________1
 62
     7
 10
74.977137999999997
 20
49.888300000000001
 30
0.0
 40
0.621401
 50
255.10283999999999
 51
269.98247500000002
  0
ARC
  5
2E6
  8
_________1
 62
     7
 10
75.132291000000009
 20
50.534015999999987
 30
0.0
 40
1.285401
 50
241.890896
 51
255.818994
  0
ARC
  5
2E7
  8
_________1
 62
     7
 10
75.019128000000009
 20
50.422781999999998
 30
0.0
 40
0.879127
 50
92.750038999999987
 51
124.067222
  0
ARC
  5
2E8
  8
_________1
 62
     7
 10
74.976908999999992
 20
50.674673999999989
 30
0.0
 40
0.6262220000000001
 50
75.282252
 51
89.996358999999984
  0
ARC
  5
2E9
  8
_________1
 62
     7
 10
74.868105
 20
50.213439999999999
 30
0.0
 40
1.1000309999999991
 50
58.466506999999993
 51
75.904478999999995
  0
LINE
  5
2EA
  8
_________1
 62
     7
 10
71.776399999999995
 20
51.151000000000003
 30
0.0
 11
71.776399999999995
 21
49.400199999999998
 31
0.0
  0
LINE
  5
2EB
  8
_________1
 62
     7
 10
72.692800000000005
 20
51.151000000000003
 30
0.0
 11
72.692800000000005
 21
49.400199999999998
 31
0.0
  0
ARC
  5
2EC
  8
_________1
 62
     7
 10
70.819054000000008
 20
53.734574000000002
 30
0.0
 40
4.7220370000000003
 50
291.12084299999998
 51
293.37930999999998
  0
ARC
  5
2ED
  8
_________1
 62
     7
 10
72.166624999999996
 20
50.248249000000001
 30
0.0
 40
0.9843370000000001
 50
274.46453500000001
 51
291.07449800000001
  0
ARC
  5
2EE
  8
_________1
 62
     7
 10
72.243289000000004
 20
49.884861000000001
 30
0.0
 40
0.6179610000000001
 50
255.259986
 51
269.99618099999998
  0
ARC
  5
2EF
  8
_________1
 62
     7
 10
72.364699000000002
 20
50.425628000000003
 30
0.0
 40
1.1719969999999991
 50
250.1711140000001
 51
256.24633799999998
  0
ARC
  5
2F0
  8
_________1
 62
     7
 10
72.976985999999997
 20
52.095191
 30
0.0
 40
2.9502819999999992
 50
245.98803000000001
 51
249.98374999999999
  0
ARC
  5
2F1
  8
_________1
 62
     7
 10
72.419644999999988
 20
50.049962999999998
 30
0.0
 40
1.275177
 50
104.916572
 51
120.292119
  0
ARC
  5
2F2
  8
_________1
 62
     7
 10
72.250493000000006
 20
50.617165999999997
 30
0.0
 40
0.683769
 50
90.607071000000005
 51
103.454414
  0
ARC
  5
2F3
  8
_________1
 62
     7
 10
72.242312999999996
 20
50.762692999999992
 30
0.0
 40
0.5382050000000002
 50
73.544743999999994
 51
89.900479999999988
  0
ARC
  5
2F4
  8
_________1
 62
     7
 10
72.088818000000003
 20
50.153945999999998
 30
0.0
 40
1.165770999999999
 50
58.793271000000011
 51
74.784808999999996
  0
ARC
  5
2F5
  8
_________1
 62
     7
 10
75.473421000000002
 20
44.647218999999993
 30
0.0
 40
4.846379999999999
 50
101.265266
 51
103.532774
  0
ARC
  5
2F6
  8
_________1
 62
     7
 10
73.451957999999991
 20
52.774354000000002
 30
0.0
 40
3.5287129999999989
 50
278.20682599999998
 51
284.56512600000002
  0
ARC
  5
2F7
  8
_________1
 62
     7
 10
73.748151000000007
 20
50.716971999999998
 30
0.0
 40
1.4501189999999999
 50
270.459812
 51
278.22755799999999
  0
LINE
  5
2F8
  8
_________1
 62
     7
 10
73.759799999999998
 20
49.2669
 30
0.0
 11
73.460099999999997
 21
49.2669
 31
0.0
  0
ARC
  5
2F9
  8
_________1
 62
     7
 10
73.46086600000001
 20
50.631954999999991
 30
0.0
 40
1.365056
 50
259.821392
 51
269.96629900000011
  0
ARC
  5
2FA
  8
_________1
 62
     7
 10
73.777081999999993
 20
52.632565999999997
 30
0.0
 40
3.3903249999999989
 50
256.992097
 51
260.53632900000002
  0
ARC
  5
2FB
  8
_________1
 62
     7
 10
78.998654999999999
 20
77.16539499999999
 30
0.0
 40
28.472232000000002
 50
257.20447100000001
 51
257.8663029999999
  0
ARC
  5
2FC
  8
_________1
 62
     7
 10
73.555019999999999
 20
48.601897999999998
 30
0.0
 40
2.690995
 50
101.545574
 51
108.68686099999999
  0
ARC
  5
2FD
  8
_________1
 62
     7
 10
73.668919999999986
 20
48.221910999999999
 30
0.0
 40
3.0862949999999998
 50
94.64350300000001
 51
102.205417
  0
ARC
  5
2FE
  8
_________1
 62
     7
 10
73.537468999999987
 20
49.745032999999999
 30
0.0
 40
1.5575499999999991
 50
87.333649000000008
 51
94.359743000000009
  0
ARC
  5
2FF
  8
_________1
 62
     7
 10
73.667585000000003
 20
50.341352000000001
 30
0.0
 40
0.961275
 50
88.333412999999993
 51
93.438794000000001
  0
ARC
  5
300
  8
_________1
 62
     7
 10
73.646872999999985
 20
49.370764000000001
 30
0.0
 40
1.93207
 50
84.113015000000004
 51
88.556552999999994
  0
ARC
  5
301
  8
_________1
 62
     7
 10
73.501656000000011
 20
47.928489999999996
 30
0.0
 40
3.3816339999999991
 50
72.355343000000005
 51
84.171925000000002
  0
LINE
  5
302
  8
_________1
 62
     7
 10
74.443299999999994
 20
51.417999999999992
 30
0.0
 11
73.609899999999996
 21
51.417999999999992
 31
0.0
  0
LINE
  5
303
  8
_________1
 62
     7
 10
72.776600000000002
 20
51.417999999999992
 30
0.0
 11
73.609899999999996
 21
51.417999999999992
 31
0.0
  0
LINE
  5
304
  8
_________1
 62
     7
 10
72.0762
 20
49.233800000000002
 30
0.0
 11
73.609899999999996
 21
49.233800000000002
 31
0.0
  0
LINE
  5
305
  8
_________1
 62
     7
 10
73.609899999999996
 20
49.233800000000002
 30
0.0
 11
75.143299999999996
 21
49.233800000000002
 31
0.0
  0
LINE
  5
306
  8
_________1
 62
     7
 10
75.343900000000005
 20
49.367199999999997
 30
0.0
 11
75.143299999999996
 21
49.250700000000002
 31
0.0
  0
LINE
  5
307
  8
_________1
 62
     7
 10
75.143299999999996
 20
49.250700000000002
 30
0.0
 11
75.143299999999996
 21
49.233800000000002
 31
0.0
  0
LINE
  5
308
  8
_________1
 62
     7
 10
75.443399999999997
 20
49.400199999999998
 30
0.0
 11
75.143299999999996
 21
49.250700000000002
 31
0.0
  0
LINE
  5
309
  8
_________1
 62
     7
 10
71.776399999999995
 20
49.400199999999998
 30
0.0
 11
72.0762
 21
49.233800000000002
 31
0.0
  0
LINE
  5
30A
  8
_________1
 62
     7
 10
72.0762
 20
51.317799999999998
 30
0.0
 11
75.143299999999996
 21
51.317799999999998
 31
0.0
  0
LINE
  5
30B
  8
_________1
 62
     7
 10
72.576400000000007
 20
51.400799999999997
 30
0.0
 11
74.643500000000003
 21
51.400799999999997
 31
0.0
  0
ARC
  5
30C
  8
_________1
 62
     7
 10
74.272216999999998
 20
51.869656999999997
 30
0.0
 40
0.482945
 50
290.747434
 51
325.64586000000003
  0
ARC
  5
30D
  8
_________1
 62
     7
 10
74.386431999999999
 20
51.775345000000002
 30
0.0
 40
0.3357
 50
327.93503399999997
 51
341.31560400000001
  0
LINE
  5
30E
  8
_________1
 62
     7
 10
74.704400000000007
 20
51.6678
 30
0.0
 11
74.726500000000001
 21
51.73429999999999
 31
0.0
  0
LINE
  5
30F
  8
_________1
 62
     7
 10
74.726500000000001
 20
51.73429999999999
 30
0.0
 11
74.726500000000001
 21
51.834499999999998
 31
0.0
  0
LINE
  5
310
  8
_________1
 62
     7
 10
74.726500000000001
 20
51.834499999999998
 30
0.0
 11
74.693399999999997
 21
51.951000000000001
 31
0.0
  0
LINE
  5
311
  8
_________1
 62
     7
 10
72.509900000000002
 20
51.951000000000001
 30
0.0
 11
72.526399999999995
 21
51.951000000000001
 31
0.0
  0
ARC
  5
312
  8
_________1
 62
     7
 10
77.155811
 20
51.218024999999997
 30
0.0
 40
4.7033740000000002
 50
171.03456399999999
 51
172.46794399999999
  0
LINE
  5
313
  8
_________1
 62
     7
 10
72.492999999999995
 20
51.834499999999998
 30
0.0
 11
72.492999999999995
 21
51.73429999999999
 31
0.0
  0
LINE
  5
314
  8
_________1
 62
     7
 10
72.492999999999995
 20
51.73429999999999
 30
0.0
 11
72.514700000000005
 21
51.6678
 31
0.0
  0
ARC
  5
315
  8
_________1
 62
     7
 10
73.199370999999999
 20
51.897044000000001
 30
0.0
 40
0.722008
 50
198.512237
 51
204.21896599999999
  0
ARC
  5
316
  8
_________1
 62
     7
 10
72.802485000000004
 20
51.718561000000001
 30
0.0
 40
0.286835
 50
204.22668400000001
 51
243.5496
  0
ARC
  5
317
  8
_________1
 62
     7
 10
73.808408
 20
53.568371999999997
 30
0.0
 40
2.3922989999999991
 50
241.712917
 51
244.00859600000001
  0
LINE
  5
318
  8
_________1
 62
     7
 10
72.760000000000005
 20
51.417999999999992
 30
0.0
 11
72.776600000000002
 21
51.417999999999992
 31
0.0
  0
LINE
  5
319
  8
_________1
 62
     7
 10
72.643199999999993
 20
52.23449999999999
 30
0.0
 11
74.560100000000006
 21
52.23449999999999
 31
0.0
  0
LINE
  5
31A
  8
_________1
 62
     7
 10
72.643199999999993
 20
53.567799999999998
 30
0.0
 11
73.609899999999996
 21
53.567799999999998
 31
0.0
  0
LINE
  5
31B
  8
_________1
 62
     7
 10
73.609899999999996
 20
53.567799999999998
 30
0.0
 11
74.560100000000006
 21
53.567799999999998
 31
0.0
  0
LINE
  5
31C
  8
_________1
 62
     7
 10
74.726500000000001
 20
53.934699999999999
 30
0.0
 11
74.726500000000001
 21
53.851300000000002
 31
0.0
  0
LINE
  5
31D
  8
_________1
 62
     7
 10
74.726500000000001
 20
53.851300000000002
 30
0.0
 11
74.676900000000003
 21
53.767600000000002
 31
0.0
  0
LINE
  5
31E
  8
_________1
 62
     7
 10
72.476500000000001
 20
53.934699999999999
 30
0.0
 11
72.492999999999995
 21
53.851300000000002
 31
0.0
  0
LINE
  5
31F
  8
_________1
 62
     7
 10
72.492999999999995
 20
53.851300000000002
 30
0.0
 11
72.526399999999995
 21
53.767600000000002
 31
0.0
  0
LINE
  5
320
  8
_________1
 62
     7
 10
72.476500000000001
 20
54.401499999999999
 30
0.0
 11
74.726500000000001
 21
54.401499999999999
 31
0.0
  0
LINE
  5
321
  8
_________1
 62
     7
 10
72.476500000000001
 20
54.401499999999999
 30
0.0
 11
72.476500000000001
 21
53.934699999999999
 31
0.0
  0
LINE
  5
322
  8
_________1
 62
     7
 10
74.726500000000001
 20
54.401499999999999
 30
0.0
 11
74.726500000000001
 21
53.934699999999999
 31
0.0
  0
LINE
  5
323
  8
_________1
 62
     7
 10
75.143299999999996
 20
51.317799999999998
 30
0.0
 11
75.443399999999997
 21
51.151000000000003
 31
0.0
  0
LINE
  5
324
  8
_________1
 62
     7
 10
72.0762
 20
51.317799999999998
 30
0.0
 11
71.776399999999995
 21
51.151000000000003
 31
0.0
  0
LINE
  5
325
  8
_________1
 62
     7
 10
72.526399999999995
 20
53.767600000000002
 30
0.0
 11
72.643199999999993
 21
53.567799999999998
 31
0.0
  0
LINE
  5
326
  8
_________1
 62
     7
 10
72.643199999999993
 20
52.23449999999999
 30
0.0
 11
72.526399999999995
 21
51.951000000000001
 31
0.0
  0
LINE
  5
327
  8
_________1
 62
     7
 10
74.676900000000003
 20
53.767600000000002
 30
0.0
 11
74.560100000000006
 21
53.567799999999998
 31
0.0
  0
LINE
  5
328
  8
_________1
 62
     7
 10
74.560100000000006
 20
52.23449999999999
 30
0.0
 11
74.693399999999997
 21
51.951000000000001
 31
0.0
  0
LINE
  5
329
  8
_________1
 62
     7
 10
72.643199999999993
 20
53.567799999999998
 30
0.0
 11
72.643199999999993
 21
52.23449999999999
 31
0.0
  0
LINE
  5
32A
  8
_________1
 62
     7
 10
74.560100000000006
 20
53.567799999999998
 30
0.0
 11
74.560100000000006
 21
52.23449999999999
 31
0.0
  0
LINE
  5
32B
  8
_________1
 62
     7
 10
72.576400000000007
 20
51.400799999999997
 30
0.0
 11
72.576400000000007
 21
51.317799999999998
 31
0.0
  0
LINE
  5
32C
  8
_________1
 62
     7
 10
74.643500000000003
 20
51.400799999999997
 30
0.0
 11
74.643500000000003
 21
51.317799999999998
 31
0.0
  0
LINE
  5
32D
  8
_________1
 62
     7
 10
71.776399999999995
 20
49.400199999999998
 30
0.0
 11
72.0762
 21
49.233800000000002
 31
0.0
  0
LINE
  5
32E
  8
_________1
 62
     7
 10
75.443399999999997
 20
49.400199999999998
 30
0.0
 11
75.143299999999996
 21
49.233800000000002
 31
0.0
  0
LINE
  5
32F
  8
_________1
 62
     7
 10
64.872100000000003
 20
120.89700000000001
 30
0.0
 11
64.872100000000003
 21
89.351900000000001
 31
0.0
  0
LINE
  5
330
  8
_________1
 62
     7
 10
66.538799999999995
 20
89.351900000000001
 30
0.0
 11
66.538799999999995
 21
120.89700000000001
 31
0.0
  0
LINE
  5
331
  8
_________1
 62
     7
 10
67.613699999999994
 20
60.90379999999999
 30
0.0
 11
67.554100000000005
 21
60.6768
 31
0.0
  0
LINE
  5
332
  8
_________1
 62
     7
 10
67.554100000000005
 20
60.6768
 30
0.0
 11
67.533100000000005
 21
60.65229999999999
 31
0.0
  0
LINE
  5
333
  8
_________1
 62
     7
 10
67.533100000000005
 20
60.65229999999999
 30
0.0
 11
67.448300000000003
 21
60.65229999999999
 31
0.0
  0
LINE
  5
334
  8
_________1
 62
     7
 10
67.448300000000003
 20
60.65229999999999
 30
0.0
 11
67.426999999999992
 21
60.6768
 31
0.0
  0
LINE
  5
335
  8
_________1
 62
     7
 10
67.426999999999992
 20
60.6768
 30
0.0
 11
67.368099999999998
 21
60.89929999999999
 31
0.0
  0
LINE
  5
336
  8
_________1
 62
     7
 10
67.368099999999998
 20
60.89929999999999
 30
0.0
 11
67.141400000000004
 21
60.9589
 31
0.0
  0
LINE
  5
337
  8
_________1
 62
     7
 10
67.141400000000004
 20
60.9589
 30
0.0
 11
67.116200000000006
 21
60.981000000000002
 31
0.0
  0
LINE
  5
338
  8
_________1
 62
     7
 10
67.116200000000006
 20
60.981000000000002
 30
0.0
 11
67.116200000000006
 21
61.064700000000002
 31
0.0
  0
LINE
  5
339
  8
_________1
 62
     7
 10
67.116200000000006
 20
61.064700000000002
 30
0.0
 11
67.141400000000004
 21
61.085700000000003
 31
0.0
  0
LINE
  5
33A
  8
_________1
 62
     7
 10
67.141400000000004
 20
61.085700000000003
 30
0.0
 11
67.3643
 21
61.144599999999997
 31
0.0
  0
LINE
  5
33B
  8
_________1
 62
     7
 10
67.3643
 20
61.144599999999997
 30
0.0
 11
67.424199999999999
 21
61.372399999999999
 31
0.0
  0
LINE
  5
33C
  8
_________1
 62
     7
 10
67.424199999999999
 20
61.372399999999999
 30
0.0
 11
67.445599999999985
 21
61.397500000000001
 31
0.0
  0
LINE
  5
33D
  8
_________1
 62
     7
 10
67.445599999999985
 20
61.397500000000001
 30
0.0
 11
67.529600000000002
 21
61.397500000000001
 31
0.0
  0
LINE
  5
33E
  8
_________1
 62
     7
 10
67.529600000000002
 20
61.397500000000001
 30
0.0
 11
67.551000000000002
 21
61.372399999999999
 31
0.0
  0
LINE
  5
33F
  8
_________1
 62
     7
 10
67.551000000000002
 20
61.372399999999999
 30
0.0
 11
67.609899999999996
 21
61.149500000000003
 31
0.0
  0
LINE
  5
340
  8
_________1
 62
     7
 10
67.609899999999996
 20
61.149500000000003
 30
0.0
 11
67.836600000000004
 21
61.089500000000001
 31
0.0
  0
LINE
  5
341
  8
_________1
 62
     7
 10
67.836600000000004
 20
61.089500000000001
 30
0.0
 11
67.861699999999999
 21
61.068100000000001
 31
0.0
  0
LINE
  5
342
  8
_________1
 62
     7
 10
67.861699999999999
 20
61.068100000000001
 30
0.0
 11
67.861699999999999
 21
60.984099999999998
 31
0.0
  0
LINE
  5
343
  8
_________1
 62
     7
 10
67.861699999999999
 20
60.984099999999998
 30
0.0
 11
67.836600000000004
 21
60.962699999999998
 31
0.0
  0
LINE
  5
344
  8
_________1
 62
     7
 10
67.836600000000004
 20
60.962699999999998
 30
0.0
 11
67.613699999999994
 21
60.90379999999999
 31
0.0
  0
LINE
  5
345
  8
_________1
 62
     7
 10
68.192499999999995
 20
60.191000000000003
 30
0.0
 11
68.192499999999995
 21
61.858499999999999
 31
0.0
  0
ARC
  5
346
  8
_________1
 62
     7
 10
67.917484000000002
 20
59.251553000000001
 30
0.0
 40
2.6213700000000002
 50
83.978285999999997
 51
95.370908999999997
  0
ARC
  5
347
  8
_________1
 62
     7
 10
67.843383000000003
 20
60.22098299999999
 30
0.0
 40
1.6493469999999999
 50
95.960289000000003
 51
115.02171199999999
  0
ARC
  5
348
  8
_________1
 62
     7
 10
67.597461999999993
 20
60.806579000000013
 30
0.0
 40
1.014999999999999
 50
116.42431000000001
 51
140.806061
  0
ARC
  5
349
  8
_________1
 62
     7
 10
67.388631000000004
 20
61.026083999999997
 30
0.0
 40
0.7154560000000001
 50
143.86260300000001
 51
224.30363500000001
  0
ARC
  5
34A
  8
_________1
 62
     7
 10
67.598558999999995
 20
61.243586999999998
 30
0.0
 40
1.017647999999999
 50
224.812037
 51
250.532906
  0
ARC
  5
34B
  8
_________1
 62
     7
 10
67.819198999999998
 20
61.756230000000002
 30
0.0
 40
1.574954999999999
 50
249.18017699999999
 51
264.64140099999997
  0
ARC
  5
34C
  8
_________1
 62
     7
 10
67.919379000000006
 20
62.536966999999997
 30
0.0
 40
2.3617880000000002
 50
263.99051800000001
 51
276.64013499999999
  0
ARC
  5
34D
  8
_________1
 62
     7
 10
67.535574999999994
 20
61.371079000000002
 30
0.0
 40
0.306414
 50
98.029281000000026
 51
107.571719
  0
ARC
  5
34E
  8
_________1
 62
     7
 10
75.155280000000005
 20
30.742854000000001
 30
0.0
 40
31.867628
 50
104.005055
 51
104.53087499999999
  0
ARC
  5
34F
  8
_________1
 62
     7
 10
72.282382999999996
 20
56.242688000000001
 30
0.0
 40
7.4059619999999988
 50
133.76531499999999
 51
136.31922499999999
  0
ARC
  5
350
  8
_________1
 62
     7
 10
67.209149999999994
 20
61.240109999999987
 30
0.0
 40
0.306167
 50
157.446507
 51
166.91485
  0
ARC
  5
351
  8
_________1
 62
     7
 10
-129.467354
 20
119.783877
 30
0.0
 40
204.899226
 50
343.3354700000001
 51
343.4183470000001
  0
LINE
  5
352
  8
_________1
 62
     7
 10
66.826099999999997
 20
61.025399999999998
 30
0.0
 11
66.859200000000001
 21
60.9131
 31
0.0
  0
LINE
  5
353
  8
_________1
 62
     7
 10
66.859200000000001
 20
60.9131
 30
0.0
 11
66.926400000000001
 21
60.691600000000001
 31
0.0
  0
LINE
  5
354
  8
_________1
 62
     7
 10
66.926400000000001
 20
60.691600000000001
 30
0.0
 11
67.159599999999983
 21
60.458399999999997
 31
0.0
  0
ARC
  5
355
  8
_________1
 62
     7
 10
67.360031999999975
 20
60.967089999999999
 30
0.0
 40
0.5467750000000001
 50
248.49943400000001
 51
255.74812800000001
  0
ARC
  5
356
  8
_________1
 62
     7
 10
72.881994999999989
 20
79.16234399999999
 30
0.0
 40
19.560929000000002
 50
253.19131999999999
 51
254.00764000000001
  0
ARC
  5
357
  8
_________1
 62
     7
 10
64.429866000000004
 20
71.177058000000002
 30
0.0
 40
11.243824
 50
285.80762600000003
 51
287.58000700000002
  0
ARC
  5
358
  8
_________1
 62
     7
 10
67.650859999999994
 20
60.677802
 30
0.0
 40
0.280711
 50
308.58126600000003
 51
318.43243699999999
  0
ARC
  5
359
  8
_________1
 62
     7
 10
42.066118000000003
 20
86.300303999999997
 30
0.0
 40
36.489198999999999
 50
314.98446999999999
 51
315.42711400000002
  0
ARC
  5
35A
  8
_________1
 62
     7
 10
45.405312000000002
 20
66.526626000000007
 30
0.0
 40
23.393581999999999
 50
345.55630000000002
 51
346.399044
  0
ARC
  5
35B
  8
_________1
 62
     7
 10
67.811893000000012
 20
60.976464
 30
0.0
 40
0.334578
 50
8.415324
 51
17.544387
  0
ARC
  5
35C
  8
_________1
 62
     7
 10
37.196237000000004
 20
53.343107999999987
 30
0.0
 40
31.886862000000001
 50
14.037191999999999
 51
14.556794
  0
LINE
  5
35D
  8
_________1
 62
     7
 10
68.0595
 20
61.357500000000002
 30
0.0
 11
67.825900000000004
 21
61.591099999999997
 31
0.0
  0
ARC
  5
35E
  8
_________1
 62
     7
 10
63.907008999999988
 20
46.638956999999998
 30
0.0
 40
15.457197000000001
 50
75.313316999999984
 51
76.586297999999985
  0
LINE
  5
35F
  8
_________1
 62
     7
 10
63.775799999999997
 20
60.90379999999999
 30
0.0
 11
63.835399999999993
 21
60.6768
 31
0.0
  0
LINE
  5
360
  8
_________1
 62
     7
 10
63.835399999999993
 20
60.6768
 30
0.0
 11
63.856499999999997
 21
60.65229999999999
 31
0.0
  0
LINE
  5
361
  8
_________1
 62
     7
 10
63.856499999999997
 20
60.65229999999999
 30
0.0
 11
63.941200000000002
 21
60.65229999999999
 31
0.0
  0
LINE
  5
362
  8
_________1
 62
     7
 10
63.941200000000002
 20
60.65229999999999
 30
0.0
 11
63.962600000000002
 21
60.6768
 31
0.0
  0
LINE
  5
363
  8
_________1
 62
     7
 10
63.962600000000002
 20
60.6768
 30
0.0
 11
64.021500000000003
 21
60.89929999999999
 31
0.0
  0
LINE
  5
364
  8
_________1
 62
     7
 10
64.021500000000003
 20
60.89929999999999
 30
0.0
 11
64.248500000000007
 21
60.9589
 31
0.0
  0
LINE
  5
365
  8
_________1
 62
     7
 10
64.248500000000007
 20
60.9589
 30
0.0
 11
64.272999999999996
 21
60.981000000000002
 31
0.0
  0
LINE
  5
366
  8
_________1
 62
     7
 10
64.272999999999996
 20
60.981000000000002
 30
0.0
 11
64.272999999999996
 21
61.064700000000002
 31
0.0
  0
LINE
  5
367
  8
_________1
 62
     7
 10
64.272999999999996
 20
61.064700000000002
 30
0.0
 11
64.248500000000007
 21
61.085700000000003
 31
0.0
  0
LINE
  5
368
  8
_________1
 62
     7
 10
64.248500000000007
 20
61.085700000000003
 30
0.0
 11
64.02600000000001
 21
61.144599999999997
 31
0.0
  0
LINE
  5
369
  8
_________1
 62
     7
 10
64.02600000000001
 20
61.144599999999997
 30
0.0
 11
63.965299999999999
 21
61.372399999999999
 31
0.0
  0
LINE
  5
36A
  8
_________1
 62
     7
 10
63.965299999999999
 20
61.372399999999999
 30
0.0
 11
63.944299999999991
 21
61.397500000000001
 31
0.0
  0
LINE
  5
36B
  8
_________1
 62
     7
 10
63.944299999999991
 20
61.397500000000001
 30
0.0
 11
63.8596
 21
61.397500000000001
 31
0.0
  0
LINE
  5
36C
  8
_________1
 62
     7
 10
63.8596
 20
61.397500000000001
 30
0.0
 11
63.838500000000003
 21
61.372399999999999
 31
0.0
  0
LINE
  5
36D
  8
_________1
 62
     7
 10
63.838500000000003
 20
61.372399999999999
 30
0.0
 11
63.780000000000001
 21
61.149500000000003
 31
0.0
  0
LINE
  5
36E
  8
_________1
 62
     7
 10
63.780000000000001
 20
61.149500000000003
 30
0.0
 11
63.552900000000001
 21
61.089500000000001
 31
0.0
  0
LINE
  5
36F
  8
_________1
 62
     7
 10
63.552900000000001
 20
61.089500000000001
 30
0.0
 11
63.527799999999999
 21
61.068100000000001
 31
0.0
  0
LINE
  5
370
  8
_________1
 62
     7
 10
63.527799999999999
 20
61.068100000000001
 30
0.0
 11
63.527799999999999
 21
60.984099999999998
 31
0.0
  0
LINE
  5
371
  8
_________1
 62
     7
 10
63.527799999999999
 20
60.984099999999998
 30
0.0
 11
63.552900000000001
 21
60.962699999999998
 31
0.0
  0
LINE
  5
372
  8
_________1
 62
     7
 10
63.552900000000001
 20
60.962699999999998
 30
0.0
 11
63.775799999999997
 21
60.90379999999999
 31
0.0
  0
LINE
  5
373
  8
_________1
 62
     7
 10
63.197099999999999
 20
60.191000000000003
 30
0.0
 11
63.197099999999999
 21
61.858499999999999
 31
0.0
  0
ARC
  5
374
  8
_________1
 62
     7
 10
63.472054
 20
59.251553000000001
 30
0.0
 40
2.6213700000000002
 50
84.629070999999996
 51
96.021694000000011
  0
ARC
  5
375
  8
_________1
 62
     7
 10
63.546155000000013
 20
60.22098299999999
 30
0.0
 40
1.6493469999999999
 50
64.978268
 51
84.039691000000005
  0
ARC
  5
376
  8
_________1
 62
     7
 10
63.79207499999999
 20
60.806579000000013
 30
0.0
 40
1.014999999999999
 50
39.193919000000001
 51
63.575669999999988
  0
ARC
  5
377
  8
_________1
 62
     7
 10
64.000906000000001
 20
61.026083999999997
 30
0.0
 40
0.7154560000000001
 50
315.69640199999998
 51
36.137360000000001
  0
ARC
  5
378
  8
_________1
 62
     7
 10
63.790979000000007
 20
61.243586999999998
 30
0.0
 40
1.017647999999999
 50
289.46711399999998
 51
315.18798299999997
  0
ARC
  5
379
  8
_________1
 62
     7
 10
63.570339000000011
 20
61.756230000000002
 30
0.0
 40
1.574954999999999
 50
275.35861899999998
 51
290.81984199999999
  0
ARC
  5
37A
  8
_________1
 62
     7
 10
63.470158999999988
 20
62.536966999999997
 30
0.0
 40
2.3617880000000002
 50
263.35988500000002
 51
276.009502
  0
ARC
  5
37B
  8
_________1
 62
     7
 10
63.632193999999991
 20
60.332841000000002
 30
0.0
 40
1.3675520000000001
 50
74.280844999999999
 51
78.830438000000001
  0
ARC
  5
37C
  8
_________1
 62
     7
 10
59.672029000000002
 20
44.195267999999992
 30
0.0
 40
17.983217
 50
75.315866
 51
76.065224999999998
  0
ARC
  5
37D
  8
_________1
 62
     7
 10
36.095089000000002
 20
33.305717000000001
 30
0.0
 40
39.895744999999998
 50
44.678511999999998
 51
45.152214000000001
  0
ARC
  5
37E
  8
_________1
 62
     7
 10
64.235985999999997
 20
61.259253999999999
 30
0.0
 40
0.247821
 50
12.92478
 51
23.365499
  0
ARC
  5
37F
  8
_________1
 62
     7
 10
18.8721
 20
47.565121000000012
 30
0.0
 40
47.633029999999991
 50
16.414455
 51
16.777512999999999
  0
LINE
  5
380
  8
_________1
 62
     7
 10
64.563699999999983
 20
61.025399999999998
 30
0.0
 11
64.530299999999997
 21
60.9131
 31
0.0
  0
LINE
  5
381
  8
_________1
 62
     7
 10
64.530299999999997
 20
60.9131
 30
0.0
 11
64.463499999999996
 21
60.691600000000001
 31
0.0
  0
LINE
  5
382
  8
_________1
 62
     7
 10
64.463499999999996
 20
60.691600000000001
 30
0.0
 11
64.230599999999995
 21
60.458399999999997
 31
0.0
  0
ARC
  5
383
  8
_________1
 62
     7
 10
64.137433999999999
 20
60.671233999999991
 30
0.0
 40
0.232364
 50
282.96325999999999
 51
293.63585799999998
  0
ARC
  5
384
  8
_________1
 62
     7
 10
57.985663000000002
 20
80.920804000000004
 30
0.0
 40
21.395219000000001
 50
286.039354
 51
286.85595699999999
  0
ARC
  5
385
  8
_________1
 62
     7
 10
66.480378999999999
 20
69.597831999999997
 30
0.0
 40
9.5937160000000006
 50
252.298146
 51
254.37934899999999
  0
ARC
  5
386
  8
_________1
 62
     7
 10
63.717387000000002
 20
60.652471999999989
 30
0.0
 40
0.247849
 50
221.05430799999999
 51
231.552468
  0
ARC
  5
387
  8
_________1
 62
     7
 10
79.856201999999996
 20
76.86970500000001
 30
0.0
 40
23.126474999999999
 50
224.39086699999999
 51
225.09513799999999
  0
ARC
  5
388
  8
_________1
 62
     7
 10
85.984569999999991
 20
66.526626000000007
 30
0.0
 40
23.393581999999999
 50
193.600976
 51
194.44372000000001
  0
ARC
  5
389
  8
_________1
 62
     7
 10
63.577989000000002
 20
60.976464
 30
0.0
 40
0.334578
 50
162.45559299999999
 51
171.584656
  0
ARC
  5
38A
  8
_________1
 62
     7
 10
94.193645999999987
 20
53.343107999999987
 30
0.0
 40
31.886862000000001
 50
165.443186
 51
165.96278799999999
  0
LINE
  5
38B
  8
_________1
 62
     7
 10
63.330399999999997
 20
61.357500000000002
 30
0.0
 11
63.563299999999991
 21
61.591099999999997
 31
0.0
  0
ARC
  5
38C
  8
_________1
 62
     7
 10
69.543606999999994
 20
38.355114
 30
0.0
 40
23.993254
 50
103.61147800000001
 51
104.433159
  0
LINE
  5
38D
  8
_________1
  6
AIGENLINE001
 62
     7
 10
67.205500000000001
 20
120.34099999999999
 30
0.0
 11
67.205500000000001
 21
135.494
 31
0.0
  0
ARC
  5
38E
  8
_________1
 62
     7
 10
-34.404980999999999
 20
58.982469999999992
 30
0.0
 40
17.303946
 50
359.93841700000002
 51
13.520704
  0
ARC
  5
38F
  8
_________1
 62
     7
 10
-35.398729000000003
 20
58.979151999999992
 30
0.0
 40
18.297689999999999
 50
332.90139399999998
 51
359.95215000000002
  0
ARC
  5
390
  8
_________1
 62
     7
 10
-34.189574
 20
58.778706000000007
 30
0.0
 40
17.13401
 50
270.69490200000001
 51
331.65614599999998
  0
ARC
  5
391
  8
_________1
 62
     7
 10
-33.560538000000001
 20
57.228393999999987
 30
0.0
 40
15.588131000000001
 50
190.765286
 51
268.45152000000002
  0
LINE
  5
392
  8
_________1
 62
     7
 10
-48.874299999999998
 20
54.316800000000001
 30
0.0
 11
-49.370800000000003
 21
57.3795
 31
0.0
  0
LINE
  5
393
  8
_________1
 62
     7
 10
-50.492800000000003
 20
64.300700000000006
 30
0.0
 11
-51.081600000000002
 21
67.933899999999994
 31
0.0
  0
ARC
  5
394
  8
_________1
 62
     7
 10
-15.604710000000001
 20
72.150029000000004
 30
0.0
 40
35.726548999999999
 50
177.72338199999999
 51
186.77731299999999
  0
ARC
  5
395
  8
_________1
 62
     7
 10
-22.343440000000001
 20
72.223286000000002
 30
0.0
 40
28.990881000000002
 50
151.76292100000001
 51
177.33900399999999
  0
ARC
  5
396
  8
_________1
 62
     7
 10
-15.188701999999999
 20
68.596168999999975
 30
0.0
 40
37.010736999999999
 50
147.56935100000001
 51
152.056399
  0
ARC
  5
397
  8
_________1
 62
     7
 10
-3.5402870000000002
 20
61.332425999999991
 30
0.0
 40
50.738000999999997
 50
144.0618979999999
 51
147.70022
  0
ARC
  5
398
  8
_________1
 62
     7
 10
26.723375999999998
 20
39.76813700000001
 30
0.0
 40
87.897857999999999
 50
142.84939900000001
 51
144.259084
  0
ARC
  5
399
  8
_________1
 62
     7
 10
149.155315
 20
-52.743316
 30
0.0
 40
241.35121799999999
 50
142.39447100000001
 51
142.89729500000001
  0
ARC
  5
39A
  8
_________1
 62
     7
 10
-379.21695099999999
 20
353.40585299999998
 30
0.0
 40
425.08305899999988
 50
322.48346800000002
 51
322.730029
  0
ARC
  5
39B
  8
_________1
 62
     7
 10
-120.14189500000001
 20
156.12667999999999
 30
0.0
 40
99.446898000000004
 50
322.79024700000002
 51
324.00582400000002
  0
ARC
  5
39C
  8
_________1
 62
     7
 10
-82.658539000000005
 20
128.813793
 30
0.0
 40
53.068165
 50
324.08046899999999
 51
326.81082800000001
  0
ARC
  5
39D
  8
_________1
 62
     7
 10
-66.941318999999993
 20
118.40517699999999
 30
0.0
 40
34.217367000000003
 50
326.98990900000001
 51
331.17893400000003
  0
ARC
  5
39E
  8
_________1
 62
     7
 10
-58.916082000000003
 20
113.89453399999999
 30
0.0
 40
25.011887999999999
 50
331.36937400000011
 51
338.10010199999999
  0
ARC
  5
39F
  8
_________1
 62
     7
 10
-54.183455000000002
 20
111.89196
 30
0.0
 40
19.874065999999999
 50
338.36780399999998
 51
359.92532599999998
  0
LINE
  5
3A0
  8
_________1
 62
     7
 10
-34.309399999999997
 20
111.866
 30
0.0
 11
-34.309399999999997
 21
120.89700000000001
 31
0.0
  0
ARC
  5
3A1
  8
_________1
 62
     7
 10
-34.424886999999998
 20
58.979458999999991
 30
0.0
 40
15.490702000000001
 50
359.9423450000001
 51
13.514498
  0
ARC
  5
3A2
  8
_________1
 62
     7
 10
-35.301015999999997
 20
58.983024999999991
 30
0.0
 40
16.366834999999998
 50
330.30893500000002
 51
359.93294600000002
  0
ARC
  5
3A3
  8
_________1
 62
     7
 10
-34.144577000000012
 20
58.707069999999987
 30
0.0
 40
15.229182
 50
270.61252000000002
 51
329.05568599999998
  0
ARC
  5
3A4
  8
_________1
 62
     7
 10
-33.611772999999999
 20
57.167719999999989
 30
0.0
 40
13.693962000000001
 50
190.76800900000001
 51
268.45172500000001
  0
LINE
  5
3A5
  8
_________1
 62
     7
 10
-47.064599999999992
 20
54.609200000000001
 30
0.0
 11
-47.561
 21
57.669499999999999
 31
0.0
  0
LINE
  5
3A6
  8
_________1
 62
     7
 10
-48.683799999999998
 20
64.593900000000005
 30
0.0
 11
-49.2667
 21
68.188500000000005
 31
0.0
  0
ARC
  5
3A7
  8
_________1
 62
     7
 10
-15.368112999999999
 20
72.214817000000011
 30
0.0
 40
34.136887999999999
 50
177.88888399999999
 51
186.77357799999999
  0
ARC
  5
3A8
  8
_________1
 62
     7
 10
-22.549696999999998
 20
72.28635899999999
 30
0.0
 40
26.958234000000001
 50
152.09620200000001
 51
177.478568
  0
ARC
  5
3A9
  8
_________1
 62
     7
 10
-15.510978
 20
68.703668000000008
 30
0.0
 40
34.855485999999999
 50
147.43815000000001
 51
152.30642700000001
  0
ARC
  5
3AA
  8
_________1
 62
     7
 10
-4.7335659999999997
 20
61.982232999999987
 30
0.0
 40
47.556542999999991
 50
144.78511599999999
 51
147.60152600000001
  0
ARC
  5
3AB
  8
_________1
 62
     7
 10
14.148585000000001
 20
48.818002999999997
 30
0.0
 40
70.574375000000003
 50
143.32352
 51
144.89323200000001
  0
ARC
  5
3AC
  8
_________1
 62
     7
 10
52.207508000000011
 20
20.655688000000001
 30
0.0
 40
117.919754
 50
142.83318700000001
 51
143.394296
  0
ARC
  5
3AD
  8
_________1
 62
     7
 10
184.53545800000001
 20
-79.833209999999994
 30
0.0
 40
284.07840599999997
 50
142.41976399999999
 51
142.80629400000001
  0
ARC
  5
3AE
  8
_________1
 62
     7
 10
-415.01686699999999
 20
380.88412099999999
 30
0.0
 40
472.04567099999991
 50
322.4842779999999
 51
322.69750199999999
  0
ARC
  5
3AF
  8
_________1
 62
     7
 10
-124.197789
 20
159.212199
 30
0.0
 40
106.376223
 50
322.743382
 51
323.99159100000008
  0
ARC
  5
3B0
  8
_________1
 62
     7
 10
-82.902974
 20
129.08284599999999
 30
0.0
 40
55.258493999999992
 50
324.09026899999998
 51
326.76279399999999
  0
ARC
  5
3B1
  8
_________1
 62
     7
 10
-66.177499999999995
 20
117.99741299999999
 30
0.0
 40
35.193322999999999
 50
326.93310100000002
 51
332.02132999999998
  0
ARC
  5
3B2
  8
_________1
 62
     7
 10
-57.46951
 20
113.226798
 30
0.0
 40
25.265326000000002
 50
332.31102700000002
 51
340.09179
  0
ARC
  5
3B3
  8
_________1
 62
     7
 10
-53.740273999999999
 20
111.76473300000001
 30
0.0
 40
21.261354999999998
 50
340.37429800000001
 51
355.01666599999999
  0
ARC
  5
3B4
  8
_________1
  6
AIGENLINE001
 62
     7
 10
-34.433863000000002
 20
58.97799599999999
 30
0.0
 40
16.416422000000001
 50
359.95069999999998
 51
13.512402
  0
ARC
  5
3B5
  8
_________1
  6
AIGENLINE001
 62
     7
 10
-35.227255
 20
58.995975000000001
 30
0.0
 40
17.209838000000001
 50
326.38649100000009
 51
359.89311800000002
  0
ARC
  5
3B6
  8
_________1
  6
AIGENLINE001
 62
     7
 10
-34.098236
 20
58.634951999999998
 30
0.0
 40
16.073017
 50
270.41516300000001
 51
325.23018100000002
  0
ARC
  5
3B7
  8
_________1
  6
AIGENLINE001
 62
     7
 10
-33.585163000000001
 20
57.199311999999999
 30
0.0
 40
14.642327999999999
 50
190.76854700000001
 51
268.44786800000003
  0
ARC
  5
3B8
  8
_________1
 62
     7
 10
-22.768982000000001
 20
111.71719
 30
0.0
 40
8.1248100000000001
 50
180.675152
 51
193.52104399999999
  0
ARC
  5
3B9
  8
_________1
  6
AIGENLINE001
 62
     7
 10
-21.578071000000001
 20
111.853407
 30
0.0
 40
8.4814480000000003
 50
179.914514
 51
193.55781400000001
  0
ARC
  5
3BA
  8
_________1
 62
     7
 10
-22.842210999999999
 20
111.702895
 30
0.0
 40
6.3839300000000003
 50
179.92389299999999
 51
193.5399699999999
  0
INSERT
  5
3BB
  8
_________1
 62
     7
  2
AIGNBL02010009
 10
0.0
 20
0.0
 30
0.0
  0
INSERT
  5
3BC
  8
_________1
 62
     7
  2
AIGNBL0201000A
 10
0.0
 20
0.0
 30
0.0
  0
INSERT
  5
3BD
  8
_________1
 62
     7
  2
AIGNBL0201000B
 10
0.0
 20
0.0
 30
0.0
  0
INSERT
  5
3BE
  8
_________1
 62
     7
  2
AIGNBL0201000D
 10
0.0
 20
0.0
 30
0.0
  0
LINE
  5
3BF
  8
_________1
 62
     7
 10
70.288499999999999
 20
135.80000000000001
 30
0.0
 11
70.288499999999999
 21
140.637
 31
0.0
  0
LINE
  5
3C0
  8
_________1
 62
     7
 10
61.12169999999999
 20
135.80000000000001
 30
0.0
 11
61.12169999999999
 21
140.637
 31
0.0
  0
INSERT
  5
3C1
  8
_________1
 62
     7
  2
AIGNBL0201000E
 10
0.0
 20
0.0
 30
0.0
  0
LINE
  5
3C2
  8
_________1
 62
     7
 10
29.0883
 20
171.72999999999999
 30
0.0
 11
22.002099999999999
 21
171.72999999999999
 31
0.0
  0
INSERT
  5
3C3
  8
_________1
 62
     7
  2
AIGNBL0201000F
 10
0.0
 20
0.0
 30
0.0
  0
INSERT
  5
3C4
  8
_________1
 62
     7
  2
AIGNBL02010010
 10
0.0
 20
0.0
 30
0.0
  0
INSERT
  5
3C5
  8
_________1
 62
     7
  2
AIGNBL02010011
 10
0.0
 20
0.0
 30
0.0
  0
INSERT
  5
3C6
  8
_________1
 62
     7
  2
AIGNBL02010012
 10
0.0
 20
0.0
 30
0.0
  0
LINE
  5
3C7
  8
_________1
 62
     7
 10
-22.892299999999999
 20
270.38900000000001
 30
0.0
 11
-22.558800000000002
 21
270.38900000000001
 31
0.0
  0
LINE
  5
3C8
  8
_________1
 62
     7
 10
-22.892299999999999
 20
264.38900000000001
 30
0.0
 11
-22.558800000000002
 21
264.38900000000001
 31
0.0
  0
LINE
  5
3C9
  8
_________1
 62
     7
 10
-22.892299999999999
 20
270.72199999999998
 30
0.0
 11
-22.892299999999999
 21
264.05599999999998
 31
0.0
  0
LINE
  5
3CA
  8
_________1
 62
     7
 10
-22.558800000000002
 20
270.72199999999998
 30
0.0
 11
-22.558800000000002
 21
264.05599999999998
 31
0.0
  0
LINE
  5
3CB
  8
_________1
 62
     7
 10
-3.126269999999999
 20
154.06299999999999
 30
0.0
 11
-18.093599999999999
 21
154.06299999999999
 31
0.0
  0
LINE
  5
3CC
  8
_________1
 62
     7
 10
3.6116899999999998
 20
168.39699999999999
 30
0.0
 11
-19.230799999999999
 21
168.39699999999999
 31
0.0
  0
LINE
  5
3CD
  8
_________1
 62
     7
 10
-10.8254
 20
49.228999999999999
 30
0.0
 11
-28.854399999999998
 21
49.228999999999999
 31
0.0
  0
LINE
  5
3CE
  8
_________1
 62
     7
 10
3.6116899999999998
 20
134.22999999999999
 30
0.0
 11
-26.442799999999998
 21
134.22999999999999
 31
0.0
  0
LINE
  5
3CF
  8
_________1
 62
     7
 10
99.260900000000021
 20
212.39699999999999
 30
0.0
 11
53.003
 21
212.39699999999999
 31
0.0
  0
LINE
  5
3D0
  8
_________1
 62
     7
 10
93.491699999999994
 20
161.845
 30
0.0
 11
78.713200000000001
 21
161.845
 31
0.0
  0
LINE
  5
3D1
  8
_________1
 62
     7
 10
99.260900000000021
 20
134.22999999999999
 30
0.0
 11
70.988500000000002
 21
134.22999999999999
 31
0.0
  0
LINE
  5
3D2
  8
_________1
 62
     7
 10
60.421700000000001
 20
134.22999999999999
 30
0.0
 11
22.002099999999999
 21
134.22999999999999
 31
0.0
  0
INSERT
  5
3D3
  8
_________1
 62
     7
  2
AIGNBL02010013
 10
0.0
 20
0.0
 30
0.0
  0
INSERT
  5
3D4
  8
_________1
 62
     7
  2
AIGNBL02010014
 10
0.0
 20
0.0
 30
0.0
  0
INSERT
  5
3D5
  8
_________1
 62
     7
  2
AIGNBL02010015
 10
0.0
 20
0.0
 30
0.0
  0
INSERT
  5
3D6
  8
_________1
 62
     7
  2
AIGNBL02010016
 10
0.0
 20
0.0
 30
0.0
  0
INSERT
  5
3D7
  8
_________1
 62
     7
  2
AIGNBL02010017
 10
0.0
 20
0.0
 30
0.0
  0
ARC
  5
3D8
  8
_________1
 62
     7
 10
-28.024158
 20
154.01601199999999
 30
0.0
 40
1.6046969999999989
 50
178.33834400000001
 51
182.00966500000001
  0
ARC
  5
3D9
  8
_________1
 62
     7
 10
-24.662164000000001
 20
154.08545699999999
 30
0.0
 40
4.9672960000000002
 50
181.45027899999999
 51
204.66183000000001
  0
ARC
  5
3DA
  8
_________1
 62
     7
 10
-25.957421
 20
153.537464
 30
0.0
 40
3.561780999999999
 50
205.34474
 51
228.55812
  0
ARC
  5
3DB
  8
_________1
 62
     7
 10
-26.311332
 20
153.22060999999999
 30
0.0
 40
3.090517999999999
 50
229.588752
 51
237.37334200000001
  0
ARC
  5
3DC
  8
_________1
 62
     7
 10
-28.024158
 20
154.10907499999999
 30
0.0
 40
1.6046969999999989
 50
177.99033499999999
 51
181.66165599999999
  0
ARC
  5
3DD
  8
_________1
 62
     7
 10
-24.662164000000001
 20
154.03962999999999
 30
0.0
 40
4.9672960000000002
 50
155.33816999999999
 51
178.54972100000001
  0
ARC
  5
3DE
  8
_________1
 62
     7
 10
-25.957421
 20
154.58762300000001
 30
0.0
 40
3.561780999999999
 50
131.44188
 51
154.65526
  0
ARC
  5
3DF
  8
_________1
 62
     7
 10
-26.311332
 20
154.90447700000001
 30
0.0
 40
3.090517999999999
 50
122.62665800000001
 51
130.411248
  0
LINE
  5
3E0
  8
_________1
 62
     7
 10
-30.5808
 20
270.87400000000002
 30
0.0
 11
-30.583500000000001
 21
270.875
 31
0.0
  0
ARC
  5
3E1
  8
_________1
 62
     7
 10
-28.575921999999998
 20
248.82196999999999
 30
0.0
 40
21.902062000000001
 50
89.994895000000014
 51
91.305414999999996
  0
ARC
  5
3E2
  8
_________1
 62
     7
 10
-29.238333000000001
 20
285.61303199999998
 30
0.0
 40
14.895581
 50
268.67261400000001
 51
270.62868500000002
  0
ARC
  5
3E3
  8
_________1
 62
     7
 10
-29.424575000000001
 20
275.684888
 30
0.0
 40
4.9659800000000001
 50
262.27334200000001
 51
268.16729299999997
  0
ARC
  5
3E4
  8
_________1
 62
     7
 10
-29.637055
 20
273.92806200000001
 30
0.0
 40
3.196639999999999
 50
252.8295
 51
261.813602
  0
ARC
  5
3E5
  8
_________1
 62
     7
 10
-28.575921999999998
 20
285.95944900000001
 30
0.0
 40
21.902062000000001
 50
268.69458500000002
 51
270.0051049999999
  0
ARC
  5
3E6
  8
_________1
 62
     7
 10
-29.238482000000001
 20
249.154583
 30
0.0
 40
14.909385
 50
89.371321999999978
 51
91.326906000000008
  0
ARC
  5
3E7
  8
_________1
 62
     7
 10
-29.320260000000001
 20
256.81498199999999
 30
0.0
 40
7.2497769999999999
 50
92.082747999999981
 51
93.276623999999984
  0
ARC
  5
3E8
  8
_________1
 62
     7
 10
27.772962
 20
176.29354799999999
 30
0.0
 40
2.1535660000000001
 50
357.70775800000001
 51
0.045637
  0
ARC
  5
3E9
  8
_________1
 62
     7
 10
27.139154999999999
 20
176.306118
 30
0.0
 40
2.7873990000000002
 50
356.16952600000002
 51
357.970665
  0
ARC
  5
3EA
  8
_________1
 62
     7
 10
27.845423
 20
176.267369
 30
0.0
 40
2.0801369999999988
 50
353.55232699999999
 51
355.934844
  0
ARC
  5
3EB
  8
_________1
 62
     7
 10
27.964445999999999
 20
176.22436099999999
 30
0.0
 40
1.9572579999999999
 50
351.9488990000001
 51
354.41214200000002
  0
ARC
  5
3EC
  8
_________1
 62
     7
 10
27.476362999999999
 20
176.293431
 30
0.0
 40
2.4502039999999998
 50
350.04354799999999
 51
351.94820299999998
  0
ARC
  5
3ED
  8
_________1
 62
     7
 10
28.248671000000002
 20
176.13485
 30
0.0
 40
1.662263
 50
348.15528000000012
 51
350.824636
  0
ARC
  5
3EE
  8
_________1
 62
     7
 10
26.565535000000001
 20
176.468974
 30
0.0
 40
3.3781940000000001
 50
347.24627900000002
 51
348.46855799999997
  0
ARC
  5
3EF
  8
_________1
 62
     7
 10
27.058754
 20
176.363472
 30
0.0
 40
2.8738589999999991
 50
345.83419600000002
 51
347.12697800000001
  0
ARC
  5
3F0
  8
_________1
 62
     7
 10
28.285270000000001
 20
176.038828
 30
0.0
 40
1.6052559999999989
 50
344.31546299999991
 51
346.355617
  0
ARC
  5
3F1
  8
_________1
 62
     7
 10
28.006129999999999
 20
176.08748
 30
0.0
 40
1.887372
 50
343.70246600000002
 51
345.18437899999998
  0
ARC
  5
3F2
  8
_________1
 62
     7
 10
28.453467
 20
175.932266
 30
0.0
 40
1.4146469999999991
 50
343.04674399999999
 51
344.651993
  0
ARC
  5
3F3
  8
_________1
 62
     7
 10
18.250530999999999
 20
179.14606900000001
 30
0.0
 40
12.111715999999999
 50
342.43719099999998
 51
342.57816400000002
  0
ARC
  5
3F4
  8
_________1
 62
     7
 10
24.014285999999998
 20
177.28503799999999
 30
0.0
 40
6.0551620000000002
 50
342.58285899999998
 51
342.76896499999998
  0
ARC
  5
3F5
  8
_________1
 62
     7
 10
29.572019000000001
 20
175.53926100000001
 30
0.0
 40
0.2297
 50
340.63478099999998
 51
343.12150200000002
  0
ARC
  5
3F6
  8
_________1
 62
     7
 10
30.160654999999998
 20
175.34661600000001
 30
0.0
 40
0.3897439999999999
 50
161.14537100000001
 51
162.610873
  0
LINE
  5
3F7
  8
_________1
 62
     7
 10
29.788699999999999
 20
175.46299999999999
 30
0.0
 11
29.791799999999999
 21
175.47300000000001
 31
0.0
  0
ARC
  5
3F8
  8
_________1
 62
     7
 10
27.772962
 20
176.29697899999999
 30
0.0
 40
2.1535660000000001
 50
359.954363
 51
2.292241999999999
  0
ARC
  5
3F9
  8
_________1
 62
     7
 10
27.12068
 20
176.28309400000001
 30
0.0
 40
2.8059090000000002
 50
2.042802
 51
3.8285439999999991
  0
ARC
  5
3FA
  8
_________1
 62
     7
 10
27.868473999999999
 20
176.3246419999999
 30
0.0
 40
2.0570270000000002
 50
4.064633999999999
 51
6.469144
  0
ARC
  5
3FB
  8
_________1
 62
     7
 10
27.937134000000011
 20
176.36312599999999
 30
0.0
 40
1.984702999999999
 50
5.5885220000000002
 51
8.0226369999999996
  0
ARC
  5
3FC
  8
_________1
 62
     7
 10
27.530868999999999
 20
176.30466999999999
 30
0.0
 40
2.3951500000000001
 50
8.0509450000000005
 51
9.9953130000000012
  0
ARC
  5
3FD
  8
_________1
 62
     7
 10
28.214656000000002
 20
176.449806
 30
0.0
 40
1.6967239999999999
 50
9.1764189999999992
 51
11.797269999999999
  0
ARC
  5
3FE
  8
_________1
 62
     7
 10
26.565535000000001
 20
176.12137999999999
 30
0.0
 40
3.3781940000000001
 50
11.531442
 51
12.753721000000001
  0
ARC
  5
3FF
  8
_________1
 62
     7
 10
26.835395999999999
 20
176.173179
 30
0.0
 40
3.1035689999999989
 50
12.920866
 51
14.117959000000001
  0
ARC
  5
400
  8
_________1
 62
     7
 10
27.619748000000001
 20
176.38929099999999
 30
0.0
 40
2.290265999999999
 50
13.660987
 51
15.084567
  0
ARC
  5
401
  8
_________1
 62
     7
 10
25.168942999999999
 20
175.678708
 30
0.0
 40
4.8417899999999996
 50
15.656015999999999
 51
16.234772
  0
ARC
  5
402
  8
_________1
 62
     7
 10
31.380471
 20
177.50555499999999
 30
0.0
 40
1.632879999999999
 50
195.45530299999999
 51
196.846
  0
ARC
  5
403
  8
_________1
 62
     7
 10
29.474962999999999
 20
176.98221699999999
 30
0.0
 40
0.343201
 50
14.891302
 51
19.895339
  0
ARC
  5
404
  8
_________1
 62
     7
 10
29.847221000000001
 20
177.12470099999999
 30
0.0
 40
0.055807
 50
186.94063600000001
 51
207.41120699999999
  0
ARC
  5
405
  8
_________1
 62
     7
 10
29.779353
 20
177.118968
 30
0.0
 40
0.012512
 50
355.36649699999998
 51
41.503396999999993
  0
ARC
  5
406
  8
_________1
 62
     7
 10
-20.232500000000002
 20
270.55125099999998
 30
0.0
 40
0.173257
 50
2.168069
 51
87.772638999999984
  0
ARC
  5
407
  8
_________1
 62
     7
 10
-20.232755999999998
 20
264.23127799999997
 30
0.0
 40
0.173516
 50
272.308672
 51
357.80984000000001
  0
ARC
  5
408
  8
_________1
 62
     7
 10
-20.232744
 20
266.981337
 30
0.0
 40
0.17351
 50
272.30474099999998
 51
357.75454999999999
  0
ARC
  5
409
  8
_________1
 62
     7
 10
-20.232675
 20
267.80119100000002
 30
0.0
 40
0.173431
 50
2.164463
 51
87.717025000000007
  0
ARC
  5
40A
  8
_________1
 62
     7
 10
-20.954094999999999
 20
267.36920800000001
 30
0.0
 40
0.6056770000000001
 50
92.083351000000008
 51
177.916619
  0
ARC
  5
40B
  8
_________1
 62
     7
 10
-20.953707999999999
 20
267.41363200000001
 30
0.0
 40
0.6060780000000001
 50
182.11862600000001
 51
267.88140299999998
  0
ARC
  5
40C
  8
_________1
 62
     7
 10
-31.726257
 20
267.39070900000002
 30
0.0
 40
1.991622999999999
 50
0.00001
 51
89.999980000000008
  0
ARC
  5
40D
  8
_________1
 62
     7
 10
-31.649253999999999
 20
267.31370600000002
 30
0.0
 40
2.0700579999999991
 50
92.131799999999984
 51
177.86816999999999
  0
ARC
  5
40E
  8
_________1
 62
     7
 10
-31.809131000000001
 20
267.32171599999998
 30
0.0
 40
2.0775570000000001
 50
356.88937600000003
 51
82.677968999999976
  0
ARC
  5
40F
  8
_________1
 62
     7
 10
-31.657423000000001
 20
267.308063
 30
0.0
 40
2.0773479999999989
 50
86.879895999999988
 51
172.68832800000001
  0
ARC
  5
410
  8
_________1
 62
     7
 10
-32.772055000000002
 20
267.460059
 30
0.0
 40
0.952477
 50
173.224029
 51
178.2352939999999
  0
ARC
  5
411
  8
_________1
 62
     7
 10
-31.589002000000001
 20
267.39633300000003
 30
0.0
 40
2.137105
 50
177.504323
 51
185.02942400000001
  0
ARC
  5
412
  8
_________1
 62
     7
 10
-31.919727000000002
 20
267.43215900000001
 30
0.0
 40
3.808991999999999
 50
305.01264900000001
 51
30.802624999999999
  0
ARC
  5
413
  8
_________1
 62
     7
 10
-31.726368999999998
 20
267.39067799999998
 30
0.0
 40
3.6666249999999989
 50
32.907105000000001
 51
122.904427
  0
ARC
  5
414
  8
_________1
 62
     7
 10
-31.726108
 20
267.390782
 30
0.0
 40
3.6666780000000001
 50
122.908733
 51
212.90733900000001
  0
ARC
  5
415
  8
_________1
 62
     7
 10
-33.397179999999999
 20
266.21421900000001
 30
0.0
 40
1.626488999999999
 50
210.0908410000001
 51
214.12116599999999
  0
ARC
  5
416
  8
_________1
 62
     7
 10
-32.368320000000011
 20
266.91110600000002
 30
0.0
 40
2.8691490000000002
 50
214.11691800000011
 51
222.0555720000001
  0
ARC
  5
417
  8
_________1
 62
     7
 10
-31.436859999999999
 20
267.69555099999991
 30
0.0
 40
4.0864260000000003
 50
221.473795
 51
234.09470099999999
  0
ARC
  5
418
  8
_________1
 62
     7
 10
-32.832841999999999
 20
265.83386100000001
 30
0.0
 40
1.7602409999999991
 50
235.362438
 51
239.802064
  0
ARC
  5
419
  8
_________1
 62
     7
 10
-31.726085000000001
 20
267.39070800000002
 30
0.0
 40
4.5832040000000003
 50
46.666066999999991
 51
136.66603699999999
  0
ARC
  5
41A
  8
_________1
 62
     7
 10
-31.726085999999999
 20
267.39070900000002
 30
0.0
 40
4.5832019999999991
 50
136.66603699999999
 51
226.66608600000001
  0
ARC
  5
41B
  8
_________1
 62
     7
 10
-33.468065000000003
 20
265.431219
 30
0.0
 40
1.9640369999999989
 50
224.400498
 51
227.95534100000009
  0
ARC
  5
41C
  8
_________1
 62
     7
 10
-32.20736500000001
 20
266.828284
 30
0.0
 40
3.8458329999999998
 50
227.94645800000001
 51
234.627341
  0
ARC
  5
41D
  8
_________1
 62
     7
 10
-31.285709000000011
 20
268.03492599999998
 30
0.0
 40
5.363535999999999
 50
234.0610970000001
 51
239.766863
  0
ARC
  5
41E
  8
_________1
 62
     7
 10
-32.555556000000003
 20
265.85479400000003
 30
0.0
 40
2.8405439999999991
 50
239.754491
 51
245.846022
  0
ARC
  5
41F
  8
_________1
 62
     7
 10
-30.542611000000001
 20
265.11724400000003
 30
0.0
 40
2.0228239999999991
 50
293.55318499999998
 51
297.00430899999998
  0
ARC
  5
420
  8
_________1
 62
     7
 10
-31.369053999999998
 20
266.73502000000002
 30
0.0
 40
3.8394709999999992
 50
297.03079200000002
 51
303.72235499999999
  0
ARC
  5
421
  8
_________1
 62
     7
 10
-32.173375999999998
 20
268.035844
 30
0.0
 40
5.368214
 50
303.15461800000003
 51
308.8556319999999
  0
ARC
  5
422
  8
_________1
 62
     7
 10
-30.593903999999998
 20
266.07498099999998
 30
0.0
 40
2.8503340000000001
 50
308.85938599999997
 51
314.93036000000001
  0
ARC
  5
423
  8
_________1
 62
     7
 10
-31.027263000000001
 20
231.261764
 30
0.0
 40
0.134383
 50
283.04726799999997
 51
359.63312400000001
  0
ARC
  5
424
  8
_________1
 62
     7
 10
-32.425725
 20
231.26146299999999
 30
0.0
 40
0.133907
 50
180.23951700000001
 51
257.26498500000002
  0
ARC
  5
425
  8
_________1
 62
     7
 10
-31.650054000000001
 20
234.13454200000001
 30
0.0
 40
2.0692289999999991
 50
182.11051399999999
 51
267.88951600000001
  0
ARC
  5
426
  8
_________1
 62
     7
 10
-31.726257
 20
234.05833899999999
 30
0.0
 40
1.991622999999999
 50
270.00002000000001
 51
359.99999000000003
  0
ARC
  5
427
  8
_________1
 62
     7
 10
-31.726272999999999
 20
234.05005700000001
 30
0.0
 40
1.999865999999999
 50
174.79083900000001
 51
264.79169899999999
  0
ARC
  5
428
  8
_________1
 62
     7
 10
-31.794785000000001
 20
234.13237100000001
 30
0.0
 40
2.0770009999999992
 50
266.88045799999998
 51
352.69673799999998
  0
ARC
  5
429
  8
_________1
 62
     7
 10
-30.746480999999999
 20
233.986007
 30
0.0
 40
1.018664999999999
 50
353.36690499999997
 51
358.21608400000002
  0
ARC
  5
42A
  8
_________1
 62
     7
 10
-31.86017
 20
234.04441399999999
 30
0.0
 40
2.1337639999999989
 50
357.57944900000001
 51
5.0335499999999991
  0
ARC
  5
42B
  8
_________1
 62
     7
 10
-31.726088000000001
 20
234.05008599999999
 30
0.0
 40
2.583327999999999
 50
140.45731799999999
 51
230.45203199999989
  0
ARC
  5
42C
  8
_________1
 62
     7
 10
-31.726158000000002
 20
234.049845
 30
0.0
 40
2.5830980000000001
 50
230.44980799999999
 51
320.454183
  0
ARC
  5
42D
  8
_________1
 62
     7
 10
-31.581033999999999
 20
233.989992
 30
0.0
 40
2.4335230000000001
 50
319.36527999999998
 51
354.86127399999998
  0
ARC
  5
42E
  8
_________1
 62
     7
 10
-31.779184000000011
 20
234.03316799999999
 30
0.0
 40
2.634863999999999
 50
354.31210800000002
 51
39.095970999999999
  0
ARC
  5
42F
  8
_________1
 62
     7
 10
-31.982789
 20
232.83806999999999
 30
0.0
 40
1.7713869999999989
 50
254.531161
 51
263.358384
  0
ARC
  5
430
  8
_________1
 62
     7
 10
-31.73137800000001
 20
234.62780599999999
 30
0.0
 40
3.578444999999999
 50
262.67428100000001
 51
279.78072300000002
  0
ARC
  5
431
  8
_________1
 62
     7
 10
-31.428968000000001
 20
232.69932399999999
 30
0.0
 40
1.6268899999999991
 50
280.82293300000009
 51
285.40044
  0
ARC
  5
432
  8
_________1
 62
     7
 10
-36.222994
 20
134.97641899999999
 30
0.0
 40
0.086709
 50
92.165056000000007
 51
177.834914
  0
ARC
  5
433
  8
_________1
 62
     7
 10
-27.229500000000002
 20
134.97644
 30
0.0
 40
0.086688
 50
2.1517400000000002
 51
87.848249999999993
  0
ARC
  5
434
  8
_________1
 62
     7
 10
-20.231967000000001
 20
150.90232399999999
 30
0.0
 40
0.172699
 50
272.05762799999991
 51
358.06088399999999
  0
ARC
  5
435
  8
_________1
 62
     7
 10
-20.232675
 20
168.22317699999999
 30
0.0
 40
0.173431
 50
2.164463
 51
87.717025000000007
  0
ARC
  5
436
  8
_________1
 62
     7
 10
-20.780390000000001
 20
167.61748899999989
 30
0.0
 40
0.779521
 50
92.130552000000009
 51
177.86941899999999
  0
ARC
  5
437
  8
_________1
 62
     7
 10
-31.726171000000001
 20
176.295177
 30
0.0
 40
0.8332879999999999
 50
0.005932
 51
90.005902000000006
  0
ARC
  5
438
  8
_________1
 62
     7
 10
-31.726343
 20
176.295177
 30
0.0
 40
0.8332879999999999
 50
89.994078000000002
 51
179.99404799999999
  0
ARC
  5
439
  8
_________1
 62
     7
 10
-31.726257
 20
176.29526300000001
 30
0.0
 40
0.8333739999999998
 50
179.99996999999999
 51
270.00002000000001
  0
ARC
  5
43A
  8
_________1
 62
     7
 10
-31.726257
 20
176.29526300000001
 30
0.0
 40
0.8333739999999998
 50
270.00002000000001
 51
359.99999000000003
  0
LINE
  5
43B
  8
_________1
 62
     7
 10
-26.698499999999999
 20
157.398
 30
0.0
 11
-26.6265
 21
157.39599999999999
 31
0.0
  0
ARC
  5
43C
  8
_________1
 62
     7
 10
-26.623315000000002
 20
149.35256100000001
 30
0.0
 40
1.3768359999999991
 50
90.130442000000016
 51
93.142692000000011
  0
ARC
  5
43D
  8
_________1
 62
     7
 10
-26.470870000000001
 20
158.830142
 30
0.0
 40
1.5887489999999991
 50
180.039928
 51
182.66862800000001
  0
ARC
  5
43E
  8
_________1
 62
     7
 10
-26.836449000000002
 20
149.30356900000001
 30
0.0
 40
1.2231939999999999
 50
176.93763000000001
 51
180.36023999999989
  0
ARC
  5
43F
  8
_________1
 62
     7
 10
-26.594774000000001
 20
149.26415
 30
0.0
 40
1.4668689999999991
 50
94.066564000000014
 51
175.90435199999999
  0
ARC
  5
440
  8
_________1
 62
     7
 10
-26.595486000000001
 20
158.86025000000001
 30
0.0
 40
1.4661090000000001
 50
184.07086399999989
 51
265.97274199999998
  0
ARC
  5
441
  8
_________1
 62
     7
 10
-31.726257
 20
210.40536900000001
 30
0.0
 40
1.991622999999999
 50
0.00001
 51
89.999980000000008
  0
ARC
  5
442
  8
_________1
 62
     7
 10
-31.649253999999999
 20
210.32836599999999
 30
0.0
 40
2.0700579999999991
 50
92.131799999999984
 51
177.86816999999999
  0
ARC
  5
443
  8
_________1
 62
     7
 10
-31.760959
 20
183.186713
 30
0.0
 40
2.4101129999999991
 50
159.443018
 51
162.64590200000001
  0
ARC
  5
444
  8
_________1
 62
     7
 10
-29.774895000000001
 20
182.56530799999999
 30
0.0
 40
4.4911209999999988
 50
162.63666599999999
 51
168.90189899999999
  0
ARC
  5
445
  8
_________1
 62
     7
 10
-27.546609000000011
 20
182.068444
 30
0.0
 40
6.7736309999999991
 50
168.40578300000001
 51
176.03183799999999
  0
ARC
  5
446
  8
_________1
 62
     7
 10
-30.939959000000002
 20
182.318499
 30
0.0
 40
3.3711440000000001
 50
176.28047799999999
 51
181.81779399999999
  0
ARC
  5
447
  8
_________1
 62
     7
 10
-36.352699999999999
 20
184.90446499999999
 30
0.0
 40
2.4924140000000001
 50
339.53419100000002
 51
342.63162199999999
  0
ARC
  5
448
  8
_________1
 62
     7
 10
-38.277571999999999
 20
185.50324800000001
 30
0.0
 40
4.5082680000000002
 50
342.67127799999997
 51
348.91371299999997
  0
ARC
  5
449
  8
_________1
 62
     7
 10
-40.501474999999999
 20
185.99876399999999
 30
0.0
 40
6.7862049999999998
 50
348.41860200000002
 51
356.03022099999998
  0
ARC
  5
44A
  8
_________1
 62
     7
 10
-37.092874999999999
 20
185.74755099999999
 30
0.0
 40
3.3684229999999999
 50
356.27910300000002
 51
1.8182879999999999
  0
ARC
  5
44B
  8
_________1
 62
     7
 10
-31.583034000000001
 20
182.31131400000001
 30
0.0
 40
2.4423080000000001
 50
357.65922699999999
 51
0.8210319999999999
  0
ARC
  5
44C
  8
_________1
 62
     7
 10
-33.626308000000002
 20
182.28073800000001
 30
0.0
 40
4.4858109999999991
 50
0.8375610000000001
 51
7.1116779999999986
  0
ARC
  5
44D
  8
_________1
 62
     7
 10
-35.903725000000001
 20
182.05596800000001
 30
0.0
 40
6.7737899999999991
 50
6.6133670000000002
 51
14.238792
  0
ARC
  5
44E
  8
_________1
 62
     7
 10
-32.609372
 20
182.87685400000001
 30
0.0
 40
3.378766999999999
 50
14.486777999999999
 51
20.009677
  0
ARC
  5
44F
  8
_________1
 62
     7
 10
-27.296043000000001
 20
185.75618899999989
 30
0.0
 40
2.4323079999999999
 50
177.685169
 51
180.85847000000001
  0
ARC
  5
450
  8
_________1
 62
     7
 10
-25.223897000000001
 20
185.787464
 30
0.0
 40
4.5046900000000001
 50
180.86134999999999
 51
187.10757100000001
  0
ARC
  5
451
  8
_________1
 62
     7
 10
-22.954291999999999
 20
186.011155
 30
0.0
 40
6.7847879999999998
 50
186.610578
 51
194.22415100000001
  0
ARC
  5
452
  8
_________1
 62
     7
 10
-26.262951999999999
 20
185.18757299999999
 30
0.0
 40
3.3752300000000002
 50
194.47295700000001
 51
200.00326100000001
  0
ARC
  5
453
  8
_________1
 62
     7
 10
-31.287331999999999
 20
159.079307
 30
0.0
 40
3.2324439999999992
 50
356.89970299999999
 51
3.4191189999999998
  0
ARC
  5
454
  8
_________1
 62
     7
 10
-33.521168000000003
 20
158.973513
 30
0.0
 40
5.4686830000000004
 50
3.1297489999999999
 51
11.643508000000001
  0
ARC
  5
455
  8
_________1
 62
     7
 10
-35.324426000000003
 20
158.66955400000001
 30
0.0
 40
7.296479999999999
 50
11.123412
 51
23.390304
  0
ARC
  5
456
  8
_________1
 62
     7
 10
-32.363622999999997
 20
159.90494000000001
 30
0.0
 40
4.0887630000000001
 50
23.972591000000001
 51
31.916264999999999
  0
ARC
  5
457
  8
_________1
 62
     7
 10
-31.836127000000001
 20
160.32360299999999
 30
0.0
 40
3.2333979999999989
 50
147.38060999999999
 51
153.896353
  0
ARC
  5
458
  8
_________1
 62
     7
 10
-29.843128000000011
 20
159.316418
 30
0.0
 40
5.4663379999999986
 50
153.607687
 51
162.12383600000001
  0
ARC
  5
459
  8
_________1
 62
     7
 10
-28.114117
 20
158.68858399999999
 30
0.0
 40
7.3049009999999992
 50
161.599997
 51
173.85319000000001
  0
ARC
  5
45A
  8
_________1
 62
     7
 10
-31.299792
 20
159.073105
 30
0.0
 40
4.0965749999999987
 50
174.42944499999999
 51
182.35906900000001
  0
ARC
  5
45B
  8
_________1
 62
     7
 10
-26.501293
 20
165.05497099999999
 30
0.0
 40
3.2297579999999999
 50
176.913746
 51
183.438635
  0
ARC
  5
45C
  8
_________1
 62
     7
 10
-24.259266
 20
165.16137900000001
 30
0.0
 40
5.4742040000000003
 50
183.14286999999999
 51
191.648314
  0
ARC
  5
45D
  8
_________1
 62
     7
 10
-22.451737999999999
 20
165.46624399999999
 30
0.0
 40
7.306360999999999
 50
191.12791300000001
 51
203.37853200000001
  0
ARC
  5
45E
  8
_________1
 62
     7
 10
-25.418502
 20
164.228824
 30
0.0
 40
4.0923550000000004
 50
203.95804999999999
 51
211.89478199999999
  0
ARC
  5
45F
  8
_________1
 62
     7
 10
-37.281962
 20
163.809766
 30
0.0
 40
3.2327020000000002
 50
327.36853100000002
 51
333.887449
  0
ARC
  5
460
  8
_________1
 62
     7
 10
-39.272331000000001
 20
164.81611599999999
 30
0.0
 40
5.462917
 50
333.59797099999997
 51
342.12070799999998
  0
ARC
  5
461
  8
_________1
 62
     7
 10
-40.996128999999989
 20
165.44244499999999
 30
0.0
 40
7.2960619999999992
 50
341.59570400000001
 51
353.86399499999999
  0
ARC
  5
462
  8
_________1
 62
     7
 10
-37.814512000000001
 20
165.05898099999999
 30
0.0
 40
4.0918919999999988
 50
354.44073300000002
 51
2.3793459999999991
  0
INSERT
  5
463
  8
_________1
 62
     7
  2
AIGNBL02010018
 10
0.0
 20
0.0
 30
0.0
  0
INSERT
  5
464
  8
_________1
 62
     7
  2
AIGNBL02010019
 10
0.0
 20
0.0
 30
0.0
  0
ARC
  5
465
  8
_________1
 62
     7
 10
65.705104000000006
 20
167.81269499999999
 30
0.0
 40
0.5832580000000001
 50
0.00001
 51
89.999980000000008
  0
ARC
  5
466
  8
_________1
 62
     7
 10
65.705104000000006
 20
167.81269499999999
 30
0.0
 40
0.5832580000000001
 50
90.0
 51
179.99996999999999
  0
ARC
  5
467
  8
_________1
 62
     7
 10
60.148729000000003
 20
163.810191
 30
0.0
 40
3.2334959999999988
 50
327.36857800000001
 51
333.885941
  0
ARC
  5
468
  8
_________1
 62
     7
 10
58.155868999999988
 20
164.81740400000001
 30
0.0
 40
5.4663269999999988
 50
333.6006339999999
 51
342.118045
  0
ARC
  5
469
  8
_________1
 62
     7
 10
56.433185999999999
 20
165.4428659999999
 30
0.0
 40
7.2981419999999986
 50
341.59765700000003
 51
353.86242800000002
  0
ARC
  5
46A
  8
_________1
 62
     7
 10
59.616849000000002
 20
165.05898099999999
 30
0.0
 40
4.0918919999999988
 50
354.44073300000002
 51
2.3793459999999991
  0
ARC
  5
46B
  8
_________1
 62
     7
 10
70.932687999999999
 20
165.054034
 30
0.0
 40
3.2324239999999991
 50
176.899663
 51
183.41915900000001
  0
ARC
  5
46C
  8
_________1
 62
     7
 10
73.163038999999998
 20
165.15935899999999
 30
0.0
 40
5.4651579999999989
 50
183.1268639999999
 51
191.64623700000001
  0
ARC
  5
46D
  8
_________1
 62
     7
 10
74.968935999999985
 20
165.46336099999999
 30
0.0
 40
7.2955509999999988
 50
191.12154100000001
 51
203.39057099999999
  0
ARC
  5
46E
  8
_________1
 62
     7
 10
72.009543000000008
 20
164.22823199999999
 30
0.0
 40
4.089226
 50
203.968446
 51
211.91228699999999
  0
ARC
  5
46F
  8
_________1
 62
     7
 10
67.017425000000003
 20
157.95541399999999
 30
0.0
 40
0.729506
 50
178.002048
 51
207.97333399999999
  0
ARC
  5
470
  8
_________1
 62
     7
 10
67.148909000000003
 20
158.00473500000001
 30
0.0
 40
0.868951
 50
206.77874700000001
 51
242.76219399999999
  0
ARC
  5
471
  8
_________1
 62
     7
 10
67.044516999999985
 20
157.83980199999999
 30
0.0
 40
0.6747510000000001
 50
244.233858
 51
252.22667799999999
  0
ARC
  5
472
  8
_________1
 62
     7
 10
65.596576999999996
 20
160.32275000000001
 30
0.0
 40
3.2349879999999991
 50
147.38070300000001
 51
153.89333400000001
  0
ARC
  5
473
  8
_________1
 62
     7
 10
67.58878
 20
159.3156699999999
 30
0.0
 40
5.4671690000000002
 50
153.60325900000001
 51
162.11840900000001
  0
ARC
  5
474
  8
_________1
 62
     7
 10
69.312240000000003
 20
158.689449
 30
0.0
 40
7.299961999999999
 50
161.59425400000001
 51
173.855841
  0
ARC
  5
475
  8
_________1
 62
     7
 10
66.123943000000011
 20
159.07424700000001
 30
0.0
 40
4.0890029999999991
 50
174.43517700000001
 51
182.379459
  0
ARC
  5
476
  8
_________1
 62
     7
 10
65.705342999999999
 20
154.062431
 30
0.0
 40
3.3334929999999989
 50
109.863364
 51
199.85697200000001
  0
ARC
  5
477
  8
_________1
 62
     7
 10
65.705217000000005
 20
154.06278399999999
 30
0.0
 40
3.3334949999999992
 50
199.86341400000001
 51
289.856942
  0
ARC
  5
478
  8
_________1
 62
     7
 10
65.704864000000001
 20
154.062656
 30
0.0
 40
3.3334949999999992
 50
289.863404
 51
19.856932
  0
ARC
  5
479
  8
_________1
 62
     7
 10
66.716763
 20
154.560631
 30
0.0
 40
2.2161189999999991
 50
16.632452999999991
 51
28.950915000000009
  0
ARC
  5
47A
  8
_________1
 62
     7
 10
65.817308999999995
 20
154.09836000000001
 30
0.0
 40
3.2270880000000002
 50
28.402532000000001
 51
43.396284000000009
  0
ARC
  5
47B
  8
_________1
 62
     7
 10
65.512394
 20
153.86405199999999
 30
0.0
 40
3.6098370000000002
 50
42.773507000000002
 51
60.394545999999998
  0
ARC
  5
47C
  8
_________1
 62
     7
 10
66.107883000000001
 20
154.846971
 30
0.0
 40
2.461263999999999
 50
61.143241999999987
 51
72.755741999999998
  0
ARC
  5
47D
  8
_________1
 62
     7
 10
70.201993999999999
 20
134.976572
 30
0.0
 40
0.086551
 50
2.0674399999999991
 51
87.932551000000004
  0
ARC
  5
47E
  8
_________1
 62
     7
 10
64.349074000000002
 20
157.88998699999999
 30
0.0
 40
0.7276130000000001
 50
287.81308899999999
 51
317.87714399999999
  0
ARC
  5
47F
  8
_________1
 62
     7
 10
64.256998999999993
 20
157.99852300000001
 30
0.0
 40
0.8689059999999999
 50
316.64099999999991
 51
352.62013200000001
  0
ARC
  5
480
  8
_________1
 62
     7
 10
64.446968999999996
 20
157.95637600000001
 30
0.0
 40
0.6753200000000001
 50
354.09626600000001
 51
2.0766830000000001
  0
ARC
  5
481
  8
_________1
 62
     7
 10
66.145791000000003
 20
159.079217
 30
0.0
 40
3.2306810000000001
 50
356.89959900000002
 51
3.4225779999999988
  0
ARC
  5
482
  8
_________1
 62
     7
 10
63.910572999999992
 20
158.973062
 30
0.0
 40
5.468318
 50
3.1346880000000001
 51
11.649117
  0
ARC
  5
483
  8
_________1
 62
     7
 10
62.101606999999987
 20
158.667756
 30
0.0
 40
7.301971
 50
11.12932
 51
23.387041
  0
ARC
  5
484
  8
_________1
 62
     7
 10
65.062609999999992
 20
159.90314499999999
 30
0.0
 40
4.0940649999999996
 50
23.967085999999998
 51
31.899640999999999
  0
ARC
  5
485
  8
_________1
 62
     7
 10
61.208346999999989
 20
134.97644
 30
0.0
 40
0.086688
 50
92.151730000000015
 51
177.84824
  0
ARC
  5
486
  8
_________1
 62
     7
 10
29.582965999999999
 20
175.59573599999999
 30
0.0
 40
0.133847
 50
192.86611199999999
 51
269.88827700000002
  0
ARC
  5
487
  8
_________1
 62
     7
 10
29.582787
 20
176.994891
 30
0.0
 40
0.133574
 50
90.035188999999988
 51
167.30288200000001
  0
ARC
  5
488
  8
_________1
 62
     7
 10
31.140779999999999
 20
176.55498299999999
 30
0.0
 40
1.7523040000000001
 50
164.46658400000001
 51
173.391333
  0
ARC
  5
489
  8
_________1
 62
     7
 10
32.943123
 20
176.30036000000001
 30
0.0
 40
3.5722640000000001
 50
172.661452
 51
189.79811699999991
  0
ARC
  5
48A
  8
_________1
 62
     7
 10
31.008782
 20
175.99571499999999
 30
0.0
 40
1.614555999999999
 50
190.826537
 51
195.43784600000001
  0
ARC
  5
48B
  8
_________1
 62
     7
 10
32.336826000000002
 20
183.186713
 30
0.0
 40
2.4101129999999991
 50
159.443018
 51
162.64590200000001
  0
ARC
  5
48C
  8
_________1
 62
     7
 10
34.321846000000001
 20
182.56562199999999
 30
0.0
 40
4.4900310000000001
 50
162.63652300000001
 51
168.90325999999999
  0
ARC
  5
48D
  8
_________1
 62
     7
 10
36.551181
 20
182.068444
 30
0.0
 40
6.7736309999999991
 50
168.40578300000001
 51
176.03183799999999
  0
ARC
  5
48E
  8
_________1
 62
     7
 10
33.159700000000001
 20
182.318412
 30
0.0
 40
3.3730139999999991
 50
176.28106700000001
 51
181.81531100000001
  0
ARC
  5
48F
  8
_________1
 62
     7
 10
32.523977000000002
 20
182.309831
 30
0.0
 40
2.433028999999999
 50
357.685247
 51
0.8590899999999997
  0
ARC
  5
490
  8
_________1
 62
     7
 10
30.451750000000001
 20
182.278685
 30
0.0
 40
4.5054899999999991
 50
0.860017
 51
7.106768999999999
  0
ARC
  5
491
  8
_________1
 62
     7
 10
28.185827
 20
182.05539999999999
 30
0.0
 40
6.7818839999999989
 50
6.6102740000000013
 51
14.226395
  0
ARC
  5
492
  8
_________1
 62
     7
 10
31.493312
 20
182.878658
 30
0.0
 40
3.3735459999999988
 50
14.478046000000001
 51
20.009361999999999
  0
ARC
  5
493
  8
_________1
 62
     7
 10
27.785862999999999
 20
184.89049
 30
0.0
 40
2.4493239999999998
 50
339.50693699999999
 51
342.65887500000002
  0
ARC
  5
494
  8
_________1
 62
     7
 10
25.825703000000001
 20
185.501858
 30
0.0
 40
4.5026129999999993
 50
342.66735399999999
 51
348.91763600000002
  0
ARC
  5
495
  8
_________1
 62
     7
 10
23.600432999999999
 20
185.99820099999999
 30
0.0
 40
6.7820529999999994
 50
348.416268
 51
356.032555
  0
ARC
  5
496
  8
_________1
 62
     7
 10
27.004909999999999
 20
185.74755099999999
 30
0.0
 40
3.3684229999999999
 50
356.27910300000002
 51
1.8182879999999999
  0
ARC
  5
497
  8
_________1
 62
     7
 10
36.847087000000002
 20
185.75561300000001
 30
0.0
 40
2.4776410000000002
 50
177.71420599999999
 51
180.82943299999999
  0
ARC
  5
498
  8
_________1
 62
     7
 10
38.873887000000003
 20
185.787464
 30
0.0
 40
4.5046900000000001
 50
180.86134999999999
 51
187.10757100000001
  0
ARC
  5
499
  8
_________1
 62
     7
 10
41.142783000000001
 20
186.011064
 30
0.0
 40
6.7840720000000001
 50
186.61050800000001
 51
194.22489400000001
  0
ARC
  5
49A
  8
_________1
 62
     7
 10
37.832068
 20
185.18665799999999
 30
0.0
 40
3.3723190000000001
 50
194.46967799999999
 51
200.00473099999999
  0
ARC
  5
49B
  8
_________1
 62
     7
 10
48.468693999999999
 20
193.17754600000001
 30
0.0
 40
15.246871000000001
 50
2.1113629999999999
 51
87.856335000000016
  0
ARC
  5
49C
  8
_________1
 62
     7
 10
49.601886
 20
193.18354199999999
 30
0.0
 40
15.240603
 50
92.116575999999995
 51
177.910303
  0
ARC
  5
49D
  8
_________1
 62
     7
 10
48.331876999999992
 20
193.02355800000001
 30
0.0
 40
19.386334000000002
 50
2.1157469999999998
 51
87.909629000000024
  0
ARC
  5
49E
  8
_________1
 62
     7
 10
49.754317
 20
193.03111100000001
 30
0.0
 40
19.379086999999998
 50
92.115346999999986
 51
177.905787
  0
LINE
  5
49F
  8
_________1
  6
AIGENLINE001
 62
     7
 10
-37.9574
 20
267.39100000000002
 30
0.0
 11
-18.5594
 21
267.39100000000002
 31
0.0
  0
LINE
  5
4A0
  8
_________1
 62
     7
 10
-28.574000000000002
 20
270.72399999999999
 30
0.0
 11
-22.892299999999999
 21
270.72399999999999
 31
0.0
  0
LINE
  5
4A1
  8
_________1
 62
     7
 10
-22.558800000000002
 20
270.72399999999999
 30
0.0
 11
-20.2258
 21
270.72399999999999
 31
0.0
  0
LINE
  5
4A2
  8
_________1
 62
     7
 10
-20.055199999999999
 20
270.14100000000002
 30
0.0
 11
-20.0594
 21
270.14100000000002
 31
0.0
  0
LINE
  5
4A3
  8
_________1
 62
     7
 10
-20.0594
 20
269.97500000000002
 30
0.0
 11
-20.055199999999999
 21
269.97500000000002
 31
0.0
  0
LINE
  5
4A4
  8
_________1
 62
     7
 10
-20.0594
 20
269.89699999999999
 30
0.0
 11
-20.055199999999999
 21
269.89699999999999
 31
0.0
  0
LINE
  5
4A5
  8
_________1
 62
     7
 10
-30.583500000000001
 20
270.875
 30
0.0
 11
-30.5928
 21
270.87799999999999
 31
0.0
  0
LINE
  5
4A6
  8
_________1
 62
     7
 10
-20.2258
 20
267.97399999999999
 30
0.0
 11
-20.976099999999999
 21
267.97399999999999
 31
0.0
  0
LINE
  5
4A7
  8
_________1
 62
     7
 10
-20.2258
 20
266.80799999999999
 30
0.0
 11
-20.976099999999999
 21
266.80799999999999
 31
0.0
  0
LINE
  5
4A8
  8
_________1
 62
     7
 10
-20.0594
 20
264.88499999999999
 30
0.0
 11
-20.055199999999999
 21
264.88499999999999
 31
0.0
  0
LINE
  5
4A9
  8
_________1
 62
     7
 10
-20.0594
 20
264.80700000000002
 30
0.0
 11
-20.055199999999999
 21
264.80700000000002
 31
0.0
  0
LINE
  5
4AA
  8
_________1
 62
     7
 10
-20.0594
 20
264.64099999999991
 30
0.0
 11
-20.055199999999999
 21
264.64099999999991
 31
0.0
  0
LINE
  5
4AB
  8
_________1
 62
     7
 10
-28.574000000000002
 20
264.05700000000002
 30
0.0
 11
-22.892299999999999
 21
264.05799999999999
 31
0.0
  0
LINE
  5
4AC
  8
_________1
 62
     7
 10
-22.558800000000002
 20
264.05799999999999
 30
0.0
 11
-20.2258
 21
264.05799999999999
 31
0.0
  0
LINE
  5
4AD
  8
_________1
 62
     7
 10
-20.055199999999999
 20
269.89699999999999
 30
0.0
 11
-20.055199999999999
 21
270.14100000000002
 31
0.0
  0
LINE
  5
4AE
  8
_________1
 62
     7
 10
-20.055199999999999
 20
264.88499999999999
 30
0.0
 11
-20.055199999999999
 21
264.64099999999991
 31
0.0
  0
LINE
  5
4AF
  8
_________1
 62
     7
 10
-20.0594
 20
270.55799999999999
 30
0.0
 11
-20.0594
 21
264.22500000000002
 31
0.0
  0
LINE
  5
4B0
  8
_________1
 62
     7
 10
-29.226099999999999
 20
120.89700000000001
 30
0.0
 11
-29.226099999999999
 21
111.711
 31
0.0
  0
LINE
  5
4B1
  8
_________1
  6
AIGENLINE001
 62
     7
 10
-33.393000000000001
 20
136.215
 30
0.0
 11
-33.393000000000001
 21
111.866
 31
0.0
  0
LINE
  5
4B2
  8
_________1
  6
AIGENLINE001
 62
     7
 10
-30.0595
 20
136.215
 30
0.0
 11
-30.0595
 21
111.866
 31
0.0
  0
LINE
  5
4B3
  8
_________1
  6
AIGENLINE001
 62
     7
 10
-50.171399999999998
 20
68.041799999999995
 30
0.0
 11
-47.9696
 21
54.463500000000003
 31
0.0
  0
LINE
  5
4B4
  8
_________1
  6
AIGENLINE001
 62
     7
 10
-31.726299999999998
 20
214.262
 30
0.0
 11
-31.726299999999998
 21
47.536099999999998
 31
0.0
  0
LINE
  5
4B5
  8
_________1
  6
AIGENLINE001
 62
     7
 10
-31.726299999999998
 20
273.416
 30
0.0
 11
-31.726299999999998
 21
229.196
 31
0.0
  0
LINE
  5
4B6
  8
_________1
 62
     7
 10
-29.7346
 20
267.39100000000002
 30
0.0
 11
-29.7346
 21
234.05799999999999
 31
0.0
  0
LINE
  5
4B7
  8
_________1
 62
     7
 10
-30.892900000000001
 20
231.261
 30
0.0
 11
-30.892900000000001
 21
231.60499999999999
 31
0.0
  0
LINE
  5
4B8
  8
_________1
 62
     7
 10
-32.559600000000003
 20
231.261
 30
0.0
 11
-32.559600000000003
 21
231.60499999999999
 31
0.0
  0
LINE
  5
4B9
  8
_________1
 62
     7
 10
-33.7179
 20
267.39100000000002
 30
0.0
 11
-33.7179
 21
234.05799999999999
 31
0.0
  0
LINE
  5
4BA
  8
_________1
 62
     7
 10
-33.726100000000002
 20
188.54499999999999
 30
0.0
 11
-29.726400000000002
 21
188.54499999999999
 31
0.0
  0
LINE
  5
4BB
  8
_________1
 62
     7
 10
-21.5594
 20
158.22999999999999
 30
0.0
 11
-21.559699999999999
 21
158.19999999999999
 31
0.0
  0
LINE
  5
4BC
  8
_________1
 62
     7
 10
-21.559699999999999
 20
158.19999999999999
 30
0.0
 11
-21.5625
 21
158.155
 31
0.0
  0
LINE
  5
4BD
  8
_________1
 62
     7
 10
-21.5625
 20
158.155
 30
0.0
 11
-21.567599999999999
 21
158.11099999999999
 31
0.0
  0
LINE
  5
4BE
  8
_________1
 62
     7
 10
-21.567599999999999
 20
158.11099999999999
 30
0.0
 11
-21.575199999999999
 21
158.06700000000001
 31
0.0
  0
LINE
  5
4BF
  8
_________1
 62
     7
 10
-21.575199999999999
 20
158.06700000000001
 30
0.0
 11
-21.5852
 21
158.023
 31
0.0
  0
LINE
  5
4C0
  8
_________1
 62
     7
 10
-21.5852
 20
158.023
 30
0.0
 11
-21.5976
 21
157.97999999999999
 31
0.0
  0
LINE
  5
4C1
  8
_________1
 62
     7
 10
-21.5976
 20
157.97999999999999
 30
0.0
 11
-21.612100000000002
 21
157.93799999999999
 31
0.0
  0
LINE
  5
4C2
  8
_________1
 62
     7
 10
-21.612100000000002
 20
157.93799999999999
 30
0.0
 11
-21.628599999999999
 21
157.89699999999999
 31
0.0
  0
LINE
  5
4C3
  8
_________1
 62
     7
 10
-21.628599999999999
 20
157.89699999999999
 30
0.0
 11
-21.647600000000001
 21
157.85599999999999
 31
0.0
  0
LINE
  5
4C4
  8
_________1
 62
     7
 10
-21.647600000000001
 20
157.85599999999999
 30
0.0
 11
-21.668600000000001
 21
157.81700000000001
 31
0.0
  0
LINE
  5
4C5
  8
_________1
 62
     7
 10
-21.668600000000001
 20
157.81700000000001
 30
0.0
 11
-21.692
 21
157.77799999999999
 31
0.0
  0
LINE
  5
4C6
  8
_________1
 62
     7
 10
-21.692
 20
157.77799999999999
 30
0.0
 11
-21.716799999999999
 21
157.74199999999999
 31
0.0
  0
LINE
  5
4C7
  8
_________1
 62
     7
 10
-21.716799999999999
 20
157.74199999999999
 30
0.0
 11
-21.744
 21
157.70599999999999
 31
0.0
  0
LINE
  5
4C8
  8
_________1
 62
     7
 10
-21.744
 20
157.70599999999999
 30
0.0
 11
-21.773
 21
157.672
 31
0.0
  0
LINE
  5
4C9
  8
_________1
 62
     7
 10
-21.773
 20
157.672
 30
0.0
 11
-21.803599999999999
 21
157.63999999999999
 31
0.0
  0
LINE
  5
4CA
  8
_________1
 62
     7
 10
-21.803599999999999
 20
157.63999999999999
 30
0.0
 11
-21.835999999999999
 21
157.60900000000001
 31
0.0
  0
LINE
  5
4CB
  8
_________1
 62
     7
 10
-21.835999999999999
 20
157.60900000000001
 30
0.0
 11
-21.8705
 21
157.58000000000001
 31
0.0
  0
LINE
  5
4CC
  8
_________1
 62
     7
 10
-21.8705
 20
157.58000000000001
 30
0.0
 11
-21.9056
 21
157.553
 31
0.0
  0
LINE
  5
4CD
  8
_________1
 62
     7
 10
-21.9056
 20
157.553
 30
0.0
 11
-21.942799999999998
 21
157.52799999999999
 31
0.0
  0
LINE
  5
4CE
  8
_________1
 62
     7
 10
-21.942799999999998
 20
157.52799999999999
 30
0.0
 11
-21.981100000000001
 21
157.505
 31
0.0
  0
LINE
  5
4CF
  8
_________1
 62
     7
 10
-21.981100000000001
 20
157.505
 30
0.0
 11
-22.020299999999999
 21
157.48400000000001
 31
0.0
  0
LINE
  5
4D0
  8
_________1
 62
     7
 10
-22.020299999999999
 20
157.48400000000001
 30
0.0
 11
-22.060600000000001
 21
157.465
 31
0.0
  0
LINE
  5
4D1
  8
_________1
 62
     7
 10
-22.060600000000001
 20
157.465
 30
0.0
 11
-22.1023
 21
157.44800000000001
 31
0.0
  0
LINE
  5
4D2
  8
_________1
 62
     7
 10
-22.1023
 20
157.44800000000001
 30
0.0
 11
-22.1447
 21
157.434
 31
0.0
  0
LINE
  5
4D3
  8
_________1
 62
     7
 10
-22.1447
 20
157.434
 30
0.0
 11
-22.1874
 21
157.422
 31
0.0
  0
LINE
  5
4D4
  8
_________1
 62
     7
 10
-22.1874
 20
157.422
 30
0.0
 11
-22.231200000000001
 21
157.41200000000001
 31
0.0
  0
LINE
  5
4D5
  8
_________1
 62
     7
 10
-22.231200000000001
 20
157.41200000000001
 30
0.0
 11
-22.274899999999999
 21
157.405
 31
0.0
  0
LINE
  5
4D6
  8
_________1
 62
     7
 10
-22.274899999999999
 20
157.405
 30
0.0
 11
-22.319400000000002
 21
157.399
 31
0.0
  0
LINE
  5
4D7
  8
_________1
 62
     7
 10
-22.319400000000002
 20
157.399
 30
0.0
 11
-22.3642
 21
157.39699999999999
 31
0.0
  0
LINE
  5
4D8
  8
_________1
 62
     7
 10
-22.3642
 20
157.39699999999999
 30
0.0
 11
-22.392700000000001
 21
157.39599999999999
 31
0.0
  0
LINE
  5
4D9
  8
_________1
 62
     7
 10
-20.0594
 20
168.22999999999999
 30
0.0
 11
-20.0594
 21
150.89599999999999
 31
0.0
  0
INSERT
  5
4DA
  8
_________1
 62
     7
  2
AIGNBL0201001A
 10
0.0
 20
0.0
 30
0.0
  0
INSERT
  5
4DB
  8
_________1
 62
     7
  2
AIGNBL0201001B
 10
0.0
 20
0.0
 30
0.0
  0
LINE
  5
4DC
  8
_________1
 62
     7
 10
29.871400000000001
 20
226.46199999999999
 30
0.0
 11
29.871400000000001
 21
185.66200000000001
 31
0.0
  0
LINE
  5
4DD
  8
_________1
 62
     7
 10
65.705100000000002
 20
226.476
 30
0.0
 11
65.705100000000002
 21
196.46600000000001
 31
0.0
  0
LINE
  5
4DE
  8
_________1
 62
     7
 10
32.371499999999997
 20
219.12700000000001
 30
0.0
 11
32.371499999999997
 21
196.46600000000001
 31
0.0
  0
LINE
  5
4DF
  8
_________1
 62
     7
 10
-21.5594
 20
172.40199999999999
 30
0.0
 11
-21.5594
 21
168.381
 31
0.0
  0
LINE
  5
4E0
  8
_________1
 62
     7
 10
-21.5594
 20
167.64599999999999
 30
0.0
 11
-21.5594
 21
158.22999999999999
 31
0.0
  0
LINE
  5
4E1
  8
_________1
 62
     7
 10
-28.0596
 20
149.29599999999999
 30
0.0
 11
-28.058599999999998
 21
149.34999999999999
 31
0.0
  0
LINE
  5
4E2
  8
_________1
 62
     7
 10
-27.142900000000001
 20
134.97999999999999
 30
0.0
 11
-27.142900000000001
 21
134.22999999999999
 31
0.0
  0
LINE
  5
4E3
  8
_________1
 62
     7
 10
-29.142800000000001
 20
171.72999999999999
 30
0.0
 11
-34.309399999999997
 21
171.72999999999999
 31
0.0
  0
LINE
  5
4E4
  8
_________1
 62
     7
 10
-29.726400000000002
 20
171.595
 30
0.0
 11
-33.726100000000002
 21
171.595
 31
0.0
  0
LINE
  5
4E5
  8
_________1
 62
     7
 10
-28.0596
 20
149.29599999999999
 30
0.0
 11
-28.0596
 21
135.06299999999999
 31
0.0
  0
LINE
  5
4E6
  8
_________1
 62
     7
 10
-28.0596
 20
158.904
 30
0.0
 11
-28.0596
 21
158.82900000000001
 31
0.0
  0
LINE
  5
4E7
  8
_________1
 62
     7
 10
-29.142800000000001
 20
182.21199999999999
 30
0.0
 11
-29.142800000000001
 21
171.72999999999999
 31
0.0
  0
LINE
  5
4E8
  8
_________1
 62
     7
 10
-29.726400000000002
 20
171.595
 30
0.0
 11
-29.726400000000002
 21
165.22900000000001
 31
0.0
  0
LINE
  5
4E9
  8
_________1
 62
     7
 10
-29.726400000000002
 20
188.54499999999999
 30
0.0
 11
-29.726400000000002
 21
185.85400000000001
 31
0.0
  0
LINE
  5
4EA
  8
_________1
 62
     7
 10
-29.7346
 20
171.595
 30
0.0
 11
-29.7346
 21
171.72999999999999
 31
0.0
  0
LINE
  5
4EB
  8
_________1
 62
     7
 10
-29.7346
 20
210.405
 30
0.0
 11
-29.7346
 21
188.54499999999999
 31
0.0
  0
LINE
  5
4EC
  8
_________1
 62
     7
 10
-28.054099999999998
 20
158.70400000000001
 30
0.0
 11
-28.058599999999998
 21
158.77500000000001
 31
0.0
  0
LINE
  5
4ED
  8
_________1
 62
     7
 10
-28.058599999999998
 20
158.77500000000001
 30
0.0
 11
-28.0596
 21
158.82900000000001
 31
0.0
  0
LINE
  5
4EE
  8
_________1
 62
     7
 10
-20.2258
 20
168.39599999999999
 30
0.0
 11
-20.8094
 21
168.39599999999999
 31
0.0
  0
LINE
  5
4EF
  8
_________1
 62
     7
 10
-33.7179
 20
171.595
 30
0.0
 11
-33.7179
 21
171.72999999999999
 31
0.0
  0
LINE
  5
4F0
  8
_________1
 62
     7
 10
-33.7179
 20
210.405
 30
0.0
 11
-33.7179
 21
188.54499999999999
 31
0.0
  0
LINE
  5
4F1
  8
_________1
 62
     7
 10
-33.726100000000002
 20
171.595
 30
0.0
 11
-33.726100000000002
 21
165.22900000000001
 31
0.0
  0
LINE
  5
4F2
  8
_________1
 62
     7
 10
-33.726100000000002
 20
188.54499999999999
 30
0.0
 11
-33.726100000000002
 21
185.85400000000001
 31
0.0
  0
LINE
  5
4F3
  8
_________1
 62
     7
 10
-34.309399999999997
 20
182.21199999999999
 30
0.0
 11
-34.309399999999997
 21
171.72999999999999
 31
0.0
  0
LINE
  5
4F4
  8
_________1
 62
     7
 10
-35.392899999999997
 20
158.904
 30
0.0
 11
-35.392899999999997
 21
135.06299999999999
 31
0.0
  0
LINE
  5
4F5
  8
_________1
 62
     7
 10
-36.309600000000003
 20
134.97999999999999
 30
0.0
 11
-36.309600000000003
 21
134.22999999999999
 31
0.0
  0
LINE
  5
4F6
  8
_________1
  6
AIGENLINE001
 62
     7
 10
60.685600000000001
 20
154.06299999999999
 30
0.0
 11
70.701599999999999
 21
154.06299999999999
 31
0.0
  0
LINE
  5
4F7
  8
_________1
  6
AIGENLINE001
 62
     7
 10
-31.726299999999998
 20
154.06299999999999
 30
0.0
 11
-18.9711
 21
154.06299999999999
 31
0.0
  0
LINE
  5
4F8
  8
_________1
 62
     7
 10
-26.6265
 20
157.39599999999999
 30
0.0
 11
-22.892299999999999
 21
157.39599999999999
 31
0.0
  0
LINE
  5
4F9
  8
_________1
 62
     7
 10
-22.558800000000002
 20
157.39599999999999
 30
0.0
 11
-22.392700000000001
 21
157.39599999999999
 31
0.0
  0
LINE
  5
4FA
  8
_________1
 62
     7
 10
-26.6265
 20
150.72900000000001
 30
0.0
 11
-22.892299999999999
 21
150.72900000000001
 31
0.0
  0
LINE
  5
4FB
  8
_________1
 62
     7
 10
-22.558800000000002
 20
150.72900000000001
 30
0.0
 11
-20.2258
 21
150.72999999999999
 31
0.0
  0
LINE
  5
4FC
  8
_________1
 62
     7
 10
-27.226199999999999
 20
135.06299999999999
 30
0.0
 11
-36.226300000000002
 21
135.06299999999999
 31
0.0
  0
LINE
  5
4FD
  8
_________1
 62
     7
 10
-27.142900000000001
 20
134.22999999999999
 30
0.0
 11
-36.309600000000003
 21
134.22999999999999
 31
0.0
  0
LINE
  5
4FE
  8
_________1
 62
     7
 10
70.288499999999999
 20
134.97999999999999
 30
0.0
 11
70.288499999999999
 21
134.22999999999999
 31
0.0
  0
LINE
  5
4FF
  8
_________1
 62
     7
 10
69.371700000000004
 20
158.904
 30
0.0
 11
69.371700000000004
 21
135.06299999999999
 31
0.0
  0
LINE
  5
500
  8
_________1
 62
     7
 10
30.371600000000001
 20
188.54499999999999
 30
0.0
 11
34.371400000000001
 21
188.54499999999999
 31
0.0
  0
LINE
  5
501
  8
_________1
 62
     7
 10
67.704999999999998
 20
171.595
 30
0.0
 11
67.704999999999998
 21
165.22900000000001
 31
0.0
  0
LINE
  5
502
  8
_________1
 62
     7
 10
77.372
 20
147.38399999999999
 30
0.0
 11
77.372
 21
160.18100000000001
 31
0.0
  0
LINE
  5
503
  8
_________1
 62
     7
 10
67.704999999999998
 20
171.595
 30
0.0
 11
67.704999999999998
 21
193.739
 31
0.0
  0
LINE
  5
504
  8
_________1
 62
     7
 10
66.288399999999996
 20
157.98099999999999
 30
0.0
 11
66.288399999999996
 21
167.81299999999999
 31
0.0
  0
LINE
  5
505
  8
_________1
 62
     7
 10
65.121799999999993
 20
167.81299999999999
 30
0.0
 11
65.121799999999993
 21
157.98099999999999
 31
0.0
  0
LINE
  5
506
  8
_________1
 62
     7
 10
63.705199999999991
 20
171.595
 30
0.0
 11
63.705199999999991
 21
193.739
 31
0.0
  0
LINE
  5
507
  8
_________1
 62
     7
 10
63.705199999999991
 20
171.595
 30
0.0
 11
63.705199999999991
 21
165.22900000000001
 31
0.0
  0
LINE
  5
508
  8
_________1
 62
     7
 10
62.038499999999999
 20
158.904
 30
0.0
 11
62.038499999999999
 21
135.06299999999999
 31
0.0
  0
LINE
  5
509
  8
_________1
 62
     7
 10
61.12169999999999
 20
134.97999999999999
 30
0.0
 11
61.12169999999999
 21
134.22999999999999
 31
0.0
  0
LINE
  5
50A
  8
_________1
 62
     7
 10
29.582699999999999
 20
177.12799999999999
 30
0.0
 11
29.788699999999999
 21
177.12799999999999
 31
0.0
  0
LINE
  5
50B
  8
_________1
 62
     7
 10
29.582699999999999
 20
175.46199999999999
 30
0.0
 11
29.788699999999999
 21
175.46199999999999
 31
0.0
  0
LINE
  5
50C
  8
_________1
 62
     7
 10
34.954999999999998
 20
171.72999999999999
 30
0.0
 11
29.788399999999999
 21
171.72999999999999
 31
0.0
  0
LINE
  5
50D
  8
_________1
 62
     7
 10
67.704999999999998
 20
171.595
 30
0.0
 11
63.705199999999991
 21
171.595
 31
0.0
  0
LINE
  5
50E
  8
_________1
  6
AIGENLINE001
 62
     7
 10
32.371499999999997
 20
193.739
 30
0.0
 11
32.371499999999997
 21
170.41
 31
0.0
  0
LINE
  5
50F
  8
_________1
 62
     7
 10
34.954999999999998
 20
182.21199999999999
 30
0.0
 11
34.954999999999998
 21
171.72999999999999
 31
0.0
  0
LINE
  5
510
  8
_________1
 62
     7
 10
34.371400000000001
 20
193.739
 30
0.0
 11
34.371400000000001
 21
185.85400000000001
 31
0.0
  0
LINE
  5
511
  8
_________1
 62
     7
 10
30.388200000000001
 20
193.739
 30
0.0
 11
30.388200000000001
 21
188.54499999999999
 31
0.0
  0
LINE
  5
512
  8
_________1
 62
     7
 10
30.371600000000001
 20
188.54499999999999
 30
0.0
 11
30.371600000000001
 21
185.85400000000001
 31
0.0
  0
LINE
  5
513
  8
_________1
 62
     7
 10
29.788399999999999
 20
175.46199999999999
 30
0.0
 11
29.788399999999999
 21
171.72999999999999
 31
0.0
  0
LINE
  5
514
  8
_________1
 62
     7
 10
29.788399999999999
 20
182.21199999999999
 30
0.0
 11
29.788399999999999
 21
177.12799999999999
 31
0.0
  0
LINE
  5
515
  8
_________1
 62
     7
 10
61.205100000000002
 20
135.06299999999999
 30
0.0
 11
70.205100000000002
 21
135.06299999999999
 31
0.0
  0
LINE
  5
516
  8
_________1
 62
     7
 10
61.12169999999999
 20
134.22999999999999
 30
0.0
 11
70.288499999999999
 21
134.22999999999999
 31
0.0
  0
INSERT
  5
517
  8
_________1
 62
     7
  2
AIGNBL0201001C
 10
0.0
 20
0.0
 30
0.0
  0
LINE
  5
518
  8
_________1
 62
     7
 10
-15.5166
 20
166.80000000000001
 30
0.0
 11
-13.7303
 21
170.631
 31
0.0
  0
LINE
  5
519
  8
_________1
  6
AIGENLINE002
 62
     7
 10
-19.8919
 20
157.417
 30
0.0
 11
-15.912100000000001
 21
165.95099999999999
 31
0.0
  0
ARC
  5
51A
  8
_________1
  6
AIGENLINE002
 62
     7
 10
-15.218635000000001
 20
165.59649200000001
 30
0.0
 40
0.778994
 50
67.096265000000002
 51
152.90490399999999
  0
LINE
  5
51B
  8
_________1
  6
AIGENLINE002
 62
     7
 10
-14.9155
 20
166.31399999999999
 30
0.0
 11
-14.387
 21
166.06800000000001
 31
0.0
  0
ARC
  5
51C
  8
_________1
  6
AIGENLINE002
 62
     7
 10
-14.465387
 20
165.91360900000001
 30
0.0
 40
0.172777
 50
336.98225600000001
 51
63.012568000000002
  0
LINE
  5
51D
  8
_________1
  6
AIGENLINE002
 62
     7
 10
-14.3064
 20
165.846
 30
0.0
 11
-21.631699999999999
 21
150.137
 31
0.0
  0
ARC
  5
51E
  8
_________1
  6
AIGENLINE002
 62
     7
 10
-21.785941000000001
 20
150.21594999999999
 30
0.0
 40
0.173332
 50
247.15324200000001
 51
332.84160200000002
  0
LINE
  5
51F
  8
_________1
  6
AIGENLINE002
 62
     7
 10
-21.853200000000001
 20
150.05600000000001
 30
0.0
 11
-23.9679
 21
151.042
 31
0.0
  0
LINE
  5
520
  8
_________1
  6
AIGENLINE002
 62
     7
 10
-23.9679
 20
151.042
 30
0.0
 11
-23.968499999999999
 21
151.03999999999999
 31
0.0
  0
LINE
  5
521
  8
_________1
  6
AIGENLINE002
 62
     7
 10
-23.968499999999999
 20
151.03999999999999
 30
0.0
 11
-21.1511
 21
157.08199999999999
 31
0.0
  0
LINE
  5
522
  8
_________1
  6
AIGENLINE002
 62
     7
 10
-21.1511
 20
157.08199999999999
 30
0.0
 11
-21.150099999999998
 21
157.084
 31
0.0
  0
LINE
  5
523
  8
_________1
  6
AIGENLINE002
 62
     7
 10
-21.150099999999998
 20
157.084
 30
0.0
 11
-20.999500000000001
 21
157.01400000000001
 31
0.0
  0
LINE
  5
524
  8
_________1
  6
AIGENLINE002
 62
     7
 10
-20.999500000000001
 20
157.01400000000001
 30
0.0
 11
-20.973400000000002
 21
157.00200000000001
 31
0.0
  0
LINE
  5
525
  8
_________1
  6
AIGENLINE002
 62
     7
 10
-20.973400000000002
 20
157.00200000000001
 30
0.0
 11
-20.931699999999999
 21
156.98599999999999
 31
0.0
  0
LINE
  5
526
  8
_________1
  6
AIGENLINE002
 62
     7
 10
-20.931699999999999
 20
156.98599999999999
 30
0.0
 11
-20.889299999999999
 21
156.97200000000001
 31
0.0
  0
LINE
  5
527
  8
_________1
  6
AIGENLINE002
 62
     7
 10
-20.889299999999999
 20
156.97200000000001
 30
0.0
 11
-20.846599999999999
 21
156.96000000000001
 31
0.0
  0
LINE
  5
528
  8
_________1
  6
AIGENLINE002
 62
     7
 10
-20.846599999999999
 20
156.96000000000001
 30
0.0
 11
-20.802800000000001
 21
156.94999999999999
 31
0.0
  0
LINE
  5
529
  8
_________1
  6
AIGENLINE002
 62
     7
 10
-20.802800000000001
 20
156.94999999999999
 30
0.0
 11
-20.758700000000001
 21
156.94300000000001
 31
0.0
  0
LINE
  5
52A
  8
_________1
  6
AIGENLINE002
 62
     7
 10
-20.758700000000001
 20
156.94300000000001
 30
0.0
 11
-20.714300000000001
 21
156.93799999999999
 31
0.0
  0
LINE
  5
52B
  8
_________1
  6
AIGENLINE002
 62
     7
 10
-20.714300000000001
 20
156.93799999999999
 30
0.0
 11
-20.669499999999999
 21
156.93600000000001
 31
0.0
  0
LINE
  5
52C
  8
_________1
  6
AIGENLINE002
 62
     7
 10
-20.669499999999999
 20
156.93600000000001
 30
0.0
 11
-20.6251
 21
156.93600000000001
 31
0.0
  0
LINE
  5
52D
  8
_________1
  6
AIGENLINE002
 62
     7
 10
-20.6251
 20
156.93600000000001
 30
0.0
 11
-20.580300000000001
 21
156.93799999999999
 31
0.0
  0
LINE
  5
52E
  8
_________1
  6
AIGENLINE002
 62
     7
 10
-20.580300000000001
 20
156.93799999999999
 30
0.0
 11
-20.535799999999998
 21
156.94300000000001
 31
0.0
  0
LINE
  5
52F
  8
_________1
  6
AIGENLINE002
 62
     7
 10
-20.535799999999998
 20
156.94300000000001
 30
0.0
 11
-20.491700000000002
 21
156.94999999999999
 31
0.0
  0
LINE
  5
530
  8
_________1
  6
AIGENLINE002
 62
     7
 10
-20.491700000000002
 20
156.94999999999999
 30
0.0
 11
-20.4483
 21
156.96000000000001
 31
0.0
  0
LINE
  5
531
  8
_________1
  6
AIGENLINE002
 62
     7
 10
-20.4483
 20
156.96000000000001
 30
0.0
 11
-20.4053
 21
156.97200000000001
 31
0.0
  0
LINE
  5
532
  8
_________1
  6
AIGENLINE002
 62
     7
 10
-20.4053
 20
156.97200000000001
 30
0.0
 11
-20.3629
 21
156.98599999999999
 31
0.0
  0
LINE
  5
533
  8
_________1
  6
AIGENLINE002
 62
     7
 10
-20.3629
 20
156.98599999999999
 30
0.0
 11
-20.321200000000001
 21
157.00200000000001
 31
0.0
  0
LINE
  5
534
  8
_________1
  6
AIGENLINE002
 62
     7
 10
-20.321200000000001
 20
157.00200000000001
 30
0.0
 11
-20.2805
 21
157.02099999999999
 31
0.0
  0
LINE
  5
535
  8
_________1
  6
AIGENLINE002
 62
     7
 10
-20.2805
 20
157.02099999999999
 30
0.0
 11
-20.241299999999999
 21
157.041
 31
0.0
  0
LINE
  5
536
  8
_________1
  6
AIGENLINE002
 62
     7
 10
-20.241299999999999
 20
157.041
 30
0.0
 11
-20.2027
 21
157.06399999999999
 31
0.0
  0
LINE
  5
537
  8
_________1
  6
AIGENLINE002
 62
     7
 10
-20.2027
 20
157.06399999999999
 30
0.0
 11
-20.165500000000002
 21
157.089
 31
0.0
  0
LINE
  5
538
  8
_________1
  6
AIGENLINE002
 62
     7
 10
-20.165500000000002
 20
157.089
 30
0.0
 11
-20.129999999999999
 21
157.11600000000001
 31
0.0
  0
LINE
  5
539
  8
_________1
  6
AIGENLINE002
 62
     7
 10
-20.129999999999999
 20
157.11600000000001
 30
0.0
 11
-20.095500000000001
 21
157.14400000000001
 31
0.0
  0
LINE
  5
53A
  8
_________1
  6
AIGENLINE002
 62
     7
 10
-20.095500000000001
 20
157.14400000000001
 30
0.0
 11
-20.062799999999999
 21
157.17500000000001
 31
0.0
  0
LINE
  5
53B
  8
_________1
  6
AIGENLINE002
 62
     7
 10
-20.062799999999999
 20
157.17500000000001
 30
0.0
 11
-20.0318
 21
157.20699999999999
 31
0.0
  0
LINE
  5
53C
  8
_________1
  6
AIGENLINE002
 62
     7
 10
-20.0318
 20
157.20699999999999
 30
0.0
 11
-20.002500000000001
 21
157.24100000000001
 31
0.0
  0
LINE
  5
53D
  8
_________1
  6
AIGENLINE002
 62
     7
 10
-20.002500000000001
 20
157.24100000000001
 30
0.0
 11
-19.975300000000001
 21
157.27600000000001
 31
0.0
  0
LINE
  5
53E
  8
_________1
  6
AIGENLINE002
 62
     7
 10
-19.975300000000001
 20
157.27600000000001
 30
0.0
 11
-19.9498
 21
157.31299999999999
 31
0.0
  0
LINE
  5
53F
  8
_________1
  6
AIGENLINE002
 62
     7
 10
-19.9498
 20
157.31299999999999
 30
0.0
 11
-19.926400000000001
 21
157.351
 31
0.0
  0
LINE
  5
540
  8
_________1
  6
AIGENLINE002
 62
     7
 10
-19.926400000000001
 20
157.351
 30
0.0
 11
-19.905000000000001
 21
157.38999999999999
 31
0.0
  0
LINE
  5
541
  8
_________1
  6
AIGENLINE002
 62
     7
 10
-19.905000000000001
 20
157.38999999999999
 30
0.0
 11
-19.8919
 21
157.417
 31
0.0
  0
LINE
  5
542
  8
_________1
 62
     7
 10
-22.892299999999999
 20
157.06100000000001
 30
0.0
 11
-22.558800000000002
 21
157.06100000000001
 31
0.0
  0
LINE
  5
543
  8
_________1
 62
     7
 10
-22.892299999999999
 20
151.06100000000001
 30
0.0
 11
-22.558800000000002
 21
151.06100000000001
 31
0.0
  0
LINE
  5
544
  8
_________1
 62
     7
 10
-22.892299999999999
 20
157.39400000000001
 30
0.0
 11
-22.892299999999999
 21
150.727
 31
0.0
  0
LINE
  5
545
  8
_________1
 62
     7
 10
-22.558800000000002
 20
157.39400000000001
 30
0.0
 11
-22.558800000000002
 21
150.727
 31
0.0
  0
ARC
  5
546
  8
_________1
 62
     7
 10
62.989924000000002
 20
126.62074800000001
 30
0.0
 40
0.202284
 50
182.13072700000001
 51
268.07176199999998
  0
ARC
  5
547
  8
_________1
 62
     7
 10
62.976050000000001
 20
126.62065200000001
 30
0.0
 40
0.202197
 50
272.00309700000003
 51
357.89559400000002
  0
ARC
  5
548
  8
_________1
 62
     7
 10
62.975630000000002
 20
126.60574
 30
0.0
 40
0.202619
 50
2.1177399999999991
 51
87.882249999999999
  0
ARC
  5
549
  8
_________1
 62
     7
 10
62.990194999999993
 20
126.60579199999999
 30
0.0
 40
0.202553
 50
92.002500999999995
 51
177.89632900000001
  0
LINE
  5
54A
  8
_________1
 62
     7
 10
55.352899999999991
 20
118.053
 30
0.0
 11
43.119599999999998
 21
118.053
 31
0.0
  0
LINE
  5
54B
  8
_________1
 62
     7
 10
-32.559600000000003
 20
54.401499999999999
 30
0.0
 11
-32.559600000000003
 21
120.89700000000001
 31
0.0
  0
LINE
  5
54C
  8
_________1
 62
     7
 10
-30.8932
 20
120.89700000000001
 30
0.0
 11
-30.8932
 21
54.401499999999999
 31
0.0
  0
LINE
  5
54D
  8
_________1
 62
     7
 10
-33.561799999999998
 20
51.151000000000003
 30
0.0
 11
-33.561799999999998
 21
49.400199999999998
 31
0.0
  0
LINE
  5
54E
  8
_________1
 62
     7
 10
-32.6447
 20
51.151000000000003
 30
0.0
 11
-32.6447
 21
49.400199999999998
 31
0.0
  0
ARC
  5
54F
  8
_________1
 62
     7
 10
-31.499611000000002
 20
54.215125
 30
0.0
 40
5.2379329999999991
 50
246.81473299999999
 51
248.93973399999999
  0
ARC
  5
550
  8
_________1
 62
     7
 10
-33.042501000000001
 20
50.231068
 30
0.0
 40
0.9655959999999998
 50
249.42384000000001
 51
266.883194
  0
ARC
  5
551
  8
_________1
 62
     7
 10
-33.095191
 20
49.887669000000002
 30
0.0
 40
0.6207699999999999
 50
270.01739300000003
 51
284.90479800000003
  0
ARC
  5
552
  8
_________1
 62
     7
 10
-33.251739000000001
 20
50.53784799999999
 30
0.0
 40
1.289437999999999
 50
284.195897
 51
298.08354700000001
  0
ARC
  5
553
  8
_________1
 62
     7
 10
-33.137182000000003
 20
50.422781999999998
 30
0.0
 40
0.879127
 50
55.932757999999993
 51
87.249941000000007
  0
ARC
  5
554
  8
_________1
 62
     7
 10
-33.094970000000004
 20
50.673437
 30
0.0
 40
0.6274600000000001
 50
90.002965000000003
 51
104.703124
  0
ARC
  5
555
  8
_________1
 62
     7
 10
-32.985778000000003
 20
50.211347000000004
 30
0.0
 40
1.1021939999999999
 50
104.096614
 51
121.50870500000001
  0
LINE
  5
556
  8
_________1
 62
     7
 10
-29.8948
 20
51.151000000000003
 30
0.0
 11
-29.8948
 21
49.400199999999998
 31
0.0
  0
LINE
  5
557
  8
_________1
 62
     7
 10
-30.811199999999999
 20
51.151000000000003
 30
0.0
 11
-30.811199999999999
 21
49.400199999999998
 31
0.0
  0
ARC
  5
558
  8
_________1
 62
     7
 10
-28.864939
 20
53.918593999999992
 30
0.0
 40
4.9197280000000001
 50
246.69597200000001
 51
248.86657700000001
  0
ARC
  5
559
  8
_________1
 62
     7
 10
-30.284438000000002
 20
50.249735999999999
 30
0.0
 40
0.985837
 50
248.93945199999999
 51
265.52826600000009
  0
ARC
  5
55A
  8
_________1
 62
     7
 10
-30.361348
 20
49.883031000000003
 30
0.0
 40
0.616132
 50
270.00435499999998
 51
284.762023
  0
ARC
  5
55B
  8
_________1
 62
     7
 10
-30.483298999999999
 20
50.425801
 30
0.0
 40
1.1722360000000001
 50
283.76611800000001
 51
289.836566
  0
ARC
  5
55C
  8
_________1
 62
     7
 10
-31.097981000000001
 20
52.101261000000001
 30
0.0
 40
2.9568829999999999
 50
290.02378399999998
 51
294.01009700000009
  0
ARC
  5
55D
  8
_________1
 62
     7
 10
-30.539007000000002
 20
50.048312000000003
 30
0.0
 40
1.277088999999999
 50
59.707909999999991
 51
75.049284
  0
ARC
  5
55E
  8
_________1
 62
     7
 10
-30.368496
 20
50.618262999999992
 30
0.0
 40
0.6826720000000001
 50
76.534885000000003
 51
89.396184000000005
  0
ARC
  5
55F
  8
_________1
 62
     7
 10
-30.360368000000001
 20
50.761547999999998
 30
0.0
 40
0.53935
 50
90.099139000000022
 51
106.437637
  0
ARC
  5
560
  8
_________1
 62
     7
 10
-30.20635
 20
50.151499999999999
 30
0.0
 40
1.168312
 50
105.21627100000001
 51
121.180885
  0
ARC
  5
561
  8
_________1
 62
     7
 10
-33.599653000000011
 20
44.615394000000002
 30
0.0
 40
4.8791900000000004
 50
76.463498999999999
 51
78.713533999999996
  0
ARC
  5
562
  8
_________1
 62
     7
 10
-31.571498999999999
 20
52.767899999999997
 30
0.0
 40
3.522141
 50
255.428843
 51
261.79893399999997
  0
ARC
  5
563
  8
_________1
 62
     7
 10
-31.866237999999999
 20
50.719315000000002
 30
0.0
 40
1.4524619999999999
 50
261.7792060000001
 51
269.54225300000002
  0
LINE
  5
564
  8
_________1
 62
     7
 10
-31.877800000000001
 20
49.2669
 30
0.0
 11
-31.578099999999999
 21
49.2669
 31
0.0
  0
ARC
  5
565
  8
_________1
 62
     7
 10
-31.57892
 20
50.631830999999991
 30
0.0
 40
1.364932
 50
270.03370999999999
 51
280.17909400000002
  0
ARC
  5
566
  8
_________1
 62
     7
 10
-31.894838
 20
52.630003000000002
 30
0.0
 40
3.3877470000000001
 50
279.46565500000003
 51
283.01169199999998
  0
ARC
  5
567
  8
_________1
 62
     7
 10
-37.020136000000001
 20
76.703730000000007
 30
0.0
 40
28.000568000000001
 50
282.13895600000001
 51
282.8113780000001
  0
ARC
  5
568
  8
_________1
 62
     7
 10
-31.677285000000001
 20
48.588118999999999
 30
0.0
 40
2.7052869999999989
 50
71.329048999999983
 51
78.430796000000001
  0
ARC
  5
569
  8
_________1
 62
     7
 10
-31.786792999999999
 20
48.225099999999998
 30
0.0
 40
3.0830860000000002
 50
77.790006999999989
 51
85.358813999999995
  0
ARC
  5
56A
  8
_________1
 62
     7
 10
-31.655809999999999
 20
49.743035999999989
 30
0.0
 40
1.559547
 50
85.642786999999998
 51
92.665021999999993
  0
ARC
  5
56B
  8
_________1
 62
     7
 10
-31.786038000000001
 20
50.339530000000003
 30
0.0
 40
0.9630969999999999
 50
86.564448999999996
 51
91.664973000000003
  0
ARC
  5
56C
  8
_________1
 62
     7
 10
-31.765421000000011
 20
49.371713999999997
 30
0.0
 40
1.9311189999999989
 50
91.442119999999989
 51
95.888008999999997
  0
ARC
  5
56D
  8
_________1
 62
     7
 10
-31.620557000000002
 20
47.933612999999987
 30
0.0
 40
3.3764959999999991
 50
95.829841000000002
 51
107.65727800000001
  0
LINE
  5
56E
  8
_________1
 62
     7
 10
-32.561399999999999
 20
51.417999999999992
 30
0.0
 11
-31.728300000000001
 21
51.417999999999992
 31
0.0
  0
LINE
  5
56F
  8
_________1
 62
     7
 10
-30.894600000000001
 20
51.417999999999992
 30
0.0
 11
-31.728300000000001
 21
51.417999999999992
 31
0.0
  0
LINE
  5
570
  8
_________1
 62
     7
 10
-30.194199999999999
 20
49.233800000000002
 30
0.0
 11
-31.728300000000001
 21
49.233800000000002
 31
0.0
  0
LINE
  5
571
  8
_________1
 62
     7
 10
-31.728300000000001
 20
49.233800000000002
 30
0.0
 11
-33.261699999999998
 21
49.233800000000002
 31
0.0
  0
LINE
  5
572
  8
_________1
 62
     7
 10
-33.4619
 20
49.367199999999997
 30
0.0
 11
-33.261699999999998
 21
49.250700000000002
 31
0.0
  0
LINE
  5
573
  8
_________1
 62
     7
 10
-33.261699999999998
 20
49.250700000000002
 30
0.0
 11
-33.261699999999998
 21
49.233800000000002
 31
0.0
  0
LINE
  5
574
  8
_________1
 62
     7
 10
-33.561799999999998
 20
49.400199999999998
 30
0.0
 11
-33.261699999999998
 21
49.250700000000002
 31
0.0
  0
LINE
  5
575
  8
_________1
 62
     7
 10
-29.8948
 20
49.400199999999998
 30
0.0
 11
-30.194199999999999
 21
49.233800000000002
 31
0.0
  0
LINE
  5
576
  8
_________1
 62
     7
 10
-30.194199999999999
 20
51.317799999999998
 30
0.0
 11
-33.261699999999998
 21
51.317799999999998
 31
0.0
  0
LINE
  5
577
  8
_________1
 62
     7
 10
-30.694800000000001
 20
51.400799999999997
 30
0.0
 11
-32.761899999999997
 21
51.400799999999997
 31
0.0
  0
ARC
  5
578
  8
_________1
 62
     7
 10
-32.390470999999998
 20
51.870136000000002
 30
0.0
 40
0.4833220000000001
 50
214.745766
 51
249.29489899999999
  0
ARC
  5
579
  8
_________1
 62
     7
 10
-32.504697999999998
 20
51.774506000000002
 30
0.0
 40
0.33523
 50
198.560181
 51
212.44182799999999
  0
LINE
  5
57A
  8
_________1
 62
     7
 10
-32.822499999999998
 20
51.6678
 30
0.0
 11
-32.844499999999996
 21
51.73429999999999
 31
0.0
  0
LINE
  5
57B
  8
_________1
 62
     7
 10
-32.844499999999996
 20
51.73429999999999
 30
0.0
 11
-32.844499999999996
 21
51.834499999999998
 31
0.0
  0
LINE
  5
57C
  8
_________1
 62
     7
 10
-32.844499999999996
 20
51.834499999999998
 30
0.0
 11
-32.811500000000002
 21
51.951000000000001
 31
0.0
  0
LINE
  5
57D
  8
_________1
 62
     7
 10
-30.628
 20
51.951000000000001
 30
0.0
 11
-30.644500000000001
 21
51.951000000000001
 31
0.0
  0
ARC
  5
57E
  8
_________1
 62
     7
 10
-40.499496000000001
 20
50.489718000000003
 30
0.0
 40
9.9791109999999996
 50
7.7449869999999992
 51
8.4202759999999994
  0
LINE
  5
57F
  8
_________1
 62
     7
 10
-30.6114
 20
51.834499999999998
 30
0.0
 11
-30.6114
 21
51.73429999999999
 31
0.0
  0
LINE
  5
580
  8
_________1
 62
     7
 10
-30.6114
 20
51.73429999999999
 30
0.0
 11
-30.6328
 21
51.6678
 31
0.0
  0
ARC
  5
581
  8
_________1
 62
     7
 10
-31.333887000000001
 20
51.904677999999997
 30
0.0
 40
0.740045
 50
335.76112499999999
 51
341.33200399999998
  0
ARC
  5
582
  8
_________1
 62
     7
 10
-30.92117
 20
51.719128000000012
 30
0.0
 40
0.287536
 50
296.47708699999998
 51
335.712132
  0
ARC
  5
583
  8
_________1
 62
     7
 10
-31.915554
 20
53.550151
 30
0.0
 40
2.370989999999999
 50
295.93996499999997
 51
298.25940400000002
  0
LINE
  5
584
  8
_________1
 62
     7
 10
-30.878399999999999
 20
51.417999999999992
 30
0.0
 11
-30.894600000000001
 21
51.417999999999992
 31
0.0
  0
LINE
  5
585
  8
_________1
 62
     7
 10
-30.761299999999999
 20
52.23449999999999
 30
0.0
 11
-32.6785
 21
52.23449999999999
 31
0.0
  0
LINE
  5
586
  8
_________1
 62
     7
 10
-30.761299999999999
 20
53.567799999999998
 30
0.0
 11
-31.728300000000001
 21
53.567799999999998
 31
0.0
  0
LINE
  5
587
  8
_________1
 62
     7
 10
-31.728300000000001
 20
53.567799999999998
 30
0.0
 11
-32.6785
 21
53.567799999999998
 31
0.0
  0
LINE
  5
588
  8
_________1
 62
     7
 10
-32.844499999999996
 20
53.934699999999999
 30
0.0
 11
-32.844499999999996
 21
53.851300000000002
 31
0.0
  0
LINE
  5
589
  8
_________1
 62
     7
 10
-32.844499999999996
 20
53.851300000000002
 30
0.0
 11
-32.794899999999998
 21
53.767600000000002
 31
0.0
  0
LINE
  5
58A
  8
_________1
 62
     7
 10
-30.594899999999999
 20
53.934699999999999
 30
0.0
 11
-30.6114
 21
53.851300000000002
 31
0.0
  0
LINE
  5
58B
  8
_________1
 62
     7
 10
-30.6114
 20
53.851300000000002
 30
0.0
 11
-30.644500000000001
 21
53.767600000000002
 31
0.0
  0
LINE
  5
58C
  8
_________1
 62
     7
 10
-30.594899999999999
 20
54.401499999999999
 30
0.0
 11
-32.844499999999996
 21
54.401499999999999
 31
0.0
  0
LINE
  5
58D
  8
_________1
 62
     7
 10
-30.594899999999999
 20
54.401499999999999
 30
0.0
 11
-30.594899999999999
 21
53.934699999999999
 31
0.0
  0
LINE
  5
58E
  8
_________1
 62
     7
 10
-32.844499999999996
 20
54.401499999999999
 30
0.0
 11
-32.844499999999996
 21
53.934699999999999
 31
0.0
  0
LINE
  5
58F
  8
_________1
 62
     7
 10
-33.261699999999998
 20
51.317799999999998
 30
0.0
 11
-33.561799999999998
 21
51.151000000000003
 31
0.0
  0
LINE
  5
590
  8
_________1
 62
     7
 10
-30.194199999999999
 20
51.317799999999998
 30
0.0
 11
-29.8948
 21
51.151000000000003
 31
0.0
  0
LINE
  5
591
  8
_________1
 62
     7
 10
-30.644500000000001
 20
53.767600000000002
 30
0.0
 11
-30.761299999999999
 21
53.567799999999998
 31
0.0
  0
LINE
  5
592
  8
_________1
 62
     7
 10
-30.761299999999999
 20
52.23449999999999
 30
0.0
 11
-30.644500000000001
 21
51.951000000000001
 31
0.0
  0
LINE
  5
593
  8
_________1
 62
     7
 10
-32.794899999999998
 20
53.767600000000002
 30
0.0
 11
-32.6785
 21
53.567799999999998
 31
0.0
  0
LINE
  5
594
  8
_________1
 62
     7
 10
-32.6785
 20
52.23449999999999
 30
0.0
 11
-32.811500000000002
 21
51.951000000000001
 31
0.0
  0
LINE
  5
595
  8
_________1
 62
     7
 10
-30.761299999999999
 20
53.567799999999998
 30
0.0
 11
-30.761299999999999
 21
52.23449999999999
 31
0.0
  0
LINE
  5
596
  8
_________1
 62
     7
 10
-32.6785
 20
53.567799999999998
 30
0.0
 11
-32.6785
 21
52.23449999999999
 31
0.0
  0
LINE
  5
597
  8
_________1
 62
     7
 10
-30.694800000000001
 20
51.400799999999997
 30
0.0
 11
-30.694800000000001
 21
51.317799999999998
 31
0.0
  0
LINE
  5
598
  8
_________1
 62
     7
 10
-32.761899999999997
 20
51.400799999999997
 30
0.0
 11
-32.761899999999997
 21
51.317799999999998
 31
0.0
  0
LINE
  5
599
  8
_________1
 62
     7
 10
-29.8948
 20
49.400199999999998
 30
0.0
 11
-30.194199999999999
 21
49.233800000000002
 31
0.0
  0
LINE
  5
59A
  8
_________1
 62
     7
 10
-33.561799999999998
 20
49.400199999999998
 30
0.0
 11
-33.261699999999998
 21
49.233800000000002
 31
0.0
  0
LINE
  5
59B
  8
_________1
 62
     7
 10
-33.101199999999999
 20
36.074199999999998
 30
0.0
 11
-33.101199999999999
 21
48.566899999999997
 31
0.0
  0
LINE
  5
59C
  8
_________1
 62
     7
 10
-30.351299999999998
 20
36.074199999999998
 30
0.0
 11
-30.351299999999998
 21
48.566899999999997
 31
0.0
  0
INSERT
  5
59D
  8
_________1
 62
     7
  2
AIGNBL0201001D
 10
0.0
 20
0.0
 30
0.0
  0
LINE
  5
59E
  8
_________1
 62
     7
 10
-47.120800000000003
 20
61.1798
 30
0.0
 11
-47.143199999999993
 21
60.945799999999998
 31
0.0
  0
LINE
  5
59F
  8
_________1
 62
     7
 10
-47.143199999999993
 20
60.945799999999998
 30
0.0
 11
-47.159999999999997
 21
60.918300000000002
 31
0.0
  0
LINE
  5
5A0
  8
_________1
 62
     7
 10
-47.159999999999997
 20
60.918300000000002
 30
0.0
 11
-47.2438
 21
60.904899999999991
 31
0.0
  0
LINE
  5
5A1
  8
_________1
 62
     7
 10
-47.2438
 20
60.904899999999991
 30
0.0
 11
-47.268900000000002
 21
60.9255
 31
0.0
  0
LINE
  5
5A2
  8
_________1
 62
     7
 10
-47.268900000000002
 20
60.9255
 30
0.0
 11
-47.3626
 21
61.1357
 31
0.0
  0
LINE
  5
5A3
  8
_________1
 62
     7
 10
-47.3626
 20
61.1357
 30
0.0
 11
-47.59579999999999
 21
61.1584
 31
0.0
  0
LINE
  5
5A4
  8
_________1
 62
     7
 10
-47.59579999999999
 20
61.1584
 30
0.0
 11
-47.624099999999999
 21
61.176299999999998
 31
0.0
  0
LINE
  5
5A5
  8
_________1
 62
     7
 10
-47.624099999999999
 20
61.176299999999998
 30
0.0
 11
-47.637500000000003
 21
61.258999999999993
 31
0.0
  0
LINE
  5
5A6
  8
_________1
 62
     7
 10
-47.637500000000003
 20
61.258999999999993
 30
0.0
 11
-47.616199999999992
 21
61.283499999999997
 31
0.0
  0
LINE
  5
5A7
  8
_________1
 62
     7
 10
-47.616199999999992
 20
61.283499999999997
 30
0.0
 11
-47.405700000000003
 21
61.377499999999998
 31
0.0
  0
LINE
  5
5A8
  8
_________1
 62
     7
 10
-47.405700000000003
 20
61.377499999999998
 30
0.0
 11
-47.382899999999999
 21
61.611800000000002
 31
0.0
  0
LINE
  5
5A9
  8
_________1
 62
     7
 10
-47.382899999999999
 20
61.611800000000002
 30
0.0
 11
-47.36569999999999
 21
61.640000000000001
 31
0.0
  0
LINE
  5
5AA
  8
_________1
 62
     7
 10
-47.36569999999999
 20
61.640000000000001
 30
0.0
 11
-47.282699999999998
 21
61.653100000000002
 31
0.0
  0
LINE
  5
5AB
  8
_________1
 62
     7
 10
-47.282699999999998
 20
61.653100000000002
 30
0.0
 11
-47.257899999999992
 21
61.631799999999998
 31
0.0
  0
LINE
  5
5AC
  8
_________1
 62
     7
 10
-47.257899999999992
 20
61.631799999999998
 30
0.0
 11
-47.163800000000002
 21
61.421599999999998
 31
0.0
  0
LINE
  5
5AD
  8
_________1
 62
     7
 10
-47.163800000000002
 20
61.421599999999998
 30
0.0
 11
-46.930599999999998
 21
61.398899999999998
 31
0.0
  0
LINE
  5
5AE
  8
_________1
 62
     7
 10
-46.930599999999998
 20
61.398899999999998
 30
0.0
 11
-46.90229999999999
 21
61.381700000000002
 31
0.0
  0
LINE
  5
5AF
  8
_________1
 62
     7
 10
-46.90229999999999
 20
61.381700000000002
 30
0.0
 11
-46.888899999999992
 21
61.2986
 31
0.0
  0
LINE
  5
5B0
  8
_________1
 62
     7
 10
-46.888899999999992
 20
61.2986
 30
0.0
 11
-46.910299999999999
 21
61.273499999999991
 31
0.0
  0
LINE
  5
5B1
  8
_________1
 62
     7
 10
-46.910299999999999
 20
61.273499999999991
 30
0.0
 11
-47.120800000000003
 21
61.1798
 31
0.0
  0
LINE
  5
5B2
  8
_________1
 62
     7
 10
-46.435499999999998
 20
60.568600000000004
 30
0.0
 11
-46.702199999999991
 21
62.214700000000001
 31
0.0
  0
ARC
  5
5B3
  8
_________1
 62
     7
 10
-46.556351999999997
 20
59.598627
 30
0.0
 40
2.6201180000000002
 50
93.190594999999988
 51
104.589366
  0
ARC
  5
5B4
  8
_________1
 62
     7
 10
-46.784773999999999
 20
60.542763999999998
 30
0.0
 40
1.6489720000000001
 50
105.171783
 51
124.239105
  0
ARC
  5
5B5
  8
_________1
 62
     7
 10
-47.12101899999999
 20
61.080900999999997
 30
0.0
 40
1.015212
 50
125.639399
 51
150.01857100000001
  0
ARC
  5
5B6
  8
_________1
 62
     7
 10
-47.362425000000002
 20
61.264183000000003
 30
0.0
 40
0.715536
 50
153.07261600000001
 51
233.50769
  0
ARC
  5
5B7
  8
_________1
 62
     7
 10
-47.190151
 20
61.512456000000007
 30
0.0
 40
1.017625999999999
 50
234.023135
 51
259.74242600000002
  0
ARC
  5
5B8
  8
_________1
 62
     7
 10
-47.054543000000002
 20
62.053291000000002
 30
0.0
 40
1.5744039999999999
 50
258.39097199999998
 51
273.85586500000011
  0
ARC
  5
5B9
  8
_________1
 62
     7
 10
-47.080863000000001
 20
62.84100999999999
 30
0.0
 40
2.36226
 50
273.20799799999998
 51
285.85387100000003
  0
ARC
  5
5BA
  8
_________1
 62
     7
 10
-47.23836699999999
 20
61.540740999999997
 30
0.0
 40
0.4005150000000001
 50
108.22753299999999
 51
116.33237699999999
  0
ARC
  5
5BB
  8
_________1
 62
     7
 10
-35.810301000000003
 20
34.810066999999997
 30
0.0
 40
29.471018999999998
 50
113.191221
 51
113.749054
  0
ARC
  5
5BC
  8
_________1
 62
     7
 10
-42.244303000000002
 20
57.677185999999999
 30
0.0
 40
6.8129210000000002
 50
142.914456
 51
145.69034099999999
  0
ARC
  5
5BD
  8
_________1
 62
     7
 10
-47.598046999999987
 20
61.451098999999999
 30
0.0
 40
0.281665
 50
166.38713799999999
 51
176.120499
  0
ARC
  5
5BE
  8
_________1
 62
     7
 10
61.706524999999999
 20
47.074443000000002
 30
0.0
 40
110.52709299999999
 50
172.51617300000001
 51
172.67121299999999
  0
LINE
  5
5BF
  8
_________1
 62
     7
 10
-47.9176
 20
61.1736
 30
0.0
 11
-47.86699999999999
 21
61.067799999999998
 31
0.0
  0
LINE
  5
5C0
  8
_________1
 62
     7
 10
-47.86699999999999
 20
61.067799999999998
 30
0.0
 11
-47.765300000000003
 21
60.860100000000003
 31
0.0
  0
LINE
  5
5C1
  8
_________1
 62
     7
 10
-47.765300000000003
 20
60.860100000000003
 30
0.0
 11
-47.497700000000002
 21
60.667099999999998
 31
0.0
  0
ARC
  5
5C2
  8
_________1
 62
     7
 10
-47.278418000000002
 20
61.812927000000002
 30
0.0
 40
1.1665760000000001
 50
259.16765700000002
 51
264.21007300000002
  0
ARC
  5
5C3
  8
_________1
 62
     7
 10
-45.557870000000001
 20
74.267717000000005
 30
0.0
 40
13.738946
 50
262.31093099999998
 51
263.33359999999999
  0
ARC
  5
5C4
  8
_________1
 62
     7
 10
-54.573591
 20
76.263621999999984
 30
0.0
 40
17.312973
 50
295.38039199999997
 51
296.531791
  0
ARC
  5
5C5
  8
_________1
 62
     7
 10
-47.004705999999999
 20
60.927140000000001
 30
0.0
 40
0.224954
 50
317.07436300000001
 51
328.02157499999998
  0
ARC
  5
5C6
  8
_________1
 62
     7
 10
-69.572175000000001
 20
77.270285999999999
 30
0.0
 40
28.088187000000001
 50
324.11978199999999
 51
324.70577300000002
  0
ARC
  5
5C7
  8
_________1
 62
     7
 10
-71.604191
 20
63.32119999999999
 30
0.0
 40
25.061366
 50
354.78116999999997
 51
355.567655
  0
ARC
  5
5C8
  8
_________1
 62
     7
 10
-46.953783999999999
 20
61.275863000000001
 30
0.0
 40
0.353105
 50
17.903079000000002
 51
26.569185999999998
  0
ARC
  5
5C9
  8
_________1
 62
     7
 10
-66.605456000000004
 20
52.890205999999999
 30
0.0
 40
21.718506999999999
 50
23.16488
 51
23.927911999999999
  0
LINE
  5
5CA
  8
_________1
 62
     7
 10
-46.753500000000003
 20
61.698900000000002
 30
0.0
 11
-47.021199999999993
 21
61.892200000000003
 31
0.0
  0
ARC
  5
5CB
  8
_________1
 62
     7
 10
-49.453046000000001
 20
35.155978999999988
 30
0.0
 40
26.846610999999999
 50
84.802844999999991
 51
85.536297000000005
  0
LINE
  5
5CC
  8
_________1
 62
     7
 10
-51.400599999999997
 20
59.216099999999997
 30
0.0
 11
-46.158499999999997
 21
60.066299999999998
 31
0.0
  0
LINE
  5
5CD
  8
_________1
 62
     7
 10
-51.898499999999991
 20
61.980800000000002
 30
0.0
 11
-46.6081
 21
62.838900000000002
 31
0.0
  0
LINE
  5
5CE
  8
_________1
 62
     7
 10
-50.908999999999999
 20
60.56519999999999
 30
0.0
 11
-50.81389999999999
 21
60.350499999999997
 31
0.0
  0
LINE
  5
5CF
  8
_________1
 62
     7
 10
-50.81389999999999
 20
60.350499999999997
 30
0.0
 11
-50.78949999999999
 21
60.329900000000002
 31
0.0
  0
LINE
  5
5D0
  8
_________1
 62
     7
 10
-50.78949999999999
 20
60.329900000000002
 30
0.0
 11
-50.705800000000004
 21
60.343299999999999
 31
0.0
  0
LINE
  5
5D1
  8
_________1
 62
     7
 10
-50.705800000000004
 20
60.343299999999999
 30
0.0
 11
-50.688499999999998
 21
60.370899999999999
 31
0.0
  0
LINE
  5
5D2
  8
_________1
 62
     7
 10
-50.688499999999998
 20
60.370899999999999
 30
0.0
 11
-50.6661
 21
60.600299999999997
 31
0.0
  0
LINE
  5
5D3
  8
_________1
 62
     7
 10
-50.6661
 20
60.600299999999997
 30
0.0
 11
-50.451500000000003
 21
60.695399999999992
 31
0.0
  0
LINE
  5
5D4
  8
_________1
 62
     7
 10
-50.451500000000003
 20
60.695399999999992
 30
0.0
 11
-50.430799999999991
 21
60.7209
 31
0.0
  0
LINE
  5
5D5
  8
_________1
 62
     7
 10
-50.430799999999991
 20
60.7209
 30
0.0
 11
-50.444299999999998
 21
60.803600000000003
 31
0.0
  0
LINE
  5
5D6
  8
_________1
 62
     7
 10
-50.444299999999998
 20
60.803600000000003
 30
0.0
 11
-50.471800000000002
 21
60.820399999999999
 31
0.0
  0
LINE
  5
5D7
  8
_________1
 62
     7
 10
-50.471800000000002
 20
60.820399999999999
 30
0.0
 11
-50.700899999999997
 21
60.84279999999999
 31
0.0
  0
LINE
  5
5D8
  8
_________1
 62
     7
 10
-50.700899999999997
 20
60.84279999999999
 30
0.0
 11
-50.79699999999999
 21
61.0578
 31
0.0
  0
LINE
  5
5D9
  8
_________1
 62
     7
 10
-50.79699999999999
 20
61.0578
 30
0.0
 11
-50.821899999999999
 21
61.0792
 31
0.0
  0
LINE
  5
5DA
  8
_________1
 62
     7
 10
-50.821899999999999
 20
61.0792
 30
0.0
 11
-50.905599999999993
 21
61.066099999999992
 31
0.0
  0
LINE
  5
5DB
  8
_________1
 62
     7
 10
-50.905599999999993
 20
61.066099999999992
 30
0.0
 11
-50.922499999999992
 21
61.037799999999997
 31
0.0
  0
LINE
  5
5DC
  8
_________1
 62
     7
 10
-50.922499999999992
 20
61.037799999999997
 30
0.0
 11
-50.944499999999998
 21
60.808399999999999
 31
0.0
  0
LINE
  5
5DD
  8
_________1
 62
     7
 10
-50.944499999999998
 20
60.808399999999999
 30
0.0
 11
-51.159100000000002
 21
60.713000000000001
 31
0.0
  0
LINE
  5
5DE
  8
_________1
 62
     7
 10
-51.159100000000002
 20
60.713000000000001
 30
0.0
 11
-51.180500000000002
 21
60.687800000000003
 31
0.0
  0
LINE
  5
5DF
  8
_________1
 62
     7
 10
-51.180500000000002
 20
60.687800000000003
 30
0.0
 11
-51.167099999999998
 21
60.604799999999997
 31
0.0
  0
LINE
  5
5E0
  8
_________1
 62
     7
 10
-51.167099999999998
 20
60.604799999999997
 30
0.0
 11
-51.138800000000003
 21
60.587899999999998
 31
0.0
  0
LINE
  5
5E1
  8
_________1
 62
     7
 10
-51.138800000000003
 20
60.587899999999998
 30
0.0
 11
-50.908999999999999
 21
60.56519999999999
 31
0.0
  0
LINE
  5
5E2
  8
_________1
 62
     7
 10
-51.366500000000002
 20
59.768700000000003
 30
0.0
 11
-51.633200000000002
 21
61.414700000000003
 31
0.0
  0
ARC
  5
5E3
  8
_________1
 62
     7
 10
-50.944750999999997
 20
58.888266000000002
 30
0.0
 40
2.618576
 50
93.838253000000009
 51
105.242283
  0
ARC
  5
5E4
  8
_________1
 62
     7
 10
-51.02632899999999
 20
59.85555699999999
 30
0.0
 40
1.648077999999999
 50
74.184983000000003
 51
93.259592999999995
  0
ARC
  5
5E5
  8
_________1
 62
     7
 10
-50.877502
 20
60.471853000000003
 30
0.0
 40
1.014853
 50
48.402304999999998
 51
72.786540000000016
  0
ARC
  5
5E6
  8
_________1
 62
     7
 10
-50.706617999999992
 20
60.721814000000002
 30
0.0
 40
0.715495
 50
324.90320800000001
 51
45.345314000000002
  0
ARC
  5
5E7
  8
_________1
 62
     7
 10
-50.916837000000001
 20
60.878106000000002
 30
0.0
 40
0.9773799999999999
 50
305.00660299999998
 51
324.49235399999998
  0
ARC
  5
5E8
  8
_________1
 62
     7
 10
-51.162658
 20
61.202162000000001
 30
0.0
 40
1.383915
 50
289.16626200000002
 51
305.646142
  0
ARC
  5
5E9
  8
_________1
 62
     7
 10
-51.406923999999989
 20
61.83114599999999
 30
0.0
 40
2.0583719999999999
 50
276.29157900000001
 51
289.84057799999999
  0
ARC
  5
5EA
  8
_________1
 62
     7
 10
-51.525663000000002
 20
62.59845
 30
0.0
 40
2.8342700000000001
 50
273.21870100000001
 51
276.977622
  0
ARC
  5
5EB
  8
_________1
 62
     7
 10
-51.334657
 20
54.312950999999991
 30
0.0
 40
7.0451709999999999
 50
83.771981000000011
 51
86.567160999999999
  0
ARC
  5
5EC
  8
_________1
 62
     7
 10
1.11202
 20
132.52436
 30
0.0
 40
87.986485999999985
 50
234.02800300000001
 51
234.24282099999999
  0
ARC
  5
5ED
  8
_________1
 62
     7
 10
-50.531180999999989
 20
60.978749000000001
 30
0.0
 40
0.270082
 50
22.179338000000001
 51
32.350746000000001
  0
ARC
  5
5EE
  8
_________1
 62
     7
 10
-91.497222999999977
 20
40.985776999999992
 30
0.0
 40
45.853859
 50
25.61741
 51
25.991547000000001
  0
LINE
  5
5EF
  8
_________1
 62
     7
 10
-50.150700000000001
 20
60.811100000000003
 30
0.0
 11
-50.165900000000001
 21
60.695
 31
0.0
  0
LINE
  5
5F0
  8
_________1
 62
     7
 10
-50.165900000000001
 20
60.695
 30
0.0
 11
-50.196599999999997
 21
60.465899999999998
 31
0.0
  0
LINE
  5
5F1
  8
_________1
 62
     7
 10
-50.196599999999997
 20
60.465899999999998
 30
0.0
 11
-50.389099999999999
 21
60.198300000000003
 31
0.0
  0
ARC
  5
5F2
  8
_________1
 62
     7
 10
-50.527721
 20
60.416249000000001
 30
0.0
 40
0.258309
 50
292.27075300000001
 51
302.44344999999998
  0
ARC
  5
5F3
  8
_________1
 62
     7
 10
-60.095756999999992
 20
79.951506000000009
 30
0.0
 40
22.010293999999998
 50
295.26309199999997
 51
296.04998799999998
  0
ARC
  5
5F4
  8
_________1
 62
     7
 10
-48.926805000000002
 20
75.100415999999996
 30
0.0
 40
15.158431
 50
261.95648599999998
 51
263.27352999999999
  0
ARC
  5
5F5
  8
_________1
 62
     7
 10
-50.870119000000003
 20
60.392077
 30
0.0
 40
0.349526
 50
230.64497800000001
 51
239.436091
  0
ARC
  5
5F6
  8
_________1
 62
     7
 10
-37.511035999999997
 20
78.952609999999993
 30
0.0
 40
23.217127999999999
 50
233.51924
 51
234.20096100000001
  0
ARC
  5
5F7
  8
_________1
 62
     7
 10
-38.116799
 20
66.148597999999993
 30
0.0
 40
14.442074
 50
202.59260599999999
 51
203.95550700000001
  0
ARC
  5
5F8
  8
_________1
 62
     7
 10
-51.167157000000003
 20
60.606632999999988
 30
0.0
 40
0.283501
 50
171.60630699999999
 51
181.27965900000001
  0
ARC
  5
5F9
  8
_________1
 62
     7
 10
-18.621044000000001
 20
57.896574999999999
 30
0.0
 40
32.941685
 50
174.69537
 51
175.20879099999999
  0
LINE
  5
5FA
  8
_________1
 62
     7
 10
-51.421599999999998
 20
60.942100000000003
 30
0.0
 11
-51.229100000000003
 21
61.209400000000002
 31
0.0
  0
ARC
  5
5FB
  8
_________1
 62
     7
 10
-44.760458999999997
 20
46.611573
 30
0.0
 40
15.966822000000001
 50
112.663633
 51
113.89913900000001
  0
LINE
  5
5FC
  8
_________1
 62
     7
 10
-51.422699999999992
 20
64.150199999999998
 30
0.0
 11
-47.753999999999998
 21
64.744799999999984
 31
0.0
  0
LINE
  5
5FD
  8
_________1
 62
     7
 10
-47.753999999999998
 20
64.744799999999984
 30
0.0
 11
-47.562399999999997
 21
64.7089
 31
0.0
  0
ARC
  5
5FE
  8
_________1
 62
     7
 10
-47.610869999999991
 20
64.589982999999989
 30
0.0
 40
0.128451
 50
52.476748000000001
 51
67.844142000000005
  0
ARC
  5
5FF
  8
_________1
 62
     7
 10
-47.709282000000002
 20
64.456159999999997
 30
0.0
 40
0.294548
 50
42.469607000000003
 51
53.149511999999987
  0
ARC
  5
600
  8
_________1
 62
     7
 10
-47.995974999999987
 20
64.189235999999994
 30
0.0
 40
0.686257
 50
35.726368999999998
 51
42.746555999999991
  0
ARC
  5
601
  8
_________1
 62
     7
 10
-48.681859000000003
 20
63.695514000000003
 30
0.0
 40
1.5313600000000001
 50
30.446459999999998
 51
35.738083000000003
  0
ARC
  5
602
  8
_________1
 62
     7
 10
-50.069253000000003
 20
62.872282999999989
 30
0.0
 40
3.144603
 50
27.028244000000001
 51
30.568016
  0
ARC
  5
603
  8
_________1
 62
     7
 10
-52.554363000000002
 20
61.596811000000002
 30
0.0
 40
5.9379109999999988
 50
24.413871
 51
27.094436999999999
  0
ARC
  5
604
  8
_________1
 62
     7
 10
-57.807586000000001
 20
59.215242000000003
 30
0.0
 40
11.705772
 50
20.417145000000001
 51
24.400804999999998
  0
ARC
  5
605
  8
_________1
 62
     7
 10
-61.684134999999991
 20
57.664704999999998
 30
0.0
 40
15.880015999999999
 50
17.491447999999998
 51
20.780778999999999
  0
ARC
  5
606
  8
_________1
 62
     7
 10
-49.953051000000002
 20
61.342582999999991
 30
0.0
 40
3.5859649999999998
 50
11.979131000000001
 51
17.780904
  0
LINE
  5
607
  8
_________1
 62
     7
 10
-46.445199999999993
 20
62.0869
 30
0.0
 11
-46.2316
 21
60.7712
 31
0.0
  0
ARC
  5
608
  8
_________1
 62
     7
 10
-47.216295000000002
 20
60.615258999999988
 30
0.0
 40
0.9969839999999999
 50
3.690202999999999
 51
8.9975579999999997
  0
ARC
  5
609
  8
_________1
 62
     7
 10
-50.401272999999989
 20
60.365256999999993
 30
0.0
 40
4.1916849999999988
 50
1.458453999999999
 51
4.2983830000000003
  0
ARC
  5
60A
  8
_________1
 62
     7
 10
-57.230255000000007
 20
60.165906
 30
0.0
 40
11.023558
 50
359.631598
 51
1.5908619999999991
  0
ARC
  5
60B
  8
_________1
 62
     7
 10
-62.04248599999999
 20
60.173067000000003
 30
0.0
 40
15.835754
 50
354.80700999999999
 51
359.71764100000001
  0
ARC
  5
60C
  8
_________1
 62
     7
 10
-51.537343999999997
 20
59.243798999999989
 30
0.0
 40
5.2896819999999991
 50
348.83108700000003
 51
354.53215699999998
  0
ARC
  5
60D
  8
_________1
 62
     7
 10
-47.840501000000003
 20
58.537185999999998
 30
0.0
 40
1.526154999999999
 50
342.66176400000001
 51
347.97299600000002
  0
ARC
  5
60E
  8
_________1
 62
     7
 10
-46.981476999999998
 20
58.265504999999997
 30
0.0
 40
0.625208
 50
334.14932800000003
 51
342.96757500000001
  0
ARC
  5
60F
  8
_________1
 62
     7
 10
-46.607931000000001
 20
58.080536000000002
 30
0.0
 40
0.208421
 50
313.89105999999998
 51
335.134387
  0
ARC
  5
610
  8
_________1
 62
     7
 10
-46.515562000000003
 20
57.978268000000007
 30
0.0
 40
0.070815
 50
294.95195899999999
 51
317.400554
  0
ARC
  5
611
  8
_________1
 62
     7
 10
-46.659671999999993
 20
58.243583000000001
 30
0.0
 40
0.37263
 50
289.11997700000001
 51
297.83372700000001
  0
ARC
  5
612
  8
_________1
 62
     7
 10
-47.065756999999998
 20
59.389563000000003
 30
0.0
 40
1.5884259999999999
 50
284.37565599999999
 51
289.42010800000003
  0
ARC
  5
613
  8
_________1
 62
     7
 10
-48.037832000000002
 20
63.102385999999989
 30
0.0
 40
5.4263779999999988
 50
281.94711799999999
 51
284.58498200000002
  0
ARC
  5
614
  8
_________1
 62
     7
 10
-50.008808999999999
 20
72.324730999999986
 30
0.0
 40
14.85698
 50
280.38620099999991
 51
282.02107999999998
  0
ARC
  5
615
  8
_________1
 62
     7
 10
-53.864429999999999
 20
93.211244999999991
 30
0.0
 40
36.096376999999997
 50
279.37221299999999
 51
280.42902900000001
  0
ARC
  5
616
  8
_________1
 62
     7
 10
-60.983575000000002
 20
136.18328099999999
 30
0.0
 40
79.654128999999998
 50
278.66934199999997
 51
279.39108199999998
  0
ARC
  5
617
  8
_________1
 62
     7
 10
-181.30087
 20
932.81027800000004
 30
0.0
 40
885.31578800000011
 50
278.50920500000001
 51
278.59593100000001
  0
LINE
  5
618
  8
_________1
 62
     7
 10
-50.302300000000002
 20
57.239899999999999
 30
0.0
 11
-50.493899999999989
 21
57.276499999999999
 31
0.0
  0
LINE
  5
619
  8
_________1
 62
     7
 10
-50.493899999999989
 20
57.276499999999999
 30
0.0
 11
-50.649900000000002
 21
57.402900000000002
 31
0.0
  0
ARC
  5
61A
  8
_________1
 62
     7
 10
-41.863176000000003
 20
62.31269300000001
 30
0.0
 40
10.065458
 50
197.391356
 51
209.19528099999999
  0
ARC
  5
61B
  8
_________1
 62
     7
 10
-46.710278000000002
 20
60.762650999999998
 30
0.0
 40
4.9767289999999988
 50
189.99505400000001
 51
197.04136199999999
  0
LINE
  5
61C
  8
_________1
 62
     7
 10
-51.611499999999999
 20
59.89889999999999
 30
0.0
 11
-51.825099999999999
 21
61.21459999999999
 31
0.0
  0
ARC
  5
61D
  8
_________1
 62
     7
 10
-48.079273999999998
 20
61.818552000000011
 30
0.0
 40
3.7941790000000002
 50
183.05691100000001
 51
189.15976499999999
  0
ARC
  5
61E
  8
_________1
 62
     7
 10
-45.18153499999999
 20
62.017862000000001
 30
0.0
 40
6.6985710000000003
 50
178.30900500000001
 51
183.437513
  0
ARC
  5
61F
  8
_________1
 62
     7
 10
-41.315812999999991
 20
61.945104999999998
 30
0.0
 40
10.564838
 50
169.42008799999999
 51
178.533241
  0
LINE
  5
620
  8
_________1
 62
     7
 10
-51.701000000000001
 20
63.884900000000002
 30
0.0
 11
-51.59320000000001
 21
64.055099999999996
 31
0.0
  0
LINE
  5
621
  8
_________1
 62
     7
 10
-51.59320000000001
 20
64.055099999999996
 30
0.0
 11
-51.422699999999992
 21
64.150199999999998
 31
0.0
  0
LINE
  5
622
  8
_________1
 62
     7
 10
-33.226300000000002
 20
123.121
 30
0.0
 11
-33.559100000000001
 21
123.121
 31
0.0
  0
LINE
  5
623
  8
_________1
 62
     7
 10
-31.726299999999998
 20
124.063
 30
0.0
 11
-35.059100000000001
 21
124.063
 31
0.0
  0
LINE
  5
624
  8
_________1
 62
     7
 10
-35.059100000000001
 20
124.063
 30
0.0
 11
-35.059100000000001
 21
123.191
 31
0.0
  0
ARC
  5
625
  8
_________1
 62
     7
 10
-34.892487000000003
 20
123.220966
 30
0.0
 40
0.169216
 50
190.13396
 51
202.0652070000001
  0
ARC
  5
626
  8
_________1
 62
     7
 10
-34.736997000000002
 20
123.27821400000001
 30
0.0
 40
0.334866
 50
201.14871400000001
 51
236.289579
  0
ARC
  5
627
  8
_________1
 62
     7
 10
-34.642951000000011
 20
123.3997
 30
0.0
 40
0.48824
 50
235.02106000000001
 51
253.976404
  0
ARC
  5
628
  8
_________1
 62
     7
 10
-34.543256
 20
123.720404
 30
0.0
 40
0.8240350000000001
 50
253.46904900000001
 51
271.45623599999999
  0
LINE
  5
629
  8
_________1
 62
     7
 10
-34.522300000000001
 20
122.89700000000001
 30
0.0
 11
-31.726299999999998
 21
122.89700000000001
 31
0.0
  0
LINE
  5
62A
  8
_________1
 62
     7
 10
-33.226300000000002
 20
124.063
 30
0.0
 11
-33.226300000000002
 21
123.121
 31
0.0
  0
ARC
  5
62B
  8
_________1
 62
     7
 10
-33.007339000000002
 20
123.259828
 30
0.0
 40
0.259093
 50
212.33281600000001
 51
222.09007800000001
  0
ARC
  5
62C
  8
_________1
 62
     7
 10
-32.795147999999998
 20
123.440302
 30
0.0
 40
0.5375930000000001
 50
221.205061
 51
257.33576699999998
  0
ARC
  5
62D
  8
_________1
 62
     7
 10
-32.752819000000002
 20
123.575604
 30
0.0
 40
0.6789830000000001
 50
256.35382700000002
 51
270.37093099999998
  0
LINE
  5
62E
  8
_________1
 62
     7
 10
-33.559100000000001
 20
124.063
 30
0.0
 11
-33.559100000000001
 21
123.121
 31
0.0
  0
ARC
  5
62F
  8
_________1
 62
     7
 10
-34.295877000000011
 20
124.48093900000001
 30
0.0
 40
1.5464919999999991
 50
294.49337200000002
 51
298.45346799999999
  0
ARC
  5
630
  8
_________1
 62
     7
 10
-34.584674999999997
 20
125.055044
 30
0.0
 40
2.188804999999999
 50
282.21442000000002
 51
295.14233999999999
  0
ARC
  5
631
  8
_________1
 62
     7
 10
-34.321196
 20
123.94273200000001
 30
0.0
 40
1.046163999999999
 50
270.64572500000003
 51
280.999482
  0
LINE
  5
632
  8
_________1
 62
     7
 10
-30.225899999999999
 20
123.121
 30
0.0
 11
-29.892800000000001
 21
123.121
 31
0.0
  0
LINE
  5
633
  8
_________1
 62
     7
 10
-31.726299999999998
 20
124.063
 30
0.0
 11
-28.392800000000001
 21
124.063
 31
0.0
  0
LINE
  5
634
  8
_________1
 62
     7
 10
-28.392800000000001
 20
124.063
 30
0.0
 11
-28.392800000000001
 21
123.191
 31
0.0
  0
ARC
  5
635
  8
_________1
 62
     7
 10
-28.558572000000002
 20
123.219476
 30
0.0
 40
0.168206
 50
338.34228100000001
 51
350.319751
  0
ARC
  5
636
  8
_________1
 62
     7
 10
-28.712064000000002
 20
123.274711
 30
0.0
 40
0.331289
 50
303.87437499999999
 51
339.26097099999998
  0
ARC
  5
637
  8
_________1
 62
     7
 10
-28.805536
 20
123.394896
 30
0.0
 40
0.48329
 50
286.04326700000001
 51
305.133284
  0
ARC
  5
638
  8
_________1
 62
     7
 10
-28.905971000000001
 20
123.717051
 30
0.0
 40
0.8206889999999999
 50
268.52478600000001
 51
286.56631800000002
  0
LINE
  5
639
  8
_________1
 62
     7
 10
-28.927099999999999
 20
122.89700000000001
 30
0.0
 11
-31.726299999999998
 21
122.89700000000001
 31
0.0
  0
LINE
  5
63A
  8
_________1
 62
     7
 10
-30.225899999999999
 20
124.063
 30
0.0
 11
-30.225899999999999
 21
123.121
 31
0.0
  0
ARC
  5
63B
  8
_________1
 62
     7
 10
-30.447096999999999
 20
123.261281
 30
0.0
 40
0.261785
 50
318.0136490000001
 51
327.66388999999998
  0
ARC
  5
63C
  8
_________1
 62
     7
 10
-30.65653
 20
123.439504
 30
0.0
 40
0.5367340000000002
 50
282.644589
 51
318.82786099999998
  0
ARC
  5
63D
  8
_________1
 62
     7
 10
-30.699321000000001
 20
123.576382
 30
0.0
 40
0.679761
 50
269.626983
 51
283.63840800000003
  0
LINE
  5
63E
  8
_________1
 62
     7
 10
-29.892800000000001
 20
124.063
 30
0.0
 11
-29.892800000000001
 21
123.121
 31
0.0
  0
ARC
  5
63F
  8
_________1
 62
     7
 10
-29.144684000000002
 20
124.50259800000001
 30
0.0
 40
1.570902
 50
241.56173899999999
 51
245.45799099999999
  0
ARC
  5
640
  8
_________1
 62
     7
 10
-28.869900999999999
 20
125.046958
 30
0.0
 40
2.1803460000000001
 50
244.831165
 51
257.80810600000001
  0
ARC
  5
641
  8
_________1
 62
     7
 10
-29.130680000000002
 20
123.943521
 30
0.0
 40
1.046953
 50
259.00487600000002
 51
269.35757599999999
  0
LINE
  5
642
  8
_________1
 62
     7
 10
-29.142399999999999
 20
122.89700000000001
 30
0.0
 11
-29.142399999999999
 21
120.89700000000001
 31
0.0
  0
LINE
  5
643
  8
_________1
 62
     7
 10
-34.309399999999997
 20
122.89700000000001
 30
0.0
 11
-34.309399999999997
 21
120.89700000000001
 31
0.0
  0
LINE
  5
644
  8
_________1
 62
     7
 10
-28.975999999999999
 20
121.063
 30
0.0
 11
-34.4758
 21
121.063
 31
0.0
  0
LINE
  5
645
  8
_________1
 62
     7
 10
-28.975999999999999
 20
121.063
 30
0.0
 11
-29.142399999999999
 21
120.89700000000001
 31
0.0
  0
LINE
  5
646
  8
_________1
 62
     7
 10
-29.142399999999999
 20
120.89700000000001
 30
0.0
 11
-34.309399999999997
 21
120.89700000000001
 31
0.0
  0
LINE
  5
647
  8
_________1
 62
     7
 10
-34.309399999999997
 20
120.89700000000001
 30
0.0
 11
-34.4758
 21
121.063
 31
0.0
  0
LINE
  5
648
  8
_________1
 62
     7
 10
-34.4758
 20
121.063
 30
0.0
 11
-34.4758
 21
122.89700000000001
 31
0.0
  0
LINE
  5
649
  8
_________1
 62
     7
 10
-34.4758
 20
122.89700000000001
 30
0.0
 11
-28.975999999999999
 21
122.89700000000001
 31
0.0
  0
LINE
  5
64A
  8
_________1
 62
     7
 10
-28.975999999999999
 20
122.89700000000001
 30
0.0
 11
-28.975999999999999
 21
121.063
 31
0.0
  0
LINE
  5
64B
  8
_________1
 62
     7
 10
-29.142399999999999
 20
134.22999999999999
 30
0.0
 11
-29.142399999999999
 21
129.22999999999999
 31
0.0
  0
LINE
  5
64C
  8
_________1
 62
     7
 10
-34.309399999999997
 20
134.22999999999999
 30
0.0
 11
-34.309399999999997
 21
129.22999999999999
 31
0.0
  0
LINE
  5
64D
  8
_________1
 62
     7
 10
-28.975999999999999
 20
129.22999999999999
 30
0.0
 11
-34.4758
 21
129.22999999999999
 31
0.0
  0
LINE
  5
64E
  8
_________1
 62
     7
 10
-34.4758
 20
129.22999999999999
 30
0.0
 11
-34.4758
 21
134.22999999999999
 31
0.0
  0
LINE
  5
64F
  8
_________1
 62
     7
 10
-34.4758
 20
134.22999999999999
 30
0.0
 11
-28.975999999999999
 21
134.22999999999999
 31
0.0
  0
LINE
  5
650
  8
_________1
 62
     7
 10
-28.975999999999999
 20
134.22999999999999
 30
0.0
 11
-28.975999999999999
 21
129.22999999999999
 31
0.0
  0
LINE
  5
651
  8
_________1
 62
     7
 10
-28.0593
 20
124.063
 30
0.0
 11
-35.392600000000002
 21
124.063
 31
0.0
  0
LINE
  5
652
  8
_________1
 62
     7
 10
-35.392600000000002
 20
124.063
 30
0.0
 11
-35.392600000000002
 21
124.48
 31
0.0
  0
LINE
  5
653
  8
_________1
 62
     7
 10
-35.392600000000002
 20
124.48
 30
0.0
 11
-28.0593
 21
124.48
 31
0.0
  0
LINE
  5
654
  8
_________1
 62
     7
 10
-28.0593
 20
124.48
 30
0.0
 11
-28.0593
 21
124.063
 31
0.0
  0
LINE
  5
655
  8
_________1
 62
     7
 10
-27.7258
 20
124.48
 30
0.0
 11
-35.725999999999999
 21
124.48
 31
0.0
  0
LINE
  5
656
  8
_________1
 62
     7
 10
-35.725999999999999
 20
124.48
 30
0.0
 11
-35.725999999999999
 21
124.73
 31
0.0
  0
LINE
  5
657
  8
_________1
 62
     7
 10
-35.725999999999999
 20
124.73
 30
0.0
 11
-27.7258
 21
124.73
 31
0.0
  0
LINE
  5
658
  8
_________1
 62
     7
 10
-27.7258
 20
124.73
 30
0.0
 11
-27.7258
 21
124.48
 31
0.0
  0
LINE
  5
659
  8
_________1
 62
     7
 10
-27.7258
 20
124.73
 30
0.0
 11
-35.725999999999999
 21
124.73
 31
0.0
  0
LINE
  5
65A
  8
_________1
 62
     7
 10
-35.725999999999999
 20
124.73
 30
0.0
 11
-35.725999999999999
 21
125.06399999999999
 31
0.0
  0
LINE
  5
65B
  8
_________1
 62
     7
 10
-35.725999999999999
 20
125.06399999999999
 30
0.0
 11
-27.7258
 21
125.06399999999999
 31
0.0
  0
LINE
  5
65C
  8
_________1
 62
     7
 10
-27.7258
 20
125.06399999999999
 30
0.0
 11
-27.7258
 21
124.73
 31
0.0
  0
LINE
  5
65D
  8
_________1
 62
     7
 10
55.352899999999991
 20
118.053
 30
0.0
 11
62.9831
 21
126.613
 31
0.0
  0
INSERT
  5
65E
  8
_________1
 62
     7
  2
AIGNBL02010020
 10
0.0
 20
0.0
 30
0.0
  0
LINE
  5
65F
  8
_________1
 62
     7
 10
3.6192699999999989
 20
42.562399999999997
 30
0.0
 11
-25.867799999999999
 21
42.562399999999997
 31
0.0
  0
INSERT
  5
660
  8
_________1
 62
     7
  2
AIGNBL02010021
 10
0.0
 20
0.0
 30
0.0
  0
LINE
  5
661
  8
_________1
 62
     7
 10
64.205399999999983
 20
123.121
 30
0.0
 11
63.872300000000003
 21
123.121
 31
0.0
  0
LINE
  5
662
  8
_________1
 62
     7
 10
65.705399999999997
 20
124.063
 30
0.0
 11
62.372599999999998
 21
124.063
 31
0.0
  0
LINE
  5
663
  8
_________1
 62
     7
 10
62.372599999999998
 20
124.063
 30
0.0
 11
62.372599999999998
 21
123.191
 31
0.0
  0
ARC
  5
664
  8
_________1
 62
     7
 10
62.538268000000002
 20
123.220518
 30
0.0
 40
0.168202
 50
190.04065499999999
 51
202.04053300000001
  0
ARC
  5
665
  8
_________1
 62
     7
 10
62.694336999999997
 20
123.27781899999999
 30
0.0
 40
0.334412
 50
201.106325
 51
236.28434300000001
  0
ARC
  5
666
  8
_________1
 62
     7
 10
62.788446999999998
 20
123.399379
 30
0.0
 40
0.4878840000000001
 50
235.01514399999999
 51
253.985623
  0
ARC
  5
667
  8
_________1
 62
     7
 10
62.888401000000002
 20
123.720967
 30
0.0
 40
0.8245989999999999
 50
253.47448
 51
271.45865300000003
  0
LINE
  5
668
  8
_________1
 62
     7
 10
62.909399999999991
 20
122.89700000000001
 30
0.0
 11
65.705399999999997
 21
122.89700000000001
 31
0.0
  0
LINE
  5
669
  8
_________1
 62
     7
 10
64.205399999999983
 20
124.063
 30
0.0
 11
64.205399999999983
 21
123.121
 31
0.0
  0
ARC
  5
66A
  8
_________1
 62
     7
 10
64.424616
 20
123.25998800000001
 30
0.0
 40
0.259389
 50
212.33318399999999
 51
222.07856200000001
  0
ARC
  5
66B
  8
_________1
 62
     7
 10
64.636613999999994
 20
123.44027800000001
 30
0.0
 40
0.5376240000000001
 50
221.19885300000001
 51
257.30981700000012
  0
ARC
  5
66C
  8
_________1
 62
     7
 10
64.678550999999999
 20
123.57437400000001
 30
0.0
 40
0.6777530000000001
 50
256.34139800000003
 51
270.37087000000002
  0
LINE
  5
66D
  8
_________1
 62
     7
 10
63.872300000000003
 20
124.063
 30
0.0
 11
63.872300000000003
 21
123.121
 31
0.0
  0
ARC
  5
66E
  8
_________1
 62
     7
 10
63.134568000000002
 20
124.48263300000001
 30
0.0
 40
1.548416999999999
 50
294.49858699999999
 51
298.45339999999999
  0
ARC
  5
66F
  8
_________1
 62
     7
 10
62.846546999999987
 20
125.05496599999999
 30
0.0
 40
2.1887979999999989
 50
282.223232
 51
295.14675999999997
  0
ARC
  5
670
  8
_________1
 62
     7
 10
63.110495999999998
 20
123.941242
 30
0.0
 40
1.044673999999999
 50
270.64740999999998
 51
281.00741799999997
  0
LINE
  5
671
  8
_________1
 62
     7
 10
67.205500000000001
 20
123.121
 30
0.0
 11
67.538899999999998
 21
123.121
 31
0.0
  0
LINE
  5
672
  8
_________1
 62
     7
 10
65.705399999999997
 20
124.063
 30
0.0
 11
69.038600000000002
 21
124.063
 31
0.0
  0
LINE
  5
673
  8
_________1
 62
     7
 10
69.038600000000002
 20
124.063
 30
0.0
 11
69.038600000000002
 21
123.191
 31
0.0
  0
ARC
  5
674
  8
_________1
 62
     7
 10
68.872788999999997
 20
123.219476
 30
0.0
 40
0.168206
 50
338.34228100000001
 51
350.319751
  0
ARC
  5
675
  8
_________1
 62
     7
 10
68.719464000000002
 20
123.274579
 30
0.0
 40
0.3310869999999999
 50
303.86319300000002
 51
339.272153
  0
ARC
  5
676
  8
_________1
 62
     7
 10
68.625826000000004
 20
123.394896
 30
0.0
 40
0.48329
 50
286.04326700000001
 51
305.133284
  0
ARC
  5
677
  8
_________1
 62
     7
 10
68.525390000000002
 20
123.717051
 30
0.0
 40
0.8206889999999999
 50
268.52478600000001
 51
286.56631800000002
  0
LINE
  5
678
  8
_________1
 62
     7
 10
68.504300000000001
 20
122.89700000000001
 30
0.0
 11
65.705399999999997
 21
122.89700000000001
 31
0.0
  0
LINE
  5
679
  8
_________1
 62
     7
 10
67.205500000000001
 20
124.063
 30
0.0
 11
67.205500000000001
 21
123.121
 31
0.0
  0
ARC
  5
67A
  8
_________1
 62
     7
 10
66.988198999999994
 20
123.258298
 30
0.0
 40
0.256865
 50
317.92100099999999
 51
327.75653799999998
  0
ARC
  5
67B
  8
_________1
 62
     7
 10
66.774831000000006
 20
123.439504
 30
0.0
 40
0.5367340000000002
 50
282.644589
 51
318.82786099999998
  0
ARC
  5
67C
  8
_________1
 62
     7
 10
66.732041000000009
 20
123.576382
 30
0.0
 40
0.679761
 50
269.626983
 51
283.63840800000003
  0
LINE
  5
67D
  8
_________1
 62
     7
 10
67.538899999999998
 20
124.063
 30
0.0
 11
67.538899999999998
 21
123.121
 31
0.0
  0
ARC
  5
67E
  8
_________1
 62
     7
 10
68.285037000000003
 20
124.49766
 30
0.0
 40
1.565613999999999
 50
241.53954999999999
 51
245.44667100000001
  0
ARC
  5
67F
  8
_________1
 62
     7
 10
68.560796999999994
 20
125.04346200000001
 30
0.0
 40
2.1767829999999999
 50
244.81437999999989
 51
257.80644000000001
  0
ARC
  5
680
  8
_________1
 62
     7
 10
68.300674999999998
 20
123.94318199999999
 30
0.0
 40
1.046613
 50
259.00310100000002
 51
269.35769499999998
  0
LINE
  5
681
  8
_________1
 62
     7
 10
68.288899999999998
 20
122.89700000000001
 30
0.0
 11
68.288899999999998
 21
120.89700000000001
 31
0.0
  0
LINE
  5
682
  8
_________1
 62
     7
 10
63.122300000000003
 20
122.89700000000001
 30
0.0
 11
63.122300000000003
 21
120.89700000000001
 31
0.0
  0
LINE
  5
683
  8
_________1
 62
     7
 10
68.455299999999994
 20
121.063
 30
0.0
 11
62.9559
 21
121.063
 31
0.0
  0
LINE
  5
684
  8
_________1
 62
     7
 10
68.455299999999994
 20
121.063
 30
0.0
 11
68.288899999999998
 21
120.89700000000001
 31
0.0
  0
LINE
  5
685
  8
_________1
 62
     7
 10
68.288899999999998
 20
120.89700000000001
 30
0.0
 11
63.122300000000003
 21
120.89700000000001
 31
0.0
  0
LINE
  5
686
  8
_________1
 62
     7
 10
63.122300000000003
 20
120.89700000000001
 30
0.0
 11
62.9559
 21
121.063
 31
0.0
  0
LINE
  5
687
  8
_________1
 62
     7
 10
62.9559
 20
121.063
 30
0.0
 11
62.9559
 21
122.89700000000001
 31
0.0
  0
LINE
  5
688
  8
_________1
 62
     7
 10
62.9559
 20
122.89700000000001
 30
0.0
 11
68.455299999999994
 21
122.89700000000001
 31
0.0
  0
LINE
  5
689
  8
_________1
 62
     7
 10
68.455299999999994
 20
122.89700000000001
 30
0.0
 11
68.455299999999994
 21
121.063
 31
0.0
  0
LINE
  5
68A
  8
_________1
 62
     7
 10
68.288899999999998
 20
134.22999999999999
 30
0.0
 11
68.288899999999998
 21
129.22999999999999
 31
0.0
  0
LINE
  5
68B
  8
_________1
 62
     7
 10
63.122300000000003
 20
134.22999999999999
 30
0.0
 11
63.122300000000003
 21
129.22999999999999
 31
0.0
  0
LINE
  5
68C
  8
_________1
 62
     7
 10
68.455299999999994
 20
129.22999999999999
 30
0.0
 11
62.9559
 21
129.22999999999999
 31
0.0
  0
LINE
  5
68D
  8
_________1
 62
     7
 10
62.9559
 20
129.22999999999999
 30
0.0
 11
62.9559
 21
134.22999999999999
 31
0.0
  0
LINE
  5
68E
  8
_________1
 62
     7
 10
62.9559
 20
134.22999999999999
 30
0.0
 11
68.455299999999994
 21
134.22999999999999
 31
0.0
  0
LINE
  5
68F
  8
_________1
 62
     7
 10
68.455299999999994
 20
134.22999999999999
 30
0.0
 11
68.455299999999994
 21
129.22999999999999
 31
0.0
  0
LINE
  5
690
  8
_________1
 62
     7
 10
69.372399999999999
 20
124.063
 30
0.0
 11
62.038800000000002
 21
124.063
 31
0.0
  0
LINE
  5
691
  8
_________1
 62
     7
 10
62.038800000000002
 20
124.063
 30
0.0
 11
62.038800000000002
 21
124.48
 31
0.0
  0
LINE
  5
692
  8
_________1
 62
     7
 10
62.038800000000002
 20
124.48
 30
0.0
 11
69.372399999999999
 21
124.48
 31
0.0
  0
LINE
  5
693
  8
_________1
 62
     7
 10
69.372399999999999
 20
124.48
 30
0.0
 11
69.372399999999999
 21
124.063
 31
0.0
  0
LINE
  5
694
  8
_________1
 62
     7
 10
69.705200000000005
 20
124.48
 30
0.0
 11
61.704999999999998
 21
124.48
 31
0.0
  0
LINE
  5
695
  8
_________1
 62
     7
 10
61.704999999999998
 20
124.48
 30
0.0
 11
61.704999999999998
 21
124.73
 31
0.0
  0
LINE
  5
696
  8
_________1
 62
     7
 10
61.704999999999998
 20
124.73
 30
0.0
 11
69.705200000000005
 21
124.73
 31
0.0
  0
LINE
  5
697
  8
_________1
 62
     7
 10
69.705200000000005
 20
124.73
 30
0.0
 11
69.705200000000005
 21
124.48
 31
0.0
  0
LINE
  5
698
  8
_________1
 62
     7
 10
69.705200000000005
 20
124.73
 30
0.0
 11
61.704999999999998
 21
124.73
 31
0.0
  0
LINE
  5
699
  8
_________1
 62
     7
 10
61.704999999999998
 20
124.73
 30
0.0
 11
61.704999999999998
 21
125.06399999999999
 31
0.0
  0
LINE
  5
69A
  8
_________1
 62
     7
 10
61.704999999999998
 20
125.06399999999999
 30
0.0
 11
69.705200000000005
 21
125.06399999999999
 31
0.0
  0
LINE
  5
69B
  8
_________1
 62
     7
 10
69.705200000000005
 20
125.06399999999999
 30
0.0
 11
69.705200000000005
 21
124.73
 31
0.0
  0
INSERT
  5
69C
  8
_________1
 62
     7
  2
AIGNBL02010023
 10
0.0
 20
0.0
 30
0.0
  0
LINE
  5
69D
  8
_________1
 62
     7
 10
60.171900000000001
 20
129.22999999999999
 30
0.0
 11
53.7667
 21
129.22999999999999
 31
0.0
  0
LINE
  5
69E
  8
_________1
 62
     7
 10
53.068100000000001
 20
261.32499999999999
 30
0.0
 11
59.639299999999999
 21
261.32499999999999
 31
0.0
  0
INSERT
  5
69F
  8
_________1
 62
     7
  2
AIGNBL02010026
 10
0.0
 20
0.0
 30
0.0
  0
INSERT
  5
6A0
  8
_________1
 62
     7
  2
AIGNBL02010028
 10
0.0
 20
0.0
 30
0.0
  0
LINE
  5
6A1
  8
_________1
  6
AIGENLINE001
 62
     7
 10
65.705100000000002
 20
272.65800000000002
 30
0.0
 11
65.705100000000002
 21
261.69799999999998
 31
0.0
  0
ARC
  5
6A2
  8
_________1
 62
     7
 10
65.593805000000003
 20
267.27905299999998
 30
0.0
 40
3.0303379999999991
 50
2.111613999999999
 51
87.895143999999988
  0
ARC
  5
6A3
  8
_________1
 62
     7
 10
65.816721000000001
 20
267.27873399999999
 30
0.0
 40
3.0306669999999989
 50
92.110628999999989
 51
177.88257400000001
  0
ARC
  5
6A4
  8
_________1
 62
     7
 10
65.816401999999997
 20
267.502365
 30
0.0
 40
3.0303369999999989
 50
182.111616
 51
267.89518099999998
  0
ARC
  5
6A5
  8
_________1
 62
     7
 10
65.593470999999994
 20
267.5027
 30
0.0
 40
3.030683999999999
 50
272.11093899999997
 51
357.88230299999998
  0
LINE
  5
6A6
  8
_________1
  6
AIGENLINE001
 62
     7
 10
59.923200000000001
 20
267.39100000000002
 30
0.0
 11
71.352699999999999
 21
267.39100000000002
 31
0.0
  0
TEXT
  5
6A7
  8
_________2
 62
     7
 10
200.4570586666666
 20
34.465299999999999
 30
0.0
 40
3.6545800000000002
  1
1 ： 6
 41
0.5
 72
     1
 11
203.86799999999999
 21
34.465299999999999
 31
0.0
  0
TEXT
  5
6A8
  8
_________2
 62
     7
 10
244.43868749999999
 20
30.3553
 30
0.0
 40
3.9357000000000002
  1
KW0261002T
 41
0.5
 72
     1
 11
253.458
 21
30.3553
 31
0.0
  0
TEXT
  5
6A9
  8
_________2
 62
     7
 10
149.27189066666671
 20
34.850499999999997
 30
0.0
 40
3.6545800000000002
  1
井伊
 41
0.5
 72
     1
 11
151.221
 21
34.850499999999997
 31
0.0
  0
TEXT
  5
6AA
  8
_________2
 62
     7
 10
130.69789066666669
 20
34.850499999999997
 30
0.0
 40
3.6545800000000002
  1
木場
 41
0.5
 72
     1
 11
132.64699999999999
 21
34.850499999999997
 31
0.0
  0
TEXT
  5
6AB
  8
_________2
 62
     7
 10
177.69399999999999
 20
34.465299999999999
 30
0.0
 40
3.6545800000000002
  1
20.07.30
 41
0.5
  0
TEXT
  5
6AC
  8
_________2
 62
     7
 10
290.64778333333328
 20
12.808299999999999
 30
0.0
 40
3.3734599999999988
  1
A3
 41
0.5
 72
     2
 11
293.459
 21
12.808299999999999
 31
0.0
  0
TEXT
  5
6AD
  8
_________2
 62
     7
 10
134.495
 20
21.954699999999999
 30
0.0
 40
3.9357000000000002
  1
（社）日本水道協会認証品
 41
0.5
  0
LINE
  5
6AE
  8
_________2
 62
     7
 10
315.209
 20
148.65899999999999
 30
0.0
 11
293.459
 21
148.65899999999999
 31
0.0
  0
LINE
  5
6AF
  8
_________2
 62
     7
 10
105.20699999999999
 20
17.156300000000002
 30
0.0
 11
105.20699999999999
 21
0.176045
 31
0.0
  0
LINE
  5
6B0
  8
_________2
 62
     7
 10
105.20699999999999
 20
297.178
 30
0.0
 11
105.20699999999999
 21
280.15800000000002
 31
0.0
  0
LINE
  5
6B1
  8
_________2
 62
     7
 10
-83.043899999999994
 20
148.65899999999999
 30
0.0
 11
-104.794
 21
148.65899999999999
 31
0.0
  0
INSERT
  5
6B2
  8
_________2
 62
     7
  2
AIGNBL03010002
 10
0.0
 20
0.0
 30
0.0
  0
TEXT
  5
6B3
  8
_________2
 62
     7
 10
214.51300000000001
 20
22.9269
 30
0.0
 40
3.0923400000000001
  1
図番
 41
0.5
  0
LINE
  5
6B4
  8
_________2
 62
     7
 10
213.458
 20
27.156099999999999
 30
0.0
 11
293.459
 21
27.156099999999999
 31
0.0
  0
TEXT
  5
6B5
  8
_________2
 62
     7
 10
214.51300000000001
 20
32.926699999999997
 30
0.0
 40
3.0923400000000001
  1
品番
 41
0.5
  0
TEXT
  5
6B6
  8
_________2
 62
     7
 10
214.51300000000001
 20
53.0655
 30
0.0
 40
3.0923400000000001
  1
名称
 41
0.5
  0
TEXT
  5
6B7
  8
_________2
 62
     7
 10
201.75325833333329
 20
48.069400000000002
 30
0.0
 40
3.6545800000000002
  1
mm
 41
0.5
 72
     1
 11
203.27600000000001
 21
48.069400000000002
 31
0.0
  0
TEXT
  5
6B8
  8
_________2
 62
     7
 10
195.55099999999999
 20
53.0655
 30
0.0
 40
3.0923400000000001
  1
単位
 41
0.5
  0
TEXT
  5
6B9
  8
_________2
 62
     7
 10
195.55099999999999
 20
40.658200000000001
 30
0.0
 40
3.0923400000000001
  1
尺度
 41
0.5
  0
TEXT
  5
6BA
  8
_________2
 62
     7
 10
244.43868749999999
 20
20.354800000000001
 30
0.0
 40
3.9357000000000002
  1
KW0261002T
 41
0.5
 72
     1
 11
253.458
 21
20.354800000000001
 31
0.0
  0
TEXT
  5
6BB
  8
_________2
 62
     7
 10
129.49600000000001
 20
132.15600000000001
 30
0.0
 40
3.9357000000000002
  1
給水圧力
 41
0.5
  0
TEXT
  5
6BC
  8
_________2
 62
     7
 10
129.49600000000001
 20
139.91900000000001
 30
0.0
 40
3.9357000000000002
  1
用途
 41
0.5
  0
TEXT
  5
6BD
  8
_________2
 62
     7
 10
169.50999999999999
 20
139.91900000000001
 30
0.0
 40
3.9357000000000002
  1
一般住宅用（屋内用）
 41
0.5
  0
LINE
  5
6BE
  8
_________2
 62
     7
 10
145.64099999999999
 20
137.81100000000001
 30
0.0
 11
145.64099999999999
 21
116.474
 31
0.0
  0
LINE
  5
6BF
  8
_________2
 62
     7
 10
166.97200000000001
 20
145.57299999999989
 30
0.0
 11
166.97200000000001
 21
61.980800000000002
 31
0.0
  0
LINE
  5
6C0
  8
_________2
 62
     7
 10
290.16199999999998
 20
145.57299999999989
 30
0.0
 11
126.95699999999999
 21
145.57299999999989
 31
0.0
  0
LINE
  5
6C1
  8
_________2
 62
     7
 10
126.95699999999999
 20
145.57299999999989
 30
0.0
 11
126.95699999999999
 21
61.980800000000002
 31
0.0
  0
LINE
  5
6C2
  8
_________2
 62
     7
 10
126.95699999999999
 20
61.980800000000002
 30
0.0
 11
290.16199999999998
 21
61.980800000000002
 31
0.0
  0
LINE
  5
6C3
  8
_________2
 62
     7
 10
290.16199999999998
 20
61.980800000000002
 30
0.0
 11
290.16199999999998
 21
145.57299999999989
 31
0.0
  0
TEXT
  5
6C4
  8
_________2
 62
     7
 10
147.41499999999999
 20
132.15600000000001
 30
0.0
 40
3.9357000000000002
  1
最低必要水圧
 41
0.5
  0
TEXT
  5
6C5
  8
_________2
 62
     7
 10
169.50999999999999
 20
132.15600000000001
 30
0.0
 40
3.9357000000000002
  1
0.15MPa（流動圧）
 41
0.5
  0
LINE
  5
6C6
  8
_________2
 62
     7
 10
126.95699999999999
 20
137.81100000000001
 30
0.0
 11
290.16199999999998
 21
137.81100000000001
 31
0.0
  0
TEXT
  5
6C7
  8
_________2
 62
     7
 10
129.49600000000001
 20
110.819
 30
0.0
 40
3.9357000000000002
  1
使用可能水質
 41
0.5
  0
TEXT
  5
6C8
  8
_________2
 62
     7
 10
169.50999999999999
 20
110.819
 30
0.0
 40
3.9357000000000002
  1
水道水
 41
0.5
  0
LINE
  5
6C9
  8
_________2
 62
     7
 10
126.95699999999999
 20
116.474
 30
0.0
 11
290.16199999999998
 21
116.474
 31
0.0
  0
TEXT
  5
6CA
  8
_________2
 62
     7
 10
147.41499999999999
 20
124.53400000000001
 30
0.0
 40
3.9357000000000002
  1
最高水圧
 41
0.5
  0
TEXT
  5
6CB
  8
_________2
 62
     7
 10
169.50999999999999
 20
118.602
 30
0.0
 40
3.9357000000000002
  1
※快適にお使いいただくためには、0.3MPa程度の圧力をおすすめします。
 41
0.5
  0
TEXT
  5
6CC
  8
_________2
 62
     7
 10
169.50999999999999
 20
124.53400000000001
 30
0.0
 40
3.9357000000000002
  1
0.50MPa（流動圧）
 41
0.5
  0
LINE
  5
6CD
  8
_________2
 62
     7
 10
145.64099999999999
 20
130.048
 30
0.0
 11
290.16199999999998
 21
130.048
 31
0.0
  0
TEXT
  5
6CE
  8
_________2
 62
     7
 10
129.49600000000001
 20
103.197
 30
0.0
 40
3.9357000000000002
  1
使用環境温度
 41
0.5
  0
TEXT
  5
6CF
  8
_________2
 62
     7
 10
129.49600000000001
 20
89.623299999999986
 30
0.0
 40
3.9357000000000002
  1
最高給湯温度
 41
0.5
  0
TEXT
  5
6D0
  8
_________2
 62
     7
 10
129.49600000000001
 20
75.920699999999997
 30
0.0
 40
3.9357000000000002
  1
特記事項
 41
0.5
  0
TEXT
  5
6D1
  8
_________2
 62
     7
 10
169.50999999999999
 20
103.197
 30
0.0
 40
3.9357000000000002
  1
1～40℃
 41
0.5
  0
TEXT
  5
6D2
  8
_________2
 62
     7
 10
169.50999999999999
 20
97.200199999999995
 30
0.0
 40
3.9357000000000002
  1
※寒冷地仕様ではありません、凍結が予想される場合は凍結予防をしてください。
 41
0.5
  0
LINE
  5
6D3
  8
_________2
 62
     7
 10
126.95699999999999
 20
108.711
 30
0.0
 11
290.16199999999998
 21
108.711
 31
0.0
  0
TEXT
  5
6D4
  8
_________2
 62
     7
 10
169.50999999999999
 20
89.623299999999986
 30
0.0
 40
3.9357000000000002
  1
70℃
 41
0.5
  0
TEXT
  5
6D5
  8
_________2
 62
     7
 10
169.50999999999999
 20
83.626099999999994
 30
0.0
 40
3.9357000000000002
  1
※安全のため給湯温度は60℃以下でのご使用をおすすめします。
 41
0.5
  0
TEXT
  5
6D6
  8
_________2
 62
     7
 10
169.50999999999999
 20
75.920699999999997
 30
0.0
 40
3.9357000000000002
  1
（1）水圧は湯水ほぼ同圧、且つ湯圧が水圧より高くならないように設定してください。
 41
0.5
  0
TEXT
  5
6D7
  8
_________2
 62
     7
 10
169.50999999999999
 20
69.923500000000004
 30
0.0
 40
3.9357000000000002
  1
（2）湯水を逆に配管しないでください。
 41
0.5
  0
TEXT
  5
6D8
  8
_________2
 62
     7
 10
169.50999999999999
 20
63.926200000000001
 30
0.0
 40
3.9357000000000002
  1
（3）フレキホース寸法公差\U+00B120
 41
0.5
  0
TEXT
  5
6D9
  8
_________2
 62
     7
 10
219.08699999999999
 20
45.473100000000002
 30
0.0
 40
3.9357000000000002
  1
シン キッチン用湯水混合水栓
 41
0.5
  0
TEXT
  5
6DA
  8
_________2
 62
     7
 10
176.501
 20
40.658200000000001
 30
0.0
 40
3.0923400000000001
  1
日付
 41
0.5
  0
TEXT
  5
6DB
  8
_________2
 62
     7
 10
139.547
 20
40.658200000000001
 30
0.0
 40
3.0923400000000001
  1
検図
 41
0.5
  0
TEXT
  5
6DC
  8
_________2
 62
     7
 10
127.929
 20
26.4588
 30
0.0
 40
3.0923400000000001
  1
備考
 41
0.5
  0
TEXT
  5
6DD
  8
_________2
 62
     7
 10
127.929
 20
40.658200000000001
 30
0.0
 40
3.0923400000000001
  1
製図
 41
0.5
  0
TEXT
  5
6DE
  8
_________2
 62
     7
 10
133.69596533333331
 20
49.184199999999997
 30
0.0
 40
4.4979399999999989
  1
セラトレーディング株式会社
 41
0.5
 72
     1
 11
151.08799999999999
 21
49.184199999999997
 31
0.0
  0
LINE
  5
6DF
  8
_________2
 62
     7
 10
293.459
 20
17.156300000000002
 30
0.0
 11
-83.043899999999994
 21
17.156300000000002
 31
0.0
  0
LINE
  5
6E0
  8
_________2
 62
     7
 10
-83.043899999999994
 20
17.156300000000002
 30
0.0
 11
-83.043899999999994
 21
280.15800000000002
 31
0.0
  0
LINE
  5
6E1
  8
_________2
 62
     7
 10
-83.043899999999994
 20
280.15800000000002
 30
0.0
 11
293.459
 21
280.15800000000002
 31
0.0
  0
LINE
  5
6E2
  8
_________2
 62
     7
 10
293.459
 20
280.15800000000002
 30
0.0
 11
293.459
 21
17.156300000000002
 31
0.0
  0
LINE
  5
6E3
  8
_________2
 62
     7
 10
175.458
 20
30.656400000000001
 30
0.0
 11
175.458
 21
57.156199999999998
 31
0.0
  0
LINE
  5
6E4
  8
_________2
 62
     7
 10
194.458
 20
30.656400000000001
 30
0.0
 11
194.458
 21
57.156199999999998
 31
0.0
  0
LINE
  5
6E5
  8
_________2
 62
     7
 10
126.95699999999999
 20
17.156300000000002
 30
0.0
 11
126.95699999999999
 21
57.156199999999998
 31
0.0
  0
LINE
  5
6E6
  8
_________2
 62
     7
 10
213.458
 20
17.156300000000002
 30
0.0
 11
213.458
 21
57.156199999999998
 31
0.0
  0
LINE
  5
6E7
  8
_________2
 62
     7
 10
138.45699999999999
 20
30.656400000000001
 30
0.0
 11
138.45699999999999
 21
44.65659999999999
 31
0.0
  0
LINE
  5
6E8
  8
_________2
 62
     7
 10
126.95699999999999
 20
30.656400000000001
 30
0.0
 11
213.458
 21
30.656400000000001
 31
0.0
  0
LINE
  5
6E9
  8
_________2
 62
     7
 10
126.95699999999999
 20
44.65659999999999
 30
0.0
 11
213.458
 21
44.65659999999999
 31
0.0
  0
LINE
  5
6EA
  8
_________2
 62
     7
 10
213.458
 20
37.15590000000001
 30
0.0
 11
293.459
 21
37.15590000000001
 31
0.0
  0
LINE
  5
6EB
  8
_________2
 62
     7
 10
126.95699999999999
 20
95.137299999999996
 30
0.0
 11
290.16199999999998
 21
95.137299999999996
 31
0.0
  0
LINE
  5
6EC
  8
_________2
 62
     7
 10
126.95699999999999
 20
81.563199999999995
 30
0.0
 11
290.16199999999998
 21
81.563199999999995
 31
0.0
  0
LINE
  5
6ED
  8
_________2
 62
     7
 10
126.95699999999999
 20
57.156199999999998
 30
0.0
 11
293.459
 21
57.156199999999998
 31
0.0
  0
ENDSEC
  0
EOF
