  0
SECTION
  2
HEADER
  9
$ACADVER
  1
AC1009
  9
$INSBASE
 10
0.0
 20
0.0
 30
0.0
  9
$EXTMIN
 10
-4.7012099999999988
 20
-21.070999999999991
 30
0.0
  9
$EXTMAX
 10
205.30099999999999
 20
275.93099999999993
 30
0.0
  9
$LIMMIN
 10
0.0
 20
0.0
  9
$LIMMAX
 10
12.0
 20
9.0
  9
$ORTHOMODE
 70
     0
  9
$REGENMODE
 70
     1
  9
$FILLMODE
 70
     1
  9
$QTEXTMODE
 70
     0
  9
$MIRRTEXT
 70
     1
  9
$DRAGMODE
 70
     2
  9
$LTSCALE
 40
1.0
  9
$OSMODE
 70
    37
  9
$ATTMODE
 70
     1
  9
$TEXTSIZE
 40
0.0
  9
$TRACEWID
 40
0.05
  9
$TEXTSTYLE
  7
STANDARD
  9
$CLAYER
  8
0
  9
$CELTYPE
  6
CONTINUOUS
  9
$CECOLOR
 62
   256
  9
$DIMSCALE
 40
1.0
  9
$DIMASZ
 40
0.18
  9
$DIMEXO
 40
0.0625
  9
$DIMDLI
 40
0.38
  9
$DIMRND
 40
0.0
  9
$DIMDLE
 40
0.0
  9
$DIMEXE
 40
0.18
  9
$DIMTP
 40
0.0
  9
$DIMTM
 40
0.0
  9
$DIMTXT
 40
0.18
  9
$DIMCEN
 40
0.09
  9
$DIMTSZ
 40
0.0
  9
$DIMTOL
 70
     0
  9
$DIMLIM
 70
     0
  9
$DIMTIH
 70
     1
  9
$DIMTOH
 70
     1
  9
$DIMSE1
 70
     0
  9
$DIMSE2
 70
     0
  9
$DIMTAD
 70
     0
  9
$DIMZIN
 70
     0
  9
$DIMBLK
  1

  9
$DIMASO
 70
     1
  9
$DIMSHO
 70
     1
  9
$DIMPOST
  1

  9
$DIMAPOST
  1

  9
$DIMALT
 70
     0
  9
$DIMALTD
 70
     2
  9
$DIMALTF
 40
25.399999999999999
  9
$DIMLFAC
 40
1.0
  9
$DIMTOFL
 70
     0
  9
$DIMTVP
 40
0.0
  9
$DIMTIX
 70
     0
  9
$DIMSOXD
 70
     0
  9
$DIMSAH
 70
     0
  9
$DIMBLK1
  1

  9
$DIMBLK2
  1

  9
$DIMSTYLE
  2
STANDARD
  9
$DIMCLRD
 70
     0
  9
$DIMCLRE
 70
     0
  9
$DIMCLRT
 70
     0
  9
$DIMTFAC
 40
1.0
  9
$DIMGAP
 40
0.09
  9
$LUNITS
 70
     2
  9
$LUPREC
 70
     4
  9
$SKETCHINC
 40
0.1
  9
$FILLETRAD
 40
0.0
  9
$AUNITS
 70
     0
  9
$AUPREC
 70
     0
  9
$MENU
  1
.
  9
$ELEVATION
 40
0.0
  9
$PELEVATION
 40
0.0
  9
$THICKNESS
 40
0.0
  9
$LIMCHECK
 70
     0
  9
$BLIPMODE
 70
     0
  9
$CHAMFERA
 40
0.0
  9
$CHAMFERB
 40
0.0
  9
$SKPOLY
 70
     0
  9
$TDCREATE
 40
2444972.375
  9
$TDUPDATE
 40
2455980.3608904742
  9
$TDINDWG
 40
0.0000153125
  9
$TDUSRTIMER
 40
0.0000153125
  9
$USRTIMER
 70
     1
  9
$ANGBASE
 50
0.0
  9
$ANGDIR
 70
     0
  9
$PDMODE
 70
     0
  9
$PDSIZE
 40
0.0
  9
$PLINEWID
 40
0.0
  9
$COORDS
 70
     1
  9
$SPLFRAME
 70
     0
  9
$SPLINETYPE
 70
     6
  9
$SPLINESEGS
 70
     8
  9
$ATTDIA
 70
     0
  9
$ATTREQ
 70
     1
  9
$HANDLING
 70
     1
  9
$HANDSEED
  5
81F
  9
$SURFTAB1
 70
     6
  9
$SURFTAB2
 70
     6
  9
$SURFTYPE
 70
     6
  9
$SURFU
 70
     6
  9
$SURFV
 70
     6
  9
$UCSNAME
  2

  9
$UCSORG
 10
0.0
 20
0.0
 30
0.0
  9
$UCSXDIR
 10
1.0
 20
0.0
 30
0.0
  9
$UCSYDIR
 10
0.0
 20
1.0
 30
0.0
  9
$PUCSNAME
  2

  9
$PUCSORG
 10
0.0
 20
0.0
 30
0.0
  9
$PUCSXDIR
 10
1.0
 20
0.0
 30
0.0
  9
$PUCSYDIR
 10
0.0
 20
1.0
 30
0.0
  9
$USERI1
 70
     0
  9
$USERI2
 70
     0
  9
$USERI3
 70
     0
  9
$USERI4
 70
     0
  9
$USERI5
 70
     0
  9
$USERR1
 40
0.0
  9
$USERR2
 40
0.0
  9
$USERR3
 40
0.0
  9
$USERR4
 40
0.0
  9
$USERR5
 40
0.0
  9
$WORLDVIEW
 70
     1
  9
$SHADEDGE
 70
     3
  9
$SHADEDIF
 70
    70
  9
$TILEMODE
 70
     1
  9
$MAXACTVP
 70
    48
  9
$PLIMCHECK
 70
     0
  9
$PEXTMIN
 10
1.0000000000000000E+020
 20
1.0000000000000000E+020
 30
1.0000000000000000E+020
  9
$PEXTMAX
 10
-1.0000000000000000E+020
 20
-1.0000000000000000E+020
 30
-1.0000000000000000E+020
  9
$PLIMMIN
 10
0.0
 20
0.0
  9
$PLIMMAX
 10
12.0
 20
9.0
  9
$UNITMODE
 70
     0
  9
$VISRETAIN
 70
     1
  9
$PLINEGEN
 70
     0
  9
$PSLTSCALE
 70
     1
  0
ENDSEC
  0
SECTION
  2
TABLES
  0
TABLE
  2
VPORT
 70
     2
  0
VPORT
  2
*ACTIVE
 70
     0
 10
0.0
 20
0.0
 11
1.0
 21
1.0
 12
205.31019906752431
 22
127.42999999999989
 13
0.0
 23
0.0
 14
1.0
 24
1.0
 15
0.0
 25
0.0
 16
0.0
 26
0.0
 36
1.0
 17
0.0
 27
0.0
 37
0.0
 40
299.24634760705283
 41
2.2894736842105261
 42
50.0
 43
0.0
 44
0.0
 50
0.0
 51
0.0
 71
     0
 72
   100
 73
     1
 74
     1
 75
     0
 76
     0
 77
     0
 78
     0
  0
ENDTAB
  0
TABLE
  2
LTYPE
 70
     4
  0
LTYPE
  2
CONTINUOUS
 70
     0
  3
Solid line
 72
    65
 73
     0
 40
0.0
  0
LTYPE
  2
AIGENLINE001
 70
     0
  3
generate AI->DXF Converter
 72
    65
 73
     6
 40
7.4083750000000004
 49
3.5278
 49
-0.776115
 49
0.776115
 49
-0.776115
 49
0.776115
 49
-0.776115
  0
LTYPE
  2
AIGENLINE002
 70
     0
  3
generate AI->DXF Converter
 72
    65
 73
     4
 40
5.8561449999999988
 49
3.5278
 49
-0.776115
 49
0.776115
 49
-0.776115
  0
LTYPE
  2
AIGENLINE003
 70
     0
  3
generate AI->DXF Converter
 72
    65
 73
     4
 40
7.3283649999999989
 49
5.0000200000000001
 49
-0.776115
 49
0.776115
 49
-0.776115
  0
ENDTAB
  0
TABLE
  2
LAYER
 70
     2
  0
LAYER
  2
0
 70
     0
 62
     7
  6
CONTINUOUS
  0
LAYER
  2
_________2
 70
     0
 62
     7
  6
CONTINUOUS
  0
ENDTAB
  0
TABLE
  2
STYLE
 70
     1
  0
STYLE
  2
STANDARD
 70
     0
 40
0.0
 41
0.0
 50
0.0
 71
     0
 42
0.0
  3
TXT
  4
EXTFONT.SHX
  0
ENDTAB
  0
TABLE
  2
VIEW
 70
     0
  0
ENDTAB
  0
TABLE
  2
UCS
 70
     0
  0
ENDTAB
  0
TABLE
  2
APPID
 70
     1
  0
APPID
  2
ACAD
 70
     0
  0
ENDTAB
  0
TABLE
  2
DIMSTYLE
 70
     1
  0
DIMSTYLE
  2
STANDARD
 70
     0
  3

  4

  5

  6

  7

 40
1.0
 41
0.18
 42
0.0625
 43
0.38
 44
0.18
 45
0.0
 46
0.0
 47
0.0
 48
0.0
140
0.18
141
0.09
142
0.0
143
25.399999999999999
144
1.0
145
0.0
146
1.0
147
0.09
 71
     0
 72
     0
 73
     1
 74
     1
 75
     0
 76
     0
 77
     0
 78
     0
170
     0
171
     2
172
     0
173
     0
174
     0
175
     0
176
     0
177
     0
178
     0
  0
ENDTAB
  0
ENDSEC
  0
SECTION
  2
BLOCKS
  0
BLOCK
  8
0
  2
$MODEL_SPACE
 70
     0
 10
0.0
 20
0.0
 30
0.0
  3
$MODEL_SPACE
  1

  0
ENDBLK
  5
1A
  8
0
  0
BLOCK
 67
     1
  8
0
  2
$PAPER_SPACE
 70
     0
 10
0.0
 20
0.0
 30
0.0
  3
$PAPER_SPACE
  1

  0
ENDBLK
  5
17
 67
     1
  8
0
  0
ENDSEC
  0
SECTION
  2
ENTITIES
  0
TEXT
  5
24
  8
0
 62
     7
 10
71.633908000000005
 20
41.865399999999987
 30
0.0
 40
3.0923400000000001
  1
G 3/8
 41
0.5
 72
     2
 11
78.230900000000005
 21
41.865399999999987
 31
0.0
  0
TEXT
  5
25
  8
0
 62
     7
 10
134.8119079999999
 20
129.54799999999989
 30
0.0
 40
3.0923400000000001
  1
湯
 41
0.5
 72
     2
 11
136.25499999999991
 21
129.54799999999989
 31
0.0
  0
TEXT
  5
26
  8
0
 62
     7
 10
166.87299999999999
 20
129.54799999999989
 30
0.0
 40
3.0923400000000001
  1
水
 41
0.5
  0
TEXT
  5
27
  8
0
 62
     7
 10
67.161177500000008
 20
105.027
 30
0.0
 40
3.0923400000000001
  1
110
 41
0.5
 72
     1
 11
68.578500000000005
 21
105.027
 31
0.0
  0
TEXT
  5
28
  8
0
 62
     7
 10
64.765972500000004
 20
112.194
 30
0.0
 40
3.0923400000000001
  1
70
 41
0.5
 72
     1
 11
65.925600000000003
 21
112.194
 31
0.0
  0
TEXT
  5
29
  8
0
 62
     7
 10
84.812799999999996
 20
109.36083000000001
 30
0.0
 40
3.0923400000000001
  1
121
 50
90.0
 41
0.5
 72
     1
 11
84.812799999999996
 21
110.907
 31
0.0
  0
TEXT
  5
2A
  8
0
 62
     7
 10
84.812799999999996
 20
130.231525
 30
0.0
 40
3.0923400000000001
  1
86
 50
90.0
 41
0.5
 72
     1
 11
84.812799999999996
 21
131.52000000000001
 31
0.0
  0
TEXT
  5
2B
  8
0
 62
     7
 10
73.499499999999983
 20
144.822
 30
0.0
 40
3.0923400000000001
  1
25%%d
 41
0.5
  0
TEXT
  5
2C
  8
0
 62
     7
 10
149.6774399999999
 20
105.81999999999999
 30
0.0
 40
3.0923400000000001
  1
%%c55
 41
0.5
 72
     1
 11
151.73899999999989
 21
105.81999999999999
 31
0.0
  0
TEXT
  5
2D
  8
0
 62
     7
 10
159.36987999999999
 20
94.885800000000003
 30
0.0
 40
3.0923400000000001
  1
%%c33
 41
0.5
 72
     2
 11
163.49299999999991
 21
94.885800000000003
 31
0.0
  0
TEXT
  5
2E
  8
0
 62
     7
 10
160.35187999999991
 20
113.8649999999999
 30
0.0
 40
3.0923400000000001
  1
%%c44
 41
0.5
 72
     2
 11
164.47499999999991
 21
113.8649999999999
 31
0.0
  0
TEXT
  5
2F
  8
0
 62
     7
 10
159.25526999999991
 20
160.904
 30
0.0
 40
3.0923400000000001
  1
%%c21
 41
0.5
 72
     2
 11
162.863
 21
160.904
 31
0.0
  0
TEXT
  5
30
  8
0
 62
     7
 10
143.32637249999991
 20
117.17100000000001
 30
0.0
 40
3.0923400000000001
  1
70
 41
0.5
 72
     1
 11
144.48599999999999
 21
117.17100000000001
 31
0.0
  0
TEXT
  5
31
  8
0
 62
     7
 10
129.88313500000001
 20
153.1399999999999
 30
0.0
 40
3.0923400000000001
  1
200
 41
0.5
 72
     1
 11
131.68700000000001
 21
153.1399999999999
 31
0.0
  0
TEXT
  5
32
  8
0
 62
     7
 10
131.90000000000001
 20
77.296000000000006
 30
0.0
 40
3.0923400000000001
  1
（t＝25）
 41
0.5
  0
TEXT
  5
33
  8
0
 62
     7
 10
131.90000000000001
 20
81.687200000000004
 30
0.0
 40
3.0923400000000001
  1
スペーサー
 41
0.5
  0
TEXT
  5
34
  8
0
 62
     7
 10
101.7579999999999
 20
119.8242875
 30
0.0
 40
3.0923400000000001
  1
230
 50
90.0
 41
0.5
 72
     1
 11
101.7579999999999
 21
121.75700000000001
 31
0.0
  0
TEXT
  5
35
  8
0
 62
     7
 10
140.06399999999991
 20
140.18700000000001
 30
0.0
 40
3.0923400000000001
  1
57%%d
 41
0.5
  0
TEXT
  5
36
  8
0
 62
     7
 10
158.66699999999989
 20
140.36799999999999
 30
0.0
 40
3.0923400000000001
  1
57%%d
 41
0.5
  0
TEXT
  5
37
  8
0
 62
     7
 10
173.38200000000001
 20
147.45298249999991
 30
0.0
 40
3.0923400000000001
  1
501
 50
90.0
 41
0.5
 72
     1
 11
173.38200000000001
 21
149.1279999999999
 31
0.0
  0
TEXT
  5
38
  8
0
 62
     7
 10
173.38200000000001
 20
70.705887500000003
 30
0.0
 40
3.0923400000000001
  1
360
 50
90.0
 41
0.5
 72
     1
 11
173.38200000000001
 21
72.638599999999997
 31
0.0
  0
TEXT
  5
39
  8
0
 62
     7
 10
137.30299999999991
 20
90.549049999999994
 30
0.0
 40
3.0923400000000001
  1
max.45
 50
90.0
 41
0.5
 72
     2
 11
137.30299999999991
 21
98.279899999999984
 31
0.0
  0
TEXT
  5
3A
  8
0
 62
     7
 10
139.565
 20
243.49700000000001
 30
0.0
 40
3.0923400000000001
  1
%%c35
 41
0.5
  0
TEXT
  5
3B
  8
0
 62
     7
 10
147.305646
 20
234.404
 30
0.0
 40
3.0923400000000001
  1
水栓取付穴
 41
0.5
 72
     1
 11
151.73799999999989
 21
234.404
 31
0.0
  0
TEXT
  5
3C
  8
0
 62
     7
 10
62.348500000000001
 20
221.7649999999999
 30
0.0
 40
3.0923400000000001
  1
スパウト回転
 41
0.5
  0
TEXT
  5
3D
  8
0
 62
     7
 10
62.348500000000001
 20
217.899
 30
0.0
 40
3.0923400000000001
  1
360%%d
 41
0.5
  0
LINE
  5
3E
  8
0
 62
     7
 10
66.016499999999994
 20
40.598999999999997
 30
0.0
 11
66.016499999999994
 21
45.626100000000001
 31
0.0
  0
LINE
  5
3F
  8
0
 62
     7
 10
69.316999999999993
 20
40.598999999999997
 30
0.0
 11
69.316999999999993
 21
45.626100000000001
 31
0.0
  0
LINE
  5
40
  8
0
 62
     7
 10
71.5274
 20
41.6432
 30
0.0
 11
69.316999999999993
 21
41.051000000000002
 31
0.0
  0
LINE
  5
41
  8
0
 62
     7
 10
69.316999999999993
 20
41.051000000000002
 30
0.0
 11
71.5274
 21
40.458799999999989
 31
0.0
  0
LINE
  5
42
  8
0
 62
     7
 10
71.5274
 20
40.458799999999989
 30
0.0
 11
71.5274
 21
41.6432
 31
0.0
  0
LINE
  5
43
  8
0
 62
     7
 10
63.758600000000001
 20
40.458799999999989
 30
0.0
 11
65.968999999999994
 21
41.051000000000002
 31
0.0
  0
LINE
  5
44
  8
0
 62
     7
 10
65.968999999999994
 20
41.051000000000002
 30
0.0
 11
63.758600000000001
 21
41.6432
 31
0.0
  0
LINE
  5
45
  8
0
 62
     7
 10
63.758600000000001
 20
41.6432
 30
0.0
 11
63.758600000000001
 21
40.458799999999989
 31
0.0
  0
LINE
  5
46
  8
0
 62
     7
 10
61.9129
 20
41.051000000000002
 30
0.0
 11
78.230900000000005
 21
41.051000000000002
 31
0.0
  0
ARC
  5
47
  8
0
 62
     7
 10
47.574973999999997
 20
60.765479999999997
 30
0.0
 40
1.619904
 50
79.232827999999984
 51
123.087341
  0
ARC
  5
48
  8
0
 62
     7
 10
47.291485999999999
 20
59.483922
 30
0.0
 40
2.932121
 50
69.967706000000007
 51
78.46916800000001
  0
ARC
  5
49
  8
0
 62
     7
 10
56.076293999999997
 20
82.421485000000004
 30
0.0
 40
21.630572000000001
 50
248.91853900000001
 51
251.576358
  0
ARC
  5
4A
  8
0
 62
     7
 10
49.668852000000001
 20
63.497455000000002
 30
0.0
 40
1.65439
 50
254.981616
 51
307.40857699999998
  0
ARC
  5
4B
  8
0
 62
     7
 10
47.565871999999999
 20
61.834318999999986
 30
0.0
 40
1.614142
 50
79.402998999999994
 51
123.0977189999999
  0
ARC
  5
4C
  8
0
 62
     7
 10
47.28822499999999
 20
60.643287000000001
 30
0.0
 40
2.836431999999999
 50
69.653631000000004
 51
78.314525000000003
  0
ARC
  5
4D
  8
0
 62
     7
 10
55.956893999999991
 20
82.885503999999997
 30
0.0
 40
21.035789999999992
 50
248.5795729999999
 51
251.27050799999989
  0
ARC
  5
4E
  8
0
 62
     7
 10
49.628422
 20
64.530490999999998
 30
0.0
 40
1.623742999999999
 50
254.78514699999999
 51
307.78288800000001
  0
ARC
  5
4F
  8
0
 62
     7
 10
66.485740000000007
 20
60.765479999999997
 30
0.0
 40
1.619904
 50
79.232827999999984
 51
123.087341
  0
ARC
  5
50
  8
0
 62
     7
 10
66.202251000000004
 20
59.483922
 30
0.0
 40
2.932121
 50
69.967706000000007
 51
78.46916800000001
  0
ARC
  5
51
  8
0
 62
     7
 10
74.987059000000002
 20
82.421485000000004
 30
0.0
 40
21.630572000000001
 50
248.91853900000001
 51
251.576358
  0
ARC
  5
52
  8
0
 62
     7
 10
68.579618000000011
 20
63.497455000000002
 30
0.0
 40
1.65439
 50
254.981616
 51
307.40857699999998
  0
ARC
  5
53
  8
0
 62
     7
 10
66.476637999999994
 20
61.834318999999986
 30
0.0
 40
1.614142
 50
79.402998999999994
 51
123.0977189999999
  0
ARC
  5
54
  8
0
 62
     7
 10
66.198990000000009
 20
60.643287000000001
 30
0.0
 40
2.836431999999999
 50
69.653631000000004
 51
78.314525000000003
  0
ARC
  5
55
  8
0
 62
     7
 10
74.867660000000001
 20
82.885503999999997
 30
0.0
 40
21.035789999999992
 50
248.5795729999999
 51
251.27050799999989
  0
ARC
  5
56
  8
0
 62
     7
 10
68.539186999999998
 20
64.530490999999998
 30
0.0
 40
1.623742999999999
 50
254.78514699999999
 51
307.78288800000001
  0
ARC
  5
57
  8
0
 62
     7
 10
150.601551
 20
64.085194999999999
 30
0.0
 40
1.619904
 50
79.232827999999984
 51
123.087341
  0
ARC
  5
58
  8
0
 62
     7
 10
150.3179199999999
 20
62.803134
 30
0.0
 40
2.9326419999999991
 50
69.968462000000002
 51
78.468411000000003
  0
ARC
  5
59
  8
0
 62
     7
 10
159.10368299999999
 20
85.743356000000006
 30
0.0
 40
21.632877000000001
 50
248.91858300000001
 51
251.5761049999999
  0
ARC
  5
5A
  8
0
 62
     7
 10
152.695425
 20
66.817177999999998
 30
0.0
 40
1.654399
 50
254.98162799999989
 51
307.40848299999988
  0
ARC
  5
5B
  8
0
 62
     7
 10
150.5924489999999
 20
65.154033999999996
 30
0.0
 40
1.614142
 50
79.402998999999994
 51
123.0977189999999
  0
ARC
  5
5C
  8
0
 62
     7
 10
150.3148009999999
 20
63.963002000000003
 30
0.0
 40
2.836431999999999
 50
69.653631000000004
 51
78.314525000000003
  0
ARC
  5
5D
  8
0
 62
     7
 10
158.982652
 20
86.203086999999996
 30
0.0
 40
21.033505999999999
 50
248.57952700000001
 51
251.270768
  0
ARC
  5
5E
  8
0
 62
     7
 10
152.65500599999999
 20
67.850173999999996
 30
0.0
 40
1.6237129999999991
 50
254.78475599999999
 51
307.78336300000001
  0
LINE
  5
5F
  8
0
 62
     7
 10
72.183800000000005
 20
110.221
 30
0.0
 11
72.183800000000005
 21
118.352
 31
0.0
  0
LINE
  5
60
  8
0
 62
     7
 10
76.761499999999984
 20
103.7349999999999
 30
0.0
 11
78.973600000000005
 21
104.327
 31
0.0
  0
LINE
  5
61
  8
0
 62
     7
 10
78.973600000000005
 20
104.327
 30
0.0
 11
76.761499999999984
 21
104.92
 31
0.0
  0
LINE
  5
62
  8
0
 62
     7
 10
76.761499999999984
 20
104.92
 30
0.0
 11
76.761499999999984
 21
103.7349999999999
 31
0.0
  0
LINE
  5
63
  8
0
 62
     7
 10
60.395299999999999
 20
104.905
 30
0.0
 11
58.183599999999998
 21
104.3129999999999
 31
0.0
  0
LINE
  5
64
  8
0
 62
     7
 10
58.183599999999998
 20
104.3129999999999
 30
0.0
 11
60.395299999999999
 21
103.7199999999999
 31
0.0
  0
LINE
  5
65
  8
0
 62
     7
 10
60.395299999999999
 20
103.7199999999999
 30
0.0
 11
60.395299999999999
 21
104.905
 31
0.0
  0
LINE
  5
66
  8
0
 62
     7
 10
78.973299999999995
 20
104.327
 30
0.0
 11
58.18419999999999
 21
104.327
 31
0.0
  0
LINE
  5
67
  8
0
 62
     7
 10
69.971699999999998
 20
110.901
 30
0.0
 11
72.183800000000005
 21
111.494
 31
0.0
  0
LINE
  5
68
  8
0
 62
     7
 10
72.183800000000005
 20
111.494
 30
0.0
 11
69.971699999999998
 21
112.087
 31
0.0
  0
LINE
  5
69
  8
0
 62
     7
 10
69.971699999999998
 20
112.087
 30
0.0
 11
69.971699999999998
 21
110.901
 31
0.0
  0
LINE
  5
6A
  8
0
 62
     7
 10
60.395299999999999
 20
112.072
 30
0.0
 11
58.183599999999998
 21
111.48
 31
0.0
  0
LINE
  5
6B
  8
0
 62
     7
 10
58.183599999999998
 20
111.48
 30
0.0
 11
60.395299999999999
 21
110.887
 31
0.0
  0
LINE
  5
6C
  8
0
 62
     7
 10
60.395299999999999
 20
110.887
 30
0.0
 11
60.395299999999999
 21
112.072
 31
0.0
  0
LINE
  5
6D
  8
0
 62
     7
 10
72.183499999999995
 20
111.494
 30
0.0
 11
58.18419999999999
 21
111.494
 31
0.0
  0
LINE
  5
6E
  8
0
 62
     7
 10
86.785100000000014
 20
140.4489999999999
 30
0.0
 11
73.190799999999996
 21
140.4489999999999
 31
0.0
  0
LINE
  5
6F
  8
0
 62
     7
 10
86.2273
 20
99.049199999999999
 30
0.0
 11
64.555099999999996
 21
99.049199999999999
 31
0.0
  0
LINE
  5
70
  8
0
 62
     7
 10
86.105400000000003
 20
121.03700000000001
 30
0.0
 11
85.512799999999999
 21
123.249
 31
0.0
  0
LINE
  5
71
  8
0
 62
     7
 10
85.512799999999999
 20
123.249
 30
0.0
 11
84.920199999999994
 21
121.03700000000001
 31
0.0
  0
LINE
  5
72
  8
0
 62
     7
 10
84.920199999999994
 20
121.03700000000001
 30
0.0
 11
86.105400000000003
 21
121.03700000000001
 31
0.0
  0
LINE
  5
73
  8
0
 62
     7
 10
84.934700000000007
 20
101.261
 30
0.0
 11
85.527299999999997
 21
99.049199999999999
 31
0.0
  0
LINE
  5
74
  8
0
 62
     7
 10
85.527299999999997
 20
99.049199999999999
 30
0.0
 11
86.119799999999998
 21
101.261
 31
0.0
  0
LINE
  5
75
  8
0
 62
     7
 10
86.119799999999998
 20
101.261
 30
0.0
 11
84.934700000000007
 21
101.261
 31
0.0
  0
LINE
  5
76
  8
0
 62
     7
 10
85.512799999999999
 20
123.249
 30
0.0
 11
85.512799999999999
 21
99.049899999999994
 31
0.0
  0
LINE
  5
77
  8
0
 62
     7
 10
86.2273
 20
123.249
 30
0.0
 11
66.146299999999997
 21
123.249
 31
0.0
  0
LINE
  5
78
  8
0
 62
     7
 10
86.105400000000003
 20
138.23699999999991
 30
0.0
 11
85.512799999999999
 21
140.4489999999999
 31
0.0
  0
LINE
  5
79
  8
0
 62
     7
 10
85.512799999999999
 20
140.4489999999999
 30
0.0
 11
84.920199999999994
 21
138.23699999999991
 31
0.0
  0
LINE
  5
7A
  8
0
 62
     7
 10
84.920199999999994
 20
138.23699999999991
 30
0.0
 11
86.105400000000003
 21
138.23699999999991
 31
0.0
  0
LINE
  5
7B
  8
0
 62
     7
 10
84.934700000000007
 20
125.461
 30
0.0
 11
85.527299999999997
 21
123.249
 31
0.0
  0
LINE
  5
7C
  8
0
 62
     7
 10
85.527299999999997
 20
123.249
 30
0.0
 11
86.119799999999998
 21
125.461
 31
0.0
  0
LINE
  5
7D
  8
0
 62
     7
 10
86.119799999999998
 20
125.461
 30
0.0
 11
84.934700000000007
 21
125.461
 31
0.0
  0
LINE
  5
7E
  8
0
 62
     7
 10
85.512799999999999
 20
140.4489999999999
 30
0.0
 11
85.512799999999999
 21
123.2499999999999
 31
0.0
  0
LINE
  5
7F
  8
0
 62
     7
 10
72.631699999999995
 20
144.828
 30
0.0
 11
70.383399999999995
 21
144.39400000000001
 31
0.0
  0
LINE
  5
80
  8
0
 62
     7
 10
70.383399999999995
 20
144.39400000000001
 30
0.0
 11
72.547300000000007
 21
143.64599999999999
 31
0.0
  0
LINE
  5
81
  8
0
 62
     7
 10
72.547300000000007
 20
143.64599999999999
 30
0.0
 11
72.631699999999995
 21
144.828
 31
0.0
  0
LINE
  5
82
  8
0
 62
     7
 10
77.254999999999995
 20
142.4789999999999
 30
0.0
 11
79.465100000000007
 21
141.881
 31
0.0
  0
LINE
  5
83
  8
0
 62
     7
 10
79.465100000000007
 20
141.881
 30
0.0
 11
77.849999999999994
 21
143.50399999999991
 31
0.0
  0
LINE
  5
84
  8
0
 62
     7
 10
77.849999999999994
 20
143.50399999999991
 30
0.0
 11
77.254999999999995
 21
142.4789999999999
 31
0.0
  0
ARC
  5
85
  8
0
 62
     7
 10
70.318562
 20
126.23950000000001
 30
0.0
 40
18.120062000000001
 50
59.685619000000003
 51
89.916973999999996
  0
LINE
  5
86
  8
0
 62
     7
 10
148.4489999999999
 20
105.01000000000001
 30
0.0
 11
146.238
 21
104.41799999999991
 31
0.0
  0
LINE
  5
87
  8
0
 62
     7
 10
146.238
 20
104.41799999999991
 30
0.0
 11
148.4489999999999
 21
103.82599999999999
 31
0.0
  0
LINE
  5
88
  8
0
 62
     7
 10
148.4489999999999
 20
103.82599999999999
 30
0.0
 11
148.4489999999999
 21
105.01000000000001
 31
0.0
  0
LINE
  5
89
  8
0
 62
     7
 10
155.02799999999991
 20
103.82599999999999
 30
0.0
 11
157.238
 21
104.41799999999991
 31
0.0
  0
LINE
  5
8A
  8
0
 62
     7
 10
157.238
 20
104.41799999999991
 30
0.0
 11
155.02799999999991
 21
105.01000000000001
 31
0.0
  0
LINE
  5
8B
  8
0
 62
     7
 10
155.02799999999991
 20
105.01000000000001
 30
0.0
 11
155.02799999999991
 21
103.82599999999999
 31
0.0
  0
LINE
  5
8C
  8
0
 62
     7
 10
146.238
 20
104.41799999999991
 30
0.0
 11
157.238
 21
104.41799999999991
 31
0.0
  0
LINE
  5
8D
  8
0
 62
     7
 10
146.12299999999999
 20
94.3215
 30
0.0
 11
148.334
 21
93.728899999999996
 31
0.0
  0
LINE
  5
8E
  8
0
 62
     7
 10
148.334
 20
93.728899999999996
 30
0.0
 11
146.12299999999999
 21
93.137
 31
0.0
  0
LINE
  5
8F
  8
0
 62
     7
 10
146.12299999999999
 20
93.137
 30
0.0
 11
146.12299999999999
 21
94.3215
 31
0.0
  0
LINE
  5
90
  8
0
 62
     7
 10
157.24899999999991
 20
93.136300000000006
 30
0.0
 11
155.0389999999999
 21
93.728899999999996
 31
0.0
  0
LINE
  5
91
  8
0
 62
     7
 10
155.0389999999999
 20
93.728899999999996
 30
0.0
 11
157.24899999999991
 21
94.3215
 31
0.0
  0
LINE
  5
92
  8
0
 62
     7
 10
157.24899999999991
 20
94.3215
 30
0.0
 11
157.24899999999991
 21
93.136300000000006
 31
0.0
  0
LINE
  5
93
  8
0
 62
     7
 10
163.49299999999991
 20
93.728899999999996
 30
0.0
 11
144.82699999999991
 21
93.728899999999996
 31
0.0
  0
LINE
  5
94
  8
0
 62
     7
 10
149.52799999999991
 20
117.0629999999999
 30
0.0
 11
151.73899999999989
 21
116.471
 31
0.0
  0
LINE
  5
95
  8
0
 62
     7
 10
151.73899999999989
 20
116.471
 30
0.0
 11
149.52799999999991
 21
115.87899999999991
 31
0.0
  0
LINE
  5
96
  8
0
 62
     7
 10
149.52799999999991
 20
115.87899999999991
 30
0.0
 11
149.52799999999991
 21
117.0629999999999
 31
0.0
  0
LINE
  5
97
  8
0
 62
     7
 10
145.12700000000001
 20
113.29299999999991
 30
0.0
 11
147.33799999999991
 21
112.7
 31
0.0
  0
LINE
  5
98
  8
0
 62
     7
 10
147.33799999999991
 20
112.7
 30
0.0
 11
145.12700000000001
 21
112.1079999999999
 31
0.0
  0
LINE
  5
99
  8
0
 62
     7
 10
145.12700000000001
 20
112.1079999999999
 30
0.0
 11
145.12700000000001
 21
113.29299999999991
 31
0.0
  0
LINE
  5
9A
  8
0
 62
     7
 10
139.4439999999999
 20
115.8779999999999
 30
0.0
 11
137.23400000000001
 21
116.471
 31
0.0
  0
LINE
  5
9B
  8
0
 62
     7
 10
137.23400000000001
 20
116.471
 30
0.0
 11
139.4439999999999
 21
117.0629999999999
 31
0.0
  0
LINE
  5
9C
  8
0
 62
     7
 10
139.4439999999999
 20
117.0629999999999
 30
0.0
 11
139.4439999999999
 21
115.8779999999999
 31
0.0
  0
LINE
  5
9D
  8
0
 62
     7
 10
158.3479999999999
 20
112.122
 30
0.0
 11
156.13799999999989
 21
112.715
 31
0.0
  0
LINE
  5
9E
  8
0
 62
     7
 10
156.13799999999989
 20
112.715
 30
0.0
 11
158.3479999999999
 21
113.307
 31
0.0
  0
LINE
  5
9F
  8
0
 62
     7
 10
158.3479999999999
 20
113.307
 30
0.0
 11
158.3479999999999
 21
112.122
 31
0.0
  0
LINE
  5
A0
  8
0
 62
     7
 10
151.73899999999989
 20
116.471
 30
0.0
 11
137.23400000000001
 21
116.471
 31
0.0
  0
LINE
  5
A1
  8
0
 62
     7
 10
164.47499999999991
 20
112.708
 30
0.0
 11
143.422
 21
112.708
 31
0.0
  0
LINE
  5
A2
  8
0
 62
     7
 10
147.42699999999999
 20
160.33199999999999
 30
0.0
 11
149.63800000000001
 21
159.74000000000001
 31
0.0
  0
LINE
  5
A3
  8
0
 62
     7
 10
149.63800000000001
 20
159.74000000000001
 30
0.0
 11
147.42699999999999
 21
159.14799999999991
 31
0.0
  0
LINE
  5
A4
  8
0
 62
     7
 10
147.42699999999999
 20
159.14799999999991
 30
0.0
 11
147.42699999999999
 21
160.33199999999999
 31
0.0
  0
LINE
  5
A5
  8
0
 62
     7
 10
156.048
 20
159.16199999999989
 30
0.0
 11
153.83799999999999
 21
159.75399999999991
 31
0.0
  0
LINE
  5
A6
  8
0
 62
     7
 10
153.83799999999999
 20
159.75399999999991
 30
0.0
 11
156.048
 21
160.34700000000001
 31
0.0
  0
LINE
  5
A7
  8
0
 62
     7
 10
156.048
 20
160.34700000000001
 30
0.0
 11
156.048
 21
159.16199999999989
 31
0.0
  0
LINE
  5
A8
  8
0
 62
     7
 10
163.30799999999991
 20
159.74799999999999
 30
0.0
 11
145.72200000000001
 21
159.74799999999999
 31
0.0
  0
LINE
  5
A9
  8
0
 62
     7
 10
149.52699999999999
 20
151.84700000000001
 30
0.0
 11
151.73899999999989
 21
152.43999999999991
 31
0.0
  0
LINE
  5
AA
  8
0
 62
     7
 10
151.73899999999989
 20
152.43999999999991
 30
0.0
 11
149.52699999999999
 21
153.03200000000001
 31
0.0
  0
LINE
  5
AB
  8
0
 62
     7
 10
149.52699999999999
 20
153.03200000000001
 30
0.0
 11
149.52699999999999
 21
151.84700000000001
 31
0.0
  0
LINE
  5
AC
  8
0
 62
     7
 10
113.9499999999999
 20
153.03200000000001
 30
0.0
 11
111.7389999999999
 21
152.43999999999991
 31
0.0
  0
LINE
  5
AD
  8
0
 62
     7
 10
111.7389999999999
 20
152.43999999999991
 30
0.0
 11
113.9499999999999
 21
151.84700000000001
 31
0.0
  0
LINE
  5
AE
  8
0
 62
     7
 10
113.9499999999999
 20
151.84700000000001
 30
0.0
 11
113.9499999999999
 21
153.03200000000001
 31
0.0
  0
LINE
  5
AF
  8
0
 62
     7
 10
151.73899999999989
 20
152.43999999999991
 30
0.0
 11
111.7389999999999
 21
152.43999999999991
 31
0.0
  0
ARC
  5
B0
  8
0
 62
     7
 10
147.959082
 20
88.407831999999999
 30
0.0
 40
0.242952
 50
182.0943429999999
 51
267.99000699999988
  0
ARC
  5
B1
  8
0
 62
     7
 10
147.94191000000001
 20
88.407961
 30
0.0
 40
0.243086
 50
272.0395069999999
 51
357.87618300000003
  0
ARC
  5
B2
  8
0
 62
     7
 10
147.94203999999991
 20
88.390073999999984
 30
0.0
 40
0.242952
 50
2.094341
 51
87.989969999999985
  0
ARC
  5
B3
  8
0
 62
     7
 10
147.95937900000001
 20
88.389778000000007
 30
0.0
 40
0.243259
 50
92.077302000000003
 51
177.838347
  0
LINE
  5
B4
  8
0
 62
     7
 10
142.74399999999989
 20
80.987099999999998
 30
0.0
 11
131.90000000000001
 21
80.987099999999998
 31
0.0
  0
LINE
  5
B5
  8
0
 62
     7
 10
142.74399999999989
 20
80.987099999999998
 30
0.0
 11
147.95099999999991
 21
88.399000000000001
 31
0.0
  0
LINE
  5
B6
  8
0
 62
     7
 10
103.0499999999999
 20
142.83799999999991
 30
0.0
 11
102.458
 21
145.05000000000001
 31
0.0
  0
LINE
  5
B7
  8
0
 62
     7
 10
102.458
 20
145.05000000000001
 30
0.0
 11
101.86499999999999
 21
142.83799999999991
 31
0.0
  0
LINE
  5
B8
  8
0
 62
     7
 10
101.86499999999999
 20
142.83799999999991
 30
0.0
 11
103.0499999999999
 21
142.83799999999991
 31
0.0
  0
LINE
  5
B9
  8
0
 62
     7
 10
101.86499999999999
 20
101.261
 30
0.0
 11
102.458
 21
99.049199999999999
 31
0.0
  0
LINE
  5
BA
  8
0
 62
     7
 10
102.458
 20
99.049199999999999
 30
0.0
 11
103.0499999999999
 21
101.261
 31
0.0
  0
LINE
  5
BB
  8
0
 62
     7
 10
103.0499999999999
 20
101.261
 30
0.0
 11
101.86499999999999
 21
101.261
 31
0.0
  0
LINE
  5
BC
  8
0
 62
     7
 10
102.458
 20
145.04900000000001
 30
0.0
 11
102.458
 21
99.049199999999999
 31
0.0
  0
LINE
  5
BD
  8
0
 62
     7
 10
140.14099999999999
 20
99.049199999999999
 30
0.0
 11
101.7579999999999
 21
99.049199999999999
 31
0.0
  0
LINE
  5
BE
  8
0
 62
     7
 10
101.7579999999999
 20
145.04900000000001
 30
0.0
 11
107.556
 21
145.04900000000001
 31
0.0
  0
LINE
  5
BF
  8
0
 62
     7
 10
154.02600000000001
 20
141.6389999999999
 30
0.0
 11
151.77699999999999
 21
141.20599999999999
 31
0.0
  0
LINE
  5
C0
  8
0
 62
     7
 10
151.77699999999999
 20
141.20599999999999
 30
0.0
 11
153.941
 21
140.45699999999991
 31
0.0
  0
LINE
  5
C1
  8
0
 62
     7
 10
153.941
 20
140.45699999999991
 30
0.0
 11
154.02600000000001
 21
141.6389999999999
 31
0.0
  0
LINE
  5
C2
  8
0
 62
     7
 10
137.548
 20
135.16799999999989
 30
0.0
 11
136.68700000000001
 21
133.04599999999991
 31
0.0
  0
LINE
  5
C3
  8
0
 62
     7
 10
136.68700000000001
 20
133.04599999999991
 30
0.0
 11
138.494
 21
134.45400000000001
 31
0.0
  0
LINE
  5
C4
  8
0
 62
     7
 10
138.494
 20
134.45400000000001
 30
0.0
 11
137.548
 21
135.16799999999989
 31
0.0
  0
LINE
  5
C5
  8
0
 62
     7
 10
149.6109999999999
 20
140.46499999999989
 30
0.0
 11
151.77699999999999
 21
141.20599999999999
 31
0.0
  0
LINE
  5
C6
  8
0
 62
     7
 10
151.77699999999999
 20
141.20599999999999
 30
0.0
 11
149.53100000000001
 21
141.64799999999991
 31
0.0
  0
LINE
  5
C7
  8
0
 62
     7
 10
149.53100000000001
 20
141.64799999999991
 30
0.0
 11
149.6109999999999
 21
140.46499999999989
 31
0.0
  0
LINE
  5
C8
  8
0
 62
     7
 10
137.548
 20
135.16799999999989
 30
0.0
 11
136.68700000000001
 21
133.04599999999991
 31
0.0
  0
LINE
  5
C9
  8
0
 62
     7
 10
136.68700000000001
 20
133.04599999999991
 30
0.0
 11
138.494
 21
134.45400000000001
 31
0.0
  0
LINE
  5
CA
  8
0
 62
     7
 10
138.494
 20
134.45400000000001
 30
0.0
 11
137.548
 21
135.16799999999989
 31
0.0
  0
LINE
  5
CB
  8
0
 62
     7
 10
165.01099999999991
 20
134.42799999999991
 30
0.0
 11
166.81200000000001
 21
133.0149999999999
 31
0.0
  0
LINE
  5
CC
  8
0
 62
     7
 10
166.81200000000001
 20
133.0149999999999
 30
0.0
 11
165.959
 21
135.1399999999999
 31
0.0
  0
LINE
  5
CD
  8
0
 62
     7
 10
165.959
 20
135.1399999999999
 30
0.0
 11
165.01099999999991
 21
134.42799999999991
 31
0.0
  0
ARC
  5
CE
  8
0
 62
     7
 10
151.93065999999999
 20
122.810777
 30
0.0
 40
18.360967999999989
 50
90.598667999999989
 51
146.11896799999991
  0
ARC
  5
CF
  8
0
 62
     7
 10
151.56057499999989
 20
122.835914
 30
0.0
 40
18.335694
 50
33.71963199999999
 51
89.443023999999994
  0
LINE
  5
D0
  8
0
 62
     7
 10
175.35400000000001
 20
199.25099999999989
 30
0.0
 11
136.68100000000001
 21
199.25099999999989
 31
0.0
  0
LINE
  5
D1
  8
0
 62
     7
 10
174.67400000000001
 20
197.0379999999999
 30
0.0
 11
174.08199999999999
 21
199.25099999999989
 31
0.0
  0
LINE
  5
D2
  8
0
 62
     7
 10
174.08199999999999
 20
199.25099999999989
 30
0.0
 11
173.489
 21
197.0379999999999
 31
0.0
  0
LINE
  5
D3
  8
0
 62
     7
 10
173.489
 20
197.0379999999999
 30
0.0
 11
174.67400000000001
 21
197.0379999999999
 31
0.0
  0
LINE
  5
D4
  8
0
 62
     7
 10
173.50399999999999
 20
101.261
 30
0.0
 11
174.09599999999989
 21
99.049199999999999
 31
0.0
  0
LINE
  5
D5
  8
0
 62
     7
 10
174.09599999999989
 20
99.049199999999999
 30
0.0
 11
174.68899999999999
 21
101.261
 31
0.0
  0
LINE
  5
D6
  8
0
 62
     7
 10
174.68899999999999
 20
101.261
 30
0.0
 11
173.50399999999999
 21
101.261
 31
0.0
  0
LINE
  5
D7
  8
0
 62
     7
 10
174.08199999999999
 20
199.24999999999989
 30
0.0
 11
174.08199999999999
 21
99.049899999999994
 31
0.0
  0
LINE
  5
D8
  8
0
 62
     7
 10
175.35400000000001
 20
99.049199999999999
 30
0.0
 11
157.89699999999999
 21
99.049199999999999
 31
0.0
  0
LINE
  5
D9
  8
0
 62
     7
 10
57.383099999999999
 20
75.383600000000001
 30
0.0
 11
57.383099999999999
 21
81.049499999999995
 31
0.0
  0
LINE
  5
DA
  8
0
 62
     7
 10
83.767999999999986
 20
222.595
 30
0.0
 11
84.912299999999988
 21
224.57599999999999
 31
0.0
  0
LINE
  5
DB
  8
0
 62
     7
 10
84.912299999999988
 20
224.57599999999999
 30
0.0
 11
82.930299999999988
 21
223.43199999999999
 31
0.0
  0
LINE
  5
DC
  8
0
 62
     7
 10
82.930299999999988
 20
223.43199999999999
 30
0.0
 11
83.767999999999986
 21
222.595
 31
0.0
  0
LINE
  5
DD
  8
0
 62
     7
 10
33.426900000000003
 20
223.42099999999999
 30
0.0
 11
31.4451
 21
224.56599999999989
 31
0.0
  0
LINE
  5
DE
  8
0
 62
     7
 10
31.4451
 20
224.56599999999989
 30
0.0
 11
32.589300000000001
 21
222.584
 31
0.0
  0
LINE
  5
DF
  8
0
 62
     7
 10
32.589300000000001
 20
222.584
 30
0.0
 11
33.426900000000003
 21
223.42099999999999
 31
0.0
  0
ARC
  5
E0
  8
0
 62
     7
 10
58.003990999999999
 20
249.18312499999999
 30
0.0
 40
36.434313000000003
 50
270.28238499999998
 51
314.71847500000001
  0
ARC
  5
E1
  8
0
 62
     7
 10
58.36009
 20
249.17583799999991
 30
0.0
 40
36.427011
 50
225.27800899999991
 51
269.72233299999988
  0
LINE
  5
E2
  8
0
  6
AIGENLINE002
 62
     7
 10
51.0685
 20
248.75
 30
0.0
 11
73.707099999999997
 21
248.75
 31
0.0
  0
LINE
  5
E3
  8
0
 62
     7
 10
71.977999999999994
 20
244.749
 30
0.0
 11
69.178100000000001
 21
244.749
 31
0.0
  0
LINE
  5
E4
  8
0
 62
     7
 10
71.977999999999994
 20
252.749
 30
0.0
 11
69.178100000000001
 21
252.749
 31
0.0
  0
LINE
  5
E5
  8
0
 62
     7
 10
68.778099999999995
 20
252.34899999999999
 30
0.0
 11
69.178100000000001
 21
252.34899999999999
 31
0.0
  0
LINE
  5
E6
  8
0
 62
     7
 10
68.778099999999995
 20
245.149
 30
0.0
 11
69.178100000000001
 21
245.149
 31
0.0
  0
LINE
  5
E7
  8
0
 62
     7
 10
68.778099999999995
 20
252.749
 30
0.0
 11
68.778099999999995
 21
244.749
 31
0.0
  0
LINE
  5
E8
  8
0
 62
     7
 10
69.178100000000001
 20
252.749
 30
0.0
 11
69.178100000000001
 21
244.749
 31
0.0
  0
LINE
  5
E9
  8
0
  6
AIGENLINE003
 62
     7
 10
151.73899999999989
 20
123.27200000000001
 30
0.0
 11
136.15000000000001
 21
133.39599999999999
 31
0.0
  0
LINE
  5
EA
  8
0
  6
AIGENLINE003
 62
     7
 10
151.83099999999999
 20
123.28700000000001
 30
0.0
 11
167.3659999999999
 21
133.37499999999989
 31
0.0
  0
ARC
  5
EB
  8
0
  6
AIGENLINE001
 62
     7
 10
137.95109999999991
 20
132.2224129999999
 30
0.0
 40
0.7267380000000001
 50
149.09536800000001
 51
234.93256600000001
  0
ARC
  5
EC
  8
0
  6
AIGENLINE001
 62
     7
 10
137.92251799999991
 20
132.17801099999991
 30
0.0
 40
0.726938
 50
59.087738000000002
 51
144.93187699999999
  0
LINE
  5
ED
  8
0
  6
AIGENLINE001
 62
     7
 10
138.29599999999991
 20
132.80199999999999
 30
0.0
 11
148.18999999999991
 21
126.37599999999991
 31
0.0
  0
ARC
  5
EE
  8
0
  6
AIGENLINE001
 62
     7
 10
148.73573099999999
 20
127.189728
 30
0.0
 40
0.9797110000000001
 50
236.173202
 51
307.95198199999987
  0
ARC
  5
EF
  8
0
  6
AIGENLINE001
 62
     7
 10
151.93634199999991
 20
123.3433879999999
 30
0.0
 40
4.1562140000000003
 50
168.99855199999999
 51
254.75918899999999
  0
ARC
  5
F0
  8
0
  6
AIGENLINE001
 62
     7
 10
151.7524719999999
 20
123.228487
 30
0.0
 40
3.999728999999999
 50
256.868268
 51
346.87026800000001
  0
ARC
  5
F1
  8
0
  6
AIGENLINE001
 62
     7
 10
151.569456
 20
123.114457
 30
0.0
 40
4.1548629999999989
 50
348.97542499999992
 51
74.772704000000004
  0
ARC
  5
F2
  8
0
  6
AIGENLINE001
 62
     7
 10
151.88415599999999
 20
124.476083
 30
0.0
 40
2.758913999999999
 50
73.651654000000008
 51
89.490288000000007
  0
ARC
  5
F3
  8
0
  6
AIGENLINE001
 62
     7
 10
151.81813199999999
 20
123.0681249999999
 30
0.0
 40
4.1677470000000003
 50
88.754831000000024
 51
126.519682
  0
LINE
  5
F4
  8
0
  6
AIGENLINE001
 62
     7
 10
137.53399999999999
 20
131.6279999999999
 30
0.0
 11
147.428
 21
125.202
 31
0.0
  0
LINE
  5
F5
  8
0
  6
AIGENLINE001
 62
     7
 10
147.85699999999991
 20
124.136
 30
0.0
 11
147.85900000000001
 21
124.142
 31
0.0
  0
LINE
  5
F6
  8
0
  6
AIGENLINE001
 62
     7
 10
147.8609999999999
 20
124.154
 30
0.0
 11
147.85699999999991
 21
124.136
 31
0.0
  0
LINE
  5
F7
  8
0
  6
AIGENLINE001
 62
     7
 10
147.8609999999999
 20
124.154
 30
0.0
 11
147.86500000000001
 21
124.1749999999999
 31
0.0
  0
LINE
  5
F8
  8
0
  6
AIGENLINE001
 62
     7
 10
147.86500000000001
 20
124.1749999999999
 30
0.0
 11
147.869
 21
124.19499999999989
 31
0.0
  0
LINE
  5
F9
  8
0
  6
AIGENLINE001
 62
     7
 10
147.869
 20
124.19499999999989
 30
0.0
 11
147.87200000000001
 21
124.217
 31
0.0
  0
LINE
  5
FA
  8
0
  6
AIGENLINE001
 62
     7
 10
147.87200000000001
 20
124.217
 30
0.0
 11
147.87499999999989
 21
124.2399999999999
 31
0.0
  0
LINE
  5
FB
  8
0
  6
AIGENLINE001
 62
     7
 10
147.87499999999989
 20
124.2399999999999
 30
0.0
 11
147.8779999999999
 21
124.26299999999991
 31
0.0
  0
LINE
  5
FC
  8
0
  6
AIGENLINE001
 62
     7
 10
147.8779999999999
 20
124.26299999999991
 30
0.0
 11
147.87999999999991
 21
124.28700000000001
 31
0.0
  0
LINE
  5
FD
  8
0
  6
AIGENLINE001
 62
     7
 10
147.87999999999991
 20
124.28700000000001
 30
0.0
 11
147.881
 21
124.31100000000001
 31
0.0
  0
LINE
  5
FE
  8
0
  6
AIGENLINE001
 62
     7
 10
147.881
 20
124.31100000000001
 30
0.0
 11
147.88199999999989
 21
124.336
 31
0.0
  0
LINE
  5
FF
  8
0
  6
AIGENLINE001
 62
     7
 10
147.88199999999989
 20
124.336
 30
0.0
 11
147.8829999999999
 21
124.36
 31
0.0
  0
LINE
  5
100
  8
0
  6
AIGENLINE001
 62
     7
 10
147.8829999999999
 20
124.36
 30
0.0
 11
147.88199999999989
 21
124.38500000000001
 31
0.0
  0
LINE
  5
101
  8
0
  6
AIGENLINE001
 62
     7
 10
147.88199999999989
 20
124.38500000000001
 30
0.0
 11
147.88199999999989
 21
124.4099999999999
 31
0.0
  0
LINE
  5
102
  8
0
  6
AIGENLINE001
 62
     7
 10
147.88199999999989
 20
124.4099999999999
 30
0.0
 11
147.87999999999991
 21
124.43600000000001
 31
0.0
  0
LINE
  5
103
  8
0
  6
AIGENLINE001
 62
     7
 10
147.87999999999991
 20
124.43600000000001
 30
0.0
 11
147.8779999999999
 21
124.45999999999989
 31
0.0
  0
LINE
  5
104
  8
0
  6
AIGENLINE001
 62
     7
 10
147.8779999999999
 20
124.45999999999989
 30
0.0
 11
147.876
 21
124.485
 31
0.0
  0
LINE
  5
105
  8
0
  6
AIGENLINE001
 62
     7
 10
147.876
 20
124.485
 30
0.0
 11
147.87200000000001
 21
124.51000000000001
 31
0.0
  0
LINE
  5
106
  8
0
  6
AIGENLINE001
 62
     7
 10
147.87200000000001
 20
124.51000000000001
 30
0.0
 11
147.86799999999991
 21
124.5349999999999
 31
0.0
  0
LINE
  5
107
  8
0
  6
AIGENLINE001
 62
     7
 10
147.86799999999991
 20
124.5349999999999
 30
0.0
 11
147.864
 21
124.56
 31
0.0
  0
LINE
  5
108
  8
0
  6
AIGENLINE001
 62
     7
 10
147.864
 20
124.56
 30
0.0
 11
147.858
 21
124.584
 31
0.0
  0
LINE
  5
109
  8
0
  6
AIGENLINE001
 62
     7
 10
147.858
 20
124.584
 30
0.0
 11
147.852
 21
124.6079999999999
 31
0.0
  0
LINE
  5
10A
  8
0
  6
AIGENLINE001
 62
     7
 10
147.852
 20
124.6079999999999
 30
0.0
 11
147.846
 21
124.6329999999999
 31
0.0
  0
LINE
  5
10B
  8
0
  6
AIGENLINE001
 62
     7
 10
147.846
 20
124.6329999999999
 30
0.0
 11
147.839
 21
124.657
 31
0.0
  0
LINE
  5
10C
  8
0
  6
AIGENLINE001
 62
     7
 10
147.839
 20
124.657
 30
0.0
 11
147.83099999999999
 21
124.6809999999999
 31
0.0
  0
LINE
  5
10D
  8
0
  6
AIGENLINE001
 62
     7
 10
147.83099999999999
 20
124.6809999999999
 30
0.0
 11
147.82299999999989
 21
124.70399999999989
 31
0.0
  0
LINE
  5
10E
  8
0
  6
AIGENLINE001
 62
     7
 10
147.82299999999989
 20
124.70399999999989
 30
0.0
 11
147.81399999999991
 21
124.727
 31
0.0
  0
LINE
  5
10F
  8
0
  6
AIGENLINE001
 62
     7
 10
147.81399999999991
 20
124.727
 30
0.0
 11
147.80500000000001
 21
124.751
 31
0.0
  0
LINE
  5
110
  8
0
  6
AIGENLINE001
 62
     7
 10
147.80500000000001
 20
124.751
 30
0.0
 11
147.7949999999999
 21
124.774
 31
0.0
  0
LINE
  5
111
  8
0
  6
AIGENLINE001
 62
     7
 10
147.7949999999999
 20
124.774
 30
0.0
 11
147.78499999999991
 21
124.797
 31
0.0
  0
LINE
  5
112
  8
0
  6
AIGENLINE001
 62
     7
 10
147.78499999999991
 20
124.797
 30
0.0
 11
147.773
 21
124.819
 31
0.0
  0
LINE
  5
113
  8
0
  6
AIGENLINE001
 62
     7
 10
147.773
 20
124.819
 30
0.0
 11
147.761
 21
124.84099999999999
 31
0.0
  0
LINE
  5
114
  8
0
  6
AIGENLINE001
 62
     7
 10
147.761
 20
124.84099999999999
 30
0.0
 11
147.74899999999991
 21
124.863
 31
0.0
  0
LINE
  5
115
  8
0
  6
AIGENLINE001
 62
     7
 10
147.74899999999991
 20
124.863
 30
0.0
 11
147.73699999999999
 21
124.8839999999999
 31
0.0
  0
LINE
  5
116
  8
0
  6
AIGENLINE001
 62
     7
 10
147.73699999999999
 20
124.8839999999999
 30
0.0
 11
147.7229999999999
 21
124.9049999999999
 31
0.0
  0
LINE
  5
117
  8
0
  6
AIGENLINE001
 62
     7
 10
147.7229999999999
 20
124.9049999999999
 30
0.0
 11
147.71000000000001
 21
124.926
 31
0.0
  0
LINE
  5
118
  8
0
  6
AIGENLINE001
 62
     7
 10
147.71000000000001
 20
124.926
 30
0.0
 11
147.69499999999991
 21
124.946
 31
0.0
  0
LINE
  5
119
  8
0
  6
AIGENLINE001
 62
     7
 10
147.69499999999991
 20
124.946
 30
0.0
 11
147.68000000000001
 21
124.96599999999999
 31
0.0
  0
LINE
  5
11A
  8
0
  6
AIGENLINE001
 62
     7
 10
147.68000000000001
 20
124.96599999999999
 30
0.0
 11
147.66499999999999
 21
124.98699999999999
 31
0.0
  0
LINE
  5
11B
  8
0
  6
AIGENLINE001
 62
     7
 10
147.66499999999999
 20
124.98699999999999
 30
0.0
 11
147.649
 21
125.0059999999999
 31
0.0
  0
LINE
  5
11C
  8
0
  6
AIGENLINE001
 62
     7
 10
147.649
 20
125.0059999999999
 30
0.0
 11
147.637
 21
125.0199999999999
 31
0.0
  0
LINE
  5
11D
  8
0
  6
AIGENLINE001
 62
     7
 10
147.637
 20
125.0199999999999
 30
0.0
 11
147.428
 21
125.202
 31
0.0
  0
LINE
  5
11E
  8
0
  6
AIGENLINE001
 62
     7
 10
154.31
 20
126.3039999999999
 30
0.0
 11
154.29900000000001
 21
126.312
 31
0.0
  0
LINE
  5
11F
  8
0
  6
AIGENLINE001
 62
     7
 10
154.29900000000001
 20
126.312
 30
0.0
 11
154.29300000000001
 21
126.3179999999999
 31
0.0
  0
LINE
  5
120
  8
0
  6
AIGENLINE001
 62
     7
 10
153.55199999999999
 20
126.8
 30
0.0
 11
153.547
 21
126.8029999999999
 31
0.0
  0
LINE
  5
121
  8
0
  6
AIGENLINE001
 62
     7
 10
153.547
 20
126.8029999999999
 30
0.0
 11
153.53100000000001
 21
126.81100000000001
 31
0.0
  0
LINE
  5
122
  8
0
  6
AIGENLINE001
 62
     7
 10
153.53100000000001
 20
126.81100000000001
 30
0.0
 11
153.51400000000001
 21
126.819
 31
0.0
  0
LINE
  5
123
  8
0
  6
AIGENLINE001
 62
     7
 10
153.51400000000001
 20
126.819
 30
0.0
 11
153.49799999999999
 21
126.827
 31
0.0
  0
LINE
  5
124
  8
0
  6
AIGENLINE001
 62
     7
 10
153.49799999999999
 20
126.827
 30
0.0
 11
153.48099999999999
 21
126.83499999999989
 31
0.0
  0
LINE
  5
125
  8
0
  6
AIGENLINE001
 62
     7
 10
153.48099999999999
 20
126.83499999999989
 30
0.0
 11
153.465
 21
126.8429999999999
 31
0.0
  0
LINE
  5
126
  8
0
  6
AIGENLINE001
 62
     7
 10
153.465
 20
126.8429999999999
 30
0.0
 11
153.4489999999999
 21
126.84999999999989
 31
0.0
  0
LINE
  5
127
  8
0
  6
AIGENLINE001
 62
     7
 10
153.4489999999999
 20
126.84999999999989
 30
0.0
 11
153.43299999999991
 21
126.8579999999999
 31
0.0
  0
LINE
  5
128
  8
0
  6
AIGENLINE001
 62
     7
 10
153.62
 20
126.7649999999999
 30
0.0
 11
153.61699999999999
 21
126.767
 31
0.0
  0
LINE
  5
129
  8
0
  6
AIGENLINE001
 62
     7
 10
153.61699999999999
 20
126.767
 30
0.0
 11
153.601
 21
126.77500000000001
 31
0.0
  0
LINE
  5
12A
  8
0
  6
AIGENLINE001
 62
     7
 10
153.601
 20
126.77500000000001
 30
0.0
 11
153.58500000000001
 21
126.7829999999999
 31
0.0
  0
LINE
  5
12B
  8
0
  6
AIGENLINE001
 62
     7
 10
153.58500000000001
 20
126.7829999999999
 30
0.0
 11
153.5689999999999
 21
126.7919999999999
 31
0.0
  0
LINE
  5
12C
  8
0
  6
AIGENLINE001
 62
     7
 10
153.5689999999999
 20
126.7919999999999
 30
0.0
 11
153.55199999999999
 21
126.8
 31
0.0
  0
LINE
  5
12D
  8
0
  6
AIGENLINE001
 62
     7
 10
153.43299999999991
 20
126.8579999999999
 30
0.0
 11
153.42599999999999
 21
126.861
 31
0.0
  0
LINE
  5
12E
  8
0
  6
AIGENLINE001
 62
     7
 10
153.42599999999999
 20
126.861
 30
0.0
 11
153.40899999999991
 21
126.869
 31
0.0
  0
LINE
  5
12F
  8
0
  6
AIGENLINE001
 62
     7
 10
153.40899999999991
 20
126.869
 30
0.0
 11
153.39199999999991
 21
126.876
 31
0.0
  0
LINE
  5
130
  8
0
  6
AIGENLINE001
 62
     7
 10
153.39199999999991
 20
126.876
 30
0.0
 11
153.376
 21
126.8839999999999
 31
0.0
  0
LINE
  5
131
  8
0
  6
AIGENLINE001
 62
     7
 10
153.376
 20
126.8839999999999
 30
0.0
 11
153.36000000000001
 21
126.89
 31
0.0
  0
LINE
  5
132
  8
0
  6
AIGENLINE001
 62
     7
 10
153.36000000000001
 20
126.89
 30
0.0
 11
153.345
 21
126.89700000000001
 31
0.0
  0
LINE
  5
133
  8
0
  6
AIGENLINE001
 62
     7
 10
149.57299999999989
 20
119.8739999999999
 30
0.0
 11
149.61600000000001
 21
119.846
 31
0.0
  0
LINE
  5
134
  8
0
  6
AIGENLINE001
 62
     7
 10
149.61600000000001
 20
119.846
 30
0.0
 11
149.66200000000001
 21
119.818
 31
0.0
  0
LINE
  5
135
  8
0
  6
AIGENLINE001
 62
     7
 10
149.66200000000001
 20
119.818
 30
0.0
 11
149.70799999999991
 21
119.789
 31
0.0
  0
LINE
  5
136
  8
0
  6
AIGENLINE001
 62
     7
 10
149.70799999999991
 20
119.789
 30
0.0
 11
149.75499999999991
 21
119.762
 31
0.0
  0
LINE
  5
137
  8
0
  6
AIGENLINE001
 62
     7
 10
149.75499999999991
 20
119.762
 30
0.0
 11
149.80199999999999
 21
119.7359999999999
 31
0.0
  0
LINE
  5
138
  8
0
  6
AIGENLINE001
 62
     7
 10
149.80199999999999
 20
119.7359999999999
 30
0.0
 11
149.8489999999999
 21
119.70999999999999
 31
0.0
  0
LINE
  5
139
  8
0
  6
AIGENLINE001
 62
     7
 10
149.8489999999999
 20
119.70999999999999
 30
0.0
 11
149.89599999999999
 21
119.6849999999999
 31
0.0
  0
LINE
  5
13A
  8
0
  6
AIGENLINE001
 62
     7
 10
149.89599999999999
 20
119.6849999999999
 30
0.0
 11
149.9429999999999
 21
119.6609999999999
 31
0.0
  0
LINE
  5
13B
  8
0
  6
AIGENLINE001
 62
     7
 10
149.9429999999999
 20
119.6609999999999
 30
0.0
 11
149.99100000000001
 21
119.6369999999999
 31
0.0
  0
LINE
  5
13C
  8
0
  6
AIGENLINE001
 62
     7
 10
149.99100000000001
 20
119.6369999999999
 30
0.0
 11
150.0389999999999
 21
119.6139999999999
 31
0.0
  0
LINE
  5
13D
  8
0
  6
AIGENLINE001
 62
     7
 10
150.0389999999999
 20
119.6139999999999
 30
0.0
 11
150.08600000000001
 21
119.592
 31
0.0
  0
LINE
  5
13E
  8
0
  6
AIGENLINE001
 62
     7
 10
150.08600000000001
 20
119.592
 30
0.0
 11
150.1329999999999
 21
119.56999999999989
 31
0.0
  0
LINE
  5
13F
  8
0
  6
AIGENLINE001
 62
     7
 10
150.1329999999999
 20
119.56999999999989
 30
0.0
 11
150.18199999999999
 21
119.55
 31
0.0
  0
LINE
  5
140
  8
0
  6
AIGENLINE001
 62
     7
 10
150.18199999999999
 20
119.55
 30
0.0
 11
150.19599999999991
 21
119.544
 31
0.0
  0
LINE
  5
141
  8
0
  6
AIGENLINE001
 62
     7
 10
149.33799999999991
 20
126.417
 30
0.0
 11
149.3239999999999
 21
126.407
 31
0.0
  0
LINE
  5
142
  8
0
  6
AIGENLINE001
 62
     7
 10
149.3239999999999
 20
126.407
 30
0.0
 11
149.30600000000001
 21
126.3929999999999
 31
0.0
  0
LINE
  5
143
  8
0
  6
AIGENLINE001
 62
     7
 10
149.30600000000001
 20
126.3929999999999
 30
0.0
 11
149.286
 21
126.381
 31
0.0
  0
LINE
  5
144
  8
0
  6
AIGENLINE001
 62
     7
 10
149.286
 20
126.381
 30
0.0
 11
149.26599999999991
 21
126.3679999999999
 31
0.0
  0
LINE
  5
145
  8
0
  6
AIGENLINE001
 62
     7
 10
149.26599999999991
 20
126.3679999999999
 30
0.0
 11
149.24600000000001
 21
126.355
 31
0.0
  0
LINE
  5
146
  8
0
  6
AIGENLINE001
 62
     7
 10
149.24600000000001
 20
126.355
 30
0.0
 11
149.22499999999999
 21
126.3429999999999
 31
0.0
  0
LINE
  5
147
  8
0
  6
AIGENLINE001
 62
     7
 10
149.22499999999999
 20
126.3429999999999
 30
0.0
 11
149.20400000000001
 21
126.33199999999989
 31
0.0
  0
LINE
  5
148
  8
0
  6
AIGENLINE001
 62
     7
 10
149.20400000000001
 20
126.33199999999989
 30
0.0
 11
149.18199999999999
 21
126.31999999999989
 31
0.0
  0
LINE
  5
149
  8
0
  6
AIGENLINE001
 62
     7
 10
149.18199999999999
 20
126.31999999999989
 30
0.0
 11
149.16
 21
126.309
 31
0.0
  0
LINE
  5
14A
  8
0
  6
AIGENLINE001
 62
     7
 10
149.16
 20
126.309
 30
0.0
 11
149.137
 21
126.29900000000001
 31
0.0
  0
LINE
  5
14B
  8
0
  6
AIGENLINE001
 62
     7
 10
149.137
 20
126.29900000000001
 30
0.0
 11
149.114
 21
126.289
 31
0.0
  0
LINE
  5
14C
  8
0
  6
AIGENLINE001
 62
     7
 10
149.114
 20
126.289
 30
0.0
 11
149.09100000000001
 21
126.28
 31
0.0
  0
LINE
  5
14D
  8
0
  6
AIGENLINE001
 62
     7
 10
149.09100000000001
 20
126.28
 30
0.0
 11
149.06700000000001
 21
126.27200000000001
 31
0.0
  0
LINE
  5
14E
  8
0
  6
AIGENLINE001
 62
     7
 10
149.06700000000001
 20
126.27200000000001
 30
0.0
 11
149.0439999999999
 21
126.2639999999999
 31
0.0
  0
LINE
  5
14F
  8
0
  6
AIGENLINE001
 62
     7
 10
149.0439999999999
 20
126.2639999999999
 30
0.0
 11
149.02000000000001
 21
126.256
 31
0.0
  0
LINE
  5
150
  8
0
  6
AIGENLINE001
 62
     7
 10
149.02000000000001
 20
126.256
 30
0.0
 11
148.99600000000001
 21
126.2499999999999
 31
0.0
  0
LINE
  5
151
  8
0
  6
AIGENLINE001
 62
     7
 10
148.99600000000001
 20
126.2499999999999
 30
0.0
 11
148.9729999999999
 21
126.244
 31
0.0
  0
LINE
  5
152
  8
0
  6
AIGENLINE001
 62
     7
 10
148.9729999999999
 20
126.244
 30
0.0
 11
148.94799999999989
 21
126.238
 31
0.0
  0
LINE
  5
153
  8
0
  6
AIGENLINE001
 62
     7
 10
148.94799999999989
 20
126.238
 30
0.0
 11
148.92400000000001
 21
126.2329999999999
 31
0.0
  0
LINE
  5
154
  8
0
  6
AIGENLINE001
 62
     7
 10
148.92400000000001
 20
126.2329999999999
 30
0.0
 11
148.90000000000001
 21
126.22799999999999
 31
0.0
  0
LINE
  5
155
  8
0
  6
AIGENLINE001
 62
     7
 10
148.90000000000001
 20
126.22799999999999
 30
0.0
 11
148.875
 21
126.22499999999989
 31
0.0
  0
LINE
  5
156
  8
0
  6
AIGENLINE001
 62
     7
 10
148.875
 20
126.22499999999989
 30
0.0
 11
148.84999999999991
 21
126.22199999999999
 31
0.0
  0
LINE
  5
157
  8
0
  6
AIGENLINE001
 62
     7
 10
148.84999999999991
 20
126.22199999999999
 30
0.0
 11
148.82599999999991
 21
126.21899999999989
 31
0.0
  0
LINE
  5
158
  8
0
  6
AIGENLINE001
 62
     7
 10
148.82599999999991
 20
126.21899999999989
 30
0.0
 11
148.80099999999999
 21
126.217
 31
0.0
  0
LINE
  5
159
  8
0
  6
AIGENLINE001
 62
     7
 10
148.80099999999999
 20
126.217
 30
0.0
 11
148.77600000000001
 21
126.21599999999999
 31
0.0
  0
LINE
  5
15A
  8
0
  6
AIGENLINE001
 62
     7
 10
148.77600000000001
 20
126.21599999999999
 30
0.0
 11
148.75200000000001
 21
126.215
 31
0.0
  0
LINE
  5
15B
  8
0
  6
AIGENLINE001
 62
     7
 10
148.75200000000001
 20
126.215
 30
0.0
 11
148.726
 21
126.215
 31
0.0
  0
LINE
  5
15C
  8
0
  6
AIGENLINE001
 62
     7
 10
148.726
 20
126.215
 30
0.0
 11
148.702
 21
126.215
 31
0.0
  0
LINE
  5
15D
  8
0
  6
AIGENLINE001
 62
     7
 10
148.702
 20
126.215
 30
0.0
 11
148.67699999999999
 21
126.21599999999999
 31
0.0
  0
LINE
  5
15E
  8
0
  6
AIGENLINE001
 62
     7
 10
148.67699999999999
 20
126.21599999999999
 30
0.0
 11
148.65199999999999
 21
126.2179999999999
 31
0.0
  0
LINE
  5
15F
  8
0
  6
AIGENLINE001
 62
     7
 10
148.65199999999999
 20
126.2179999999999
 30
0.0
 11
148.6279999999999
 21
126.2199999999999
 31
0.0
  0
LINE
  5
160
  8
0
  6
AIGENLINE001
 62
     7
 10
148.6279999999999
 20
126.2199999999999
 30
0.0
 11
148.602
 21
126.2229999999999
 31
0.0
  0
LINE
  5
161
  8
0
  6
AIGENLINE001
 62
     7
 10
148.602
 20
126.2229999999999
 30
0.0
 11
148.578
 21
126.227
 31
0.0
  0
LINE
  5
162
  8
0
  6
AIGENLINE001
 62
     7
 10
148.578
 20
126.227
 30
0.0
 11
148.55299999999991
 21
126.232
 31
0.0
  0
LINE
  5
163
  8
0
  6
AIGENLINE001
 62
     7
 10
148.55299999999991
 20
126.232
 30
0.0
 11
148.52899999999991
 21
126.236
 31
0.0
  0
LINE
  5
164
  8
0
  6
AIGENLINE001
 62
     7
 10
148.52899999999991
 20
126.236
 30
0.0
 11
148.505
 21
126.241
 31
0.0
  0
LINE
  5
165
  8
0
  6
AIGENLINE001
 62
     7
 10
148.505
 20
126.241
 30
0.0
 11
148.48099999999991
 21
126.247
 31
0.0
  0
LINE
  5
166
  8
0
  6
AIGENLINE001
 62
     7
 10
148.48099999999991
 20
126.247
 30
0.0
 11
148.45699999999991
 21
126.25399999999991
 31
0.0
  0
LINE
  5
167
  8
0
  6
AIGENLINE001
 62
     7
 10
148.45699999999991
 20
126.25399999999991
 30
0.0
 11
148.4489999999999
 21
126.25699999999991
 31
0.0
  0
ARC
  5
168
  8
0
  6
AIGENLINE001
 62
     7
 10
165.54435599999991
 20
132.19455199999999
 30
0.0
 40
0.727785
 50
35.153469999999999
 51
120.8658779999999
  0
ARC
  5
169
  8
0
  6
AIGENLINE001
 62
     7
 10
165.515084
 20
132.240489
 30
0.0
 40
0.7273069999999999
 50
305.10911499999992
 51
30.862949999999991
  0
LINE
  5
16A
  8
0
  6
AIGENLINE001
 62
     7
 10
165.93299999999991
 20
131.64599999999999
 30
0.0
 11
156.0389999999999
 21
125.2199999999999
 31
0.0
  0
ARC
  5
16B
  8
0
  6
AIGENLINE001
 62
     7
 10
156.56107399999991
 20
124.39045900000001
 30
0.0
 40
0.9801669999999999
 50
122.1833289999999
 51
193.93307399999989
  0
ARC
  5
16C
  8
0
  6
AIGENLINE001
 62
     7
 10
151.71502899999999
 20
123.246398
 30
0.0
 40
3.9996919999999991
 50
52.875576000000009
 51
142.87728000000001
  0
ARC
  5
16D
  8
0
  6
AIGENLINE001
 62
     7
 10
151.714867
 20
123.245797
 30
0.0
 40
3.9999250000000002
 50
142.869022
 51
232.86907099999999
  0
ARC
  5
16E
  8
0
  6
AIGENLINE001
 62
     7
 10
151.7143879999999
 20
123.245707
 30
0.0
 40
3.999563999999999
 50
232.8737659999999
 51
322.87912899999998
  0
ARC
  5
16F
  8
0
  6
AIGENLINE001
 62
     7
 10
152.804405
 20
122.615711
 30
0.0
 40
2.7546140000000001
 50
319.64328599999988
 51
335.50396499999999
  0
ARC
  5
170
  8
0
  6
AIGENLINE001
 62
     7
 10
151.54072799999989
 20
123.25132600000001
 30
0.0
 40
4.1684479999999997
 50
334.75559099999998
 51
12.51756799999999
  0
LINE
  5
171
  8
0
  6
AIGENLINE001
 62
     7
 10
165.17099999999999
 20
132.8189999999999
 30
0.0
 11
155.27699999999999
 21
126.39399999999991
 31
0.0
  0
LINE
  5
172
  8
0
  6
AIGENLINE001
 62
     7
 10
154.1279999999999
 20
126.435
 30
0.0
 11
154.1329999999999
 21
126.431
 31
0.0
  0
LINE
  5
173
  8
0
  6
AIGENLINE001
 62
     7
 10
154.143
 20
126.42400000000001
 30
0.0
 11
154.1279999999999
 21
126.435
 31
0.0
  0
LINE
  5
174
  8
0
  6
AIGENLINE001
 62
     7
 10
154.143
 20
126.42400000000001
 30
0.0
 11
154.16
 21
126.41200000000001
 31
0.0
  0
LINE
  5
175
  8
0
  6
AIGENLINE001
 62
     7
 10
154.16
 20
126.41200000000001
 30
0.0
 11
154.17799999999991
 21
126.40000000000001
 31
0.0
  0
LINE
  5
176
  8
0
  6
AIGENLINE001
 62
     7
 10
154.17799999999991
 20
126.40000000000001
 30
0.0
 11
154.197
 21
126.3889999999999
 31
0.0
  0
LINE
  5
177
  8
0
  6
AIGENLINE001
 62
     7
 10
154.197
 20
126.3889999999999
 30
0.0
 11
154.21600000000001
 21
126.37599999999991
 31
0.0
  0
LINE
  5
178
  8
0
  6
AIGENLINE001
 62
     7
 10
154.21600000000001
 20
126.37599999999991
 30
0.0
 11
154.2359999999999
 21
126.3639999999999
 31
0.0
  0
LINE
  5
179
  8
0
  6
AIGENLINE001
 62
     7
 10
154.2359999999999
 20
126.3639999999999
 30
0.0
 11
154.25699999999989
 21
126.35299999999999
 31
0.0
  0
LINE
  5
17A
  8
0
  6
AIGENLINE001
 62
     7
 10
154.25699999999989
 20
126.35299999999999
 30
0.0
 11
154.27799999999999
 21
126.342
 31
0.0
  0
LINE
  5
17B
  8
0
  6
AIGENLINE001
 62
     7
 10
154.27799999999999
 20
126.342
 30
0.0
 11
154.30000000000001
 21
126.331
 31
0.0
  0
LINE
  5
17C
  8
0
  6
AIGENLINE001
 62
     7
 10
154.30000000000001
 20
126.331
 30
0.0
 11
154.32299999999989
 21
126.31999999999989
 31
0.0
  0
LINE
  5
17D
  8
0
  6
AIGENLINE001
 62
     7
 10
154.32299999999989
 20
126.31999999999989
 30
0.0
 11
154.34499999999991
 21
126.31100000000001
 31
0.0
  0
LINE
  5
17E
  8
0
  6
AIGENLINE001
 62
     7
 10
154.34499999999991
 20
126.31100000000001
 30
0.0
 11
154.36899999999989
 21
126.3009999999999
 31
0.0
  0
LINE
  5
17F
  8
0
  6
AIGENLINE001
 62
     7
 10
154.36899999999989
 20
126.3009999999999
 30
0.0
 11
154.39199999999991
 21
126.292
 31
0.0
  0
LINE
  5
180
  8
0
  6
AIGENLINE001
 62
     7
 10
154.39199999999991
 20
126.292
 30
0.0
 11
154.41599999999991
 21
126.28399999999991
 31
0.0
  0
LINE
  5
181
  8
0
  6
AIGENLINE001
 62
     7
 10
154.41599999999991
 20
126.28399999999991
 30
0.0
 11
154.43999999999991
 21
126.276
 31
0.0
  0
LINE
  5
182
  8
0
  6
AIGENLINE001
 62
     7
 10
154.43999999999991
 20
126.276
 30
0.0
 11
154.464
 21
126.26899999999991
 31
0.0
  0
LINE
  5
183
  8
0
  6
AIGENLINE001
 62
     7
 10
154.464
 20
126.26899999999991
 30
0.0
 11
154.488
 21
126.26299999999991
 31
0.0
  0
LINE
  5
184
  8
0
  6
AIGENLINE001
 62
     7
 10
154.488
 20
126.26299999999991
 30
0.0
 11
154.51300000000001
 21
126.25699999999991
 31
0.0
  0
LINE
  5
185
  8
0
  6
AIGENLINE001
 62
     7
 10
154.51300000000001
 20
126.25699999999991
 30
0.0
 11
154.53700000000001
 21
126.252
 31
0.0
  0
LINE
  5
186
  8
0
  6
AIGENLINE001
 62
     7
 10
154.53700000000001
 20
126.252
 30
0.0
 11
154.56100000000001
 21
126.24799999999991
 31
0.0
  0
LINE
  5
187
  8
0
  6
AIGENLINE001
 62
     7
 10
154.56100000000001
 20
126.24799999999991
 30
0.0
 11
154.58600000000001
 21
126.2429999999999
 31
0.0
  0
LINE
  5
188
  8
0
  6
AIGENLINE001
 62
     7
 10
154.58600000000001
 20
126.2429999999999
 30
0.0
 11
154.6109999999999
 21
126.2399999999999
 31
0.0
  0
LINE
  5
189
  8
0
  6
AIGENLINE001
 62
     7
 10
154.6109999999999
 20
126.2399999999999
 30
0.0
 11
154.63599999999991
 21
126.23699999999999
 31
0.0
  0
LINE
  5
18A
  8
0
  6
AIGENLINE001
 62
     7
 10
154.63599999999991
 20
126.23699999999999
 30
0.0
 11
154.661
 21
126.235
 31
0.0
  0
LINE
  5
18B
  8
0
  6
AIGENLINE001
 62
     7
 10
154.661
 20
126.235
 30
0.0
 11
154.68600000000001
 21
126.23399999999999
 31
0.0
  0
LINE
  5
18C
  8
0
  6
AIGENLINE001
 62
     7
 10
154.68600000000001
 20
126.23399999999999
 30
0.0
 11
154.71100000000001
 21
126.2329999999999
 31
0.0
  0
LINE
  5
18D
  8
0
  6
AIGENLINE001
 62
     7
 10
154.71100000000001
 20
126.2329999999999
 30
0.0
 11
154.7359999999999
 21
126.2329999999999
 31
0.0
  0
LINE
  5
18E
  8
0
  6
AIGENLINE001
 62
     7
 10
154.7359999999999
 20
126.2329999999999
 30
0.0
 11
154.76099999999991
 21
126.2329999999999
 31
0.0
  0
LINE
  5
18F
  8
0
  6
AIGENLINE001
 62
     7
 10
154.76099999999991
 20
126.2329999999999
 30
0.0
 11
154.786
 21
126.23399999999999
 31
0.0
  0
LINE
  5
190
  8
0
  6
AIGENLINE001
 62
     7
 10
154.786
 20
126.23399999999999
 30
0.0
 11
154.81200000000001
 21
126.236
 31
0.0
  0
LINE
  5
191
  8
0
  6
AIGENLINE001
 62
     7
 10
154.81200000000001
 20
126.236
 30
0.0
 11
154.83600000000001
 21
126.238
 31
0.0
  0
LINE
  5
192
  8
0
  6
AIGENLINE001
 62
     7
 10
154.83600000000001
 20
126.238
 30
0.0
 11
154.86099999999999
 21
126.241
 31
0.0
  0
LINE
  5
193
  8
0
  6
AIGENLINE001
 62
     7
 10
154.86099999999999
 20
126.241
 30
0.0
 11
154.88499999999991
 21
126.245
 31
0.0
  0
LINE
  5
194
  8
0
  6
AIGENLINE001
 62
     7
 10
154.88499999999991
 20
126.245
 30
0.0
 11
154.90999999999991
 21
126.2489999999999
 31
0.0
  0
LINE
  5
195
  8
0
  6
AIGENLINE001
 62
     7
 10
154.90999999999991
 20
126.2489999999999
 30
0.0
 11
154.935
 21
126.25399999999991
 31
0.0
  0
LINE
  5
196
  8
0
  6
AIGENLINE001
 62
     7
 10
154.935
 20
126.25399999999991
 30
0.0
 11
154.959
 21
126.259
 31
0.0
  0
LINE
  5
197
  8
0
  6
AIGENLINE001
 62
     7
 10
154.959
 20
126.259
 30
0.0
 11
154.983
 21
126.265
 31
0.0
  0
LINE
  5
198
  8
0
  6
AIGENLINE001
 62
     7
 10
154.983
 20
126.265
 30
0.0
 11
155.0079999999999
 21
126.2709999999999
 31
0.0
  0
LINE
  5
199
  8
0
  6
AIGENLINE001
 62
     7
 10
155.0079999999999
 20
126.2709999999999
 30
0.0
 11
155.02500000000001
 21
126.2769999999999
 31
0.0
  0
LINE
  5
19A
  8
0
  6
AIGENLINE001
 62
     7
 10
155.02500000000001
 20
126.2769999999999
 30
0.0
 11
155.27699999999999
 21
126.39399999999991
 31
0.0
  0
LINE
  5
19B
  8
0
  6
AIGENLINE001
 62
     7
 10
153.48400000000001
 20
119.65900000000001
 30
0.0
 11
153.49600000000001
 21
119.66499999999991
 31
0.0
  0
LINE
  5
19C
  8
0
  6
AIGENLINE001
 62
     7
 10
153.49600000000001
 20
119.66499999999991
 30
0.0
 11
153.5029999999999
 21
119.669
 31
0.0
  0
LINE
  5
19D
  8
0
  6
AIGENLINE001
 62
     7
 10
154.24600000000001
 20
120.1489999999999
 30
0.0
 11
154.24999999999989
 21
120.15299999999991
 31
0.0
  0
LINE
  5
19E
  8
0
  6
AIGENLINE001
 62
     7
 10
154.24999999999989
 20
120.15299999999991
 30
0.0
 11
154.26400000000001
 21
120.164
 31
0.0
  0
LINE
  5
19F
  8
0
  6
AIGENLINE001
 62
     7
 10
154.26400000000001
 20
120.164
 30
0.0
 11
154.27799999999999
 21
120.1759999999999
 31
0.0
  0
LINE
  5
1A0
  8
0
  6
AIGENLINE001
 62
     7
 10
154.27799999999999
 20
120.1759999999999
 30
0.0
 11
154.29300000000001
 21
120.1879999999999
 31
0.0
  0
LINE
  5
1A1
  8
0
  6
AIGENLINE001
 62
     7
 10
154.29300000000001
 20
120.1879999999999
 30
0.0
 11
154.30600000000001
 21
120.1999999999999
 31
0.0
  0
LINE
  5
1A2
  8
0
  6
AIGENLINE001
 62
     7
 10
154.30600000000001
 20
120.1999999999999
 30
0.0
 11
154.31999999999991
 21
120.211
 31
0.0
  0
LINE
  5
1A3
  8
0
  6
AIGENLINE001
 62
     7
 10
154.31999999999991
 20
120.211
 30
0.0
 11
154.333
 21
120.2229999999999
 31
0.0
  0
LINE
  5
1A4
  8
0
  6
AIGENLINE001
 62
     7
 10
154.333
 20
120.2229999999999
 30
0.0
 11
154.34700000000001
 21
120.2339999999999
 31
0.0
  0
LINE
  5
1A5
  8
0
  6
AIGENLINE001
 62
     7
 10
154.18599999999989
 20
120.1009999999999
 30
0.0
 11
154.18899999999991
 21
120.104
 31
0.0
  0
LINE
  5
1A6
  8
0
  6
AIGENLINE001
 62
     7
 10
154.18899999999991
 20
120.104
 30
0.0
 11
154.203
 21
120.1149999999999
 31
0.0
  0
LINE
  5
1A7
  8
0
  6
AIGENLINE001
 62
     7
 10
154.203
 20
120.1149999999999
 30
0.0
 11
154.21700000000001
 21
120.12599999999991
 31
0.0
  0
LINE
  5
1A8
  8
0
  6
AIGENLINE001
 62
     7
 10
154.21700000000001
 20
120.12599999999991
 30
0.0
 11
154.232
 21
120.137
 31
0.0
  0
LINE
  5
1A9
  8
0
  6
AIGENLINE001
 62
     7
 10
154.232
 20
120.137
 30
0.0
 11
154.24600000000001
 21
120.1489999999999
 31
0.0
  0
LINE
  5
1AA
  8
0
  6
AIGENLINE001
 62
     7
 10
154.34700000000001
 20
120.2339999999999
 30
0.0
 11
154.352
 21
120.2389999999999
 31
0.0
  0
LINE
  5
1AB
  8
0
  6
AIGENLINE001
 62
     7
 10
154.352
 20
120.2389999999999
 30
0.0
 11
154.36600000000001
 21
120.252
 31
0.0
  0
LINE
  5
1AC
  8
0
  6
AIGENLINE001
 62
     7
 10
154.36600000000001
 20
120.252
 30
0.0
 11
154.38
 21
120.2639999999999
 31
0.0
  0
LINE
  5
1AD
  8
0
  6
AIGENLINE001
 62
     7
 10
154.38
 20
120.2639999999999
 30
0.0
 11
154.39400000000001
 21
120.276
 31
0.0
  0
LINE
  5
1AE
  8
0
  6
AIGENLINE001
 62
     7
 10
154.39400000000001
 20
120.276
 30
0.0
 11
154.40599999999989
 21
120.2879999999999
 31
0.0
  0
LINE
  5
1AF
  8
0
  6
AIGENLINE001
 62
     7
 10
154.40599999999989
 20
120.2879999999999
 30
0.0
 11
154.4189999999999
 21
120.29900000000001
 31
0.0
  0
LINE
  5
1B0
  8
0
  6
AIGENLINE001
 62
     7
 10
149.53599999999989
 20
126.601
 30
0.0
 11
149.49399999999989
 21
126.57299999999999
 31
0.0
  0
LINE
  5
1B1
  8
0
  6
AIGENLINE001
 62
     7
 10
149.49399999999989
 20
126.57299999999999
 30
0.0
 11
149.4489999999999
 21
126.54300000000001
 31
0.0
  0
LINE
  5
1B2
  8
0
  6
AIGENLINE001
 62
     7
 10
149.4489999999999
 20
126.54300000000001
 30
0.0
 11
149.404
 21
126.512
 31
0.0
  0
LINE
  5
1B3
  8
0
  6
AIGENLINE001
 62
     7
 10
149.404
 20
126.512
 30
0.0
 11
149.36000000000001
 21
126.48
 31
0.0
  0
LINE
  5
1B4
  8
0
  6
AIGENLINE001
 62
     7
 10
149.36000000000001
 20
126.48
 30
0.0
 11
149.3179999999999
 21
126.44799999999999
 31
0.0
  0
LINE
  5
1B5
  8
0
  6
AIGENLINE001
 62
     7
 10
149.3179999999999
 20
126.44799999999999
 30
0.0
 11
149.27500000000001
 21
126.4159999999999
 31
0.0
  0
LINE
  5
1B6
  8
0
  6
AIGENLINE001
 62
     7
 10
149.27500000000001
 20
126.4159999999999
 30
0.0
 11
149.233
 21
126.383
 31
0.0
  0
LINE
  5
1B7
  8
0
  6
AIGENLINE001
 62
     7
 10
149.233
 20
126.383
 30
0.0
 11
149.191
 21
126.34999999999999
 31
0.0
  0
LINE
  5
1B8
  8
0
  6
AIGENLINE001
 62
     7
 10
149.191
 20
126.34999999999999
 30
0.0
 11
149.15000000000001
 21
126.316
 31
0.0
  0
LINE
  5
1B9
  8
0
  6
AIGENLINE001
 62
     7
 10
149.15000000000001
 20
126.316
 30
0.0
 11
149.1089999999999
 21
126.28099999999991
 31
0.0
  0
LINE
  5
1BA
  8
0
  6
AIGENLINE001
 62
     7
 10
149.1089999999999
 20
126.28099999999991
 30
0.0
 11
149.07099999999991
 21
126.24799999999991
 31
0.0
  0
LINE
  5
1BB
  8
0
  6
AIGENLINE001
 62
     7
 10
149.07099999999991
 20
126.24799999999991
 30
0.0
 11
149.03100000000001
 21
126.21299999999989
 31
0.0
  0
LINE
  5
1BC
  8
0
  6
AIGENLINE001
 62
     7
 10
149.03100000000001
 20
126.21299999999989
 30
0.0
 11
148.99299999999999
 21
126.17700000000001
 31
0.0
  0
LINE
  5
1BD
  8
0
  6
AIGENLINE001
 62
     7
 10
148.99299999999999
 20
126.17700000000001
 30
0.0
 11
148.98099999999999
 21
126.166
 31
0.0
  0
LINE
  5
1BE
  8
0
  6
AIGENLINE001
 62
     7
 10
155.61000000000001
 20
124.154
 30
0.0
 11
155.60599999999991
 21
124.17100000000001
 31
0.0
  0
LINE
  5
1BF
  8
0
  6
AIGENLINE001
 62
     7
 10
155.60599999999991
 20
124.17100000000001
 30
0.0
 11
155.601
 21
124.194
 31
0.0
  0
LINE
  5
1C0
  8
0
  6
AIGENLINE001
 62
     7
 10
155.601
 20
124.194
 30
0.0
 11
155.59700000000001
 21
124.217
 31
0.0
  0
LINE
  5
1C1
  8
0
  6
AIGENLINE001
 62
     7
 10
155.59700000000001
 20
124.217
 30
0.0
 11
155.59399999999991
 21
124.241
 31
0.0
  0
LINE
  5
1C2
  8
0
  6
AIGENLINE001
 62
     7
 10
155.59399999999991
 20
124.241
 30
0.0
 11
155.59100000000001
 21
124.2639999999999
 31
0.0
  0
LINE
  5
1C3
  8
0
  6
AIGENLINE001
 62
     7
 10
155.59100000000001
 20
124.2639999999999
 30
0.0
 11
155.58799999999991
 21
124.2879999999999
 31
0.0
  0
LINE
  5
1C4
  8
0
  6
AIGENLINE001
 62
     7
 10
155.58799999999991
 20
124.2879999999999
 30
0.0
 11
155.58600000000001
 21
124.312
 31
0.0
  0
LINE
  5
1C5
  8
0
  6
AIGENLINE001
 62
     7
 10
155.58600000000001
 20
124.312
 30
0.0
 11
155.58500000000001
 21
124.337
 31
0.0
  0
LINE
  5
1C6
  8
0
  6
AIGENLINE001
 62
     7
 10
155.58500000000001
 20
124.337
 30
0.0
 11
155.584
 21
124.361
 31
0.0
  0
LINE
  5
1C7
  8
0
  6
AIGENLINE001
 62
     7
 10
155.584
 20
124.361
 30
0.0
 11
155.584
 21
124.386
 31
0.0
  0
LINE
  5
1C8
  8
0
  6
AIGENLINE001
 62
     7
 10
155.584
 20
124.386
 30
0.0
 11
155.584
 21
124.411
 31
0.0
  0
LINE
  5
1C9
  8
0
  6
AIGENLINE001
 62
     7
 10
155.584
 20
124.411
 30
0.0
 11
155.58500000000001
 21
124.43600000000001
 31
0.0
  0
LINE
  5
1CA
  8
0
  6
AIGENLINE001
 62
     7
 10
155.58500000000001
 20
124.43600000000001
 30
0.0
 11
155.58699999999999
 21
124.4609999999999
 31
0.0
  0
LINE
  5
1CB
  8
0
  6
AIGENLINE001
 62
     7
 10
155.58699999999999
 20
124.4609999999999
 30
0.0
 11
155.58899999999991
 21
124.485
 31
0.0
  0
LINE
  5
1CC
  8
0
  6
AIGENLINE001
 62
     7
 10
155.58899999999991
 20
124.485
 30
0.0
 11
155.59200000000001
 21
124.51000000000001
 31
0.0
  0
LINE
  5
1CD
  8
0
  6
AIGENLINE001
 62
     7
 10
155.59200000000001
 20
124.51000000000001
 30
0.0
 11
155.59599999999989
 21
124.5349999999999
 31
0.0
  0
LINE
  5
1CE
  8
0
  6
AIGENLINE001
 62
     7
 10
155.59599999999989
 20
124.5349999999999
 30
0.0
 11
155.59999999999999
 21
124.5589999999999
 31
0.0
  0
LINE
  5
1CF
  8
0
  6
AIGENLINE001
 62
     7
 10
155.59999999999999
 20
124.5589999999999
 30
0.0
 11
155.6049999999999
 21
124.584
 31
0.0
  0
LINE
  5
1D0
  8
0
  6
AIGENLINE001
 62
     7
 10
155.6049999999999
 20
124.584
 30
0.0
 11
155.61000000000001
 21
124.6079999999999
 31
0.0
  0
LINE
  5
1D1
  8
0
  6
AIGENLINE001
 62
     7
 10
155.61000000000001
 20
124.6079999999999
 30
0.0
 11
155.61600000000001
 21
124.63200000000001
 31
0.0
  0
LINE
  5
1D2
  8
0
  6
AIGENLINE001
 62
     7
 10
155.61600000000001
 20
124.63200000000001
 30
0.0
 11
155.62200000000001
 21
124.65600000000001
 31
0.0
  0
LINE
  5
1D3
  8
0
  6
AIGENLINE001
 62
     7
 10
155.62200000000001
 20
124.65600000000001
 30
0.0
 11
155.62899999999991
 21
124.68000000000001
 31
0.0
  0
LINE
  5
1D4
  8
0
  6
AIGENLINE001
 62
     7
 10
155.62899999999991
 20
124.68000000000001
 30
0.0
 11
155.637
 21
124.7029999999999
 31
0.0
  0
LINE
  5
1D5
  8
0
  6
AIGENLINE001
 62
     7
 10
155.637
 20
124.7029999999999
 30
0.0
 11
155.64599999999999
 21
124.726
 31
0.0
  0
LINE
  5
1D6
  8
0
  6
AIGENLINE001
 62
     7
 10
155.64599999999999
 20
124.726
 30
0.0
 11
155.655
 21
124.75
 31
0.0
  0
LINE
  5
1D7
  8
0
  6
AIGENLINE001
 62
     7
 10
155.655
 20
124.75
 30
0.0
 11
155.66300000000001
 21
124.773
 31
0.0
  0
LINE
  5
1D8
  8
0
  6
AIGENLINE001
 62
     7
 10
155.66300000000001
 20
124.773
 30
0.0
 11
155.67400000000001
 21
124.79600000000001
 31
0.0
  0
LINE
  5
1D9
  8
0
  6
AIGENLINE001
 62
     7
 10
155.67400000000001
 20
124.79600000000001
 30
0.0
 11
155.684
 21
124.818
 31
0.0
  0
LINE
  5
1DA
  8
0
  6
AIGENLINE001
 62
     7
 10
155.684
 20
124.818
 30
0.0
 11
155.69499999999999
 21
124.8399999999999
 31
0.0
  0
LINE
  5
1DB
  8
0
  6
AIGENLINE001
 62
     7
 10
155.69499999999999
 20
124.8399999999999
 30
0.0
 11
155.70699999999991
 21
124.86199999999999
 31
0.0
  0
LINE
  5
1DC
  8
0
  6
AIGENLINE001
 62
     7
 10
155.70699999999991
 20
124.86199999999999
 30
0.0
 11
155.71899999999999
 21
124.8839999999999
 31
0.0
  0
LINE
  5
1DD
  8
0
  6
AIGENLINE001
 62
     7
 10
155.71899999999999
 20
124.8839999999999
 30
0.0
 11
155.73199999999991
 21
124.9049999999999
 31
0.0
  0
LINE
  5
1DE
  8
0
  6
AIGENLINE001
 62
     7
 10
155.73199999999991
 20
124.9049999999999
 30
0.0
 11
155.745
 21
124.926
 31
0.0
  0
LINE
  5
1DF
  8
0
  6
AIGENLINE001
 62
     7
 10
155.745
 20
124.926
 30
0.0
 11
155.7589999999999
 21
124.947
 31
0.0
  0
LINE
  5
1E0
  8
0
  6
AIGENLINE001
 62
     7
 10
155.7589999999999
 20
124.947
 30
0.0
 11
155.773
 21
124.967
 31
0.0
  0
LINE
  5
1E1
  8
0
  6
AIGENLINE001
 62
     7
 10
155.773
 20
124.967
 30
0.0
 11
155.7879999999999
 21
124.98699999999999
 31
0.0
  0
LINE
  5
1E2
  8
0
  6
AIGENLINE001
 62
     7
 10
155.7879999999999
 20
124.98699999999999
 30
0.0
 11
155.803
 21
125.0059999999999
 31
0.0
  0
LINE
  5
1E3
  8
0
  6
AIGENLINE001
 62
     7
 10
155.803
 20
125.0059999999999
 30
0.0
 11
155.81999999999999
 21
125.026
 31
0.0
  0
LINE
  5
1E4
  8
0
  6
AIGENLINE001
 62
     7
 10
155.81999999999999
 20
125.026
 30
0.0
 11
155.8239999999999
 21
125.032
 31
0.0
  0
LINE
  5
1E5
  8
0
 62
     7
 10
79.675899999999999
 20
142.33299999999991
 30
0.0
 11
77.389899999999997
 21
137.43100000000001
 31
0.0
  0
LINE
  5
1E6
  8
0
 62
     7
 10
70.383399999999995
 20
144.88900000000001
 30
0.0
 11
70.383399999999995
 21
140.55299999999991
 31
0.0
  0
ARC
  5
1E7
  8
0
  6
AIGENLINE001
 62
     7
 10
71.328772000000001
 20
126.88991799999999
 30
0.0
 40
1.039247
 50
247.115137
 51
332.879707
  0
ARC
  5
1E8
  8
0
  6
AIGENLINE001
 62
     7
 10
69.981282999999991
 20
117.7741429999999
 30
0.0
 40
0.207476
 50
246.95057600000001
 51
332.92027899999999
  0
ARC
  5
1E9
  8
0
  6
AIGENLINE001
 62
     7
 10
78.765361999999996
 20
136.61166900000001
 30
0.0
 40
0.207522
 50
337.13394099999999
 51
63.046925000000002
  0
ARC
  5
1EA
  8
0
  6
AIGENLINE001
 62
     7
 10
77.861543000000012
 20
136.2308909999999
 30
0.0
 40
0.935279
 50
67.120268999999993
 51
152.88831399999989
  0
LINE
  5
1EB
  8
0
  6
AIGENLINE001
 62
     7
 10
70.743799999999993
 20
126.017
 30
0.0
 11
67.362700000000004
 21
118.76600000000001
 31
0.0
  0
LINE
  5
1EC
  8
0
  6
AIGENLINE001
 62
     7
 10
78.956599999999995
 20
136.53100000000001
 30
0.0
 11
70.165999999999997
 21
117.68000000000001
 31
0.0
  0
LINE
  5
1ED
  8
0
  6
AIGENLINE001
 62
     7
 10
77.028999999999996
 20
136.65700000000001
 30
0.0
 11
72.253399999999999
 21
126.4159999999999
 31
0.0
  0
LINE
  5
1EE
  8
0
  6
AIGENLINE001
 62
     7
 10
78.859399999999994
 20
136.79699999999991
 30
0.0
 11
78.225200000000001
 21
137.0929999999999
 31
0.0
  0
LINE
  5
1EF
  8
0
  6
AIGENLINE001
 62
     7
 10
70.743799999999993
 20
126.017
 30
0.0
 11
70.924999999999997
 21
125.9319999999999
 31
0.0
  0
LINE
  5
1F0
  8
0
  6
AIGENLINE001
 62
     7
 10
67.362700000000004
 20
118.76600000000001
 30
0.0
 11
69.900099999999995
 21
117.5829999999999
 31
0.0
  0
ARC
  5
1F1
  8
0
  6
AIGENLINE002
 62
     7
 10
131.7384449999999
 20
177.14973499999999
 30
0.0
 40
20.00020099999999
 50
89.999752999999998
 51
179.9997229999999
  0
ARC
  5
1F2
  8
0
  6
AIGENLINE002
 62
     7
 10
131.73861099999999
 20
177.14973499999999
 30
0.0
 40
20.00020099999999
 50
0.000257
 51
90.000226999999995
  0
LINE
  5
1F3
  8
0
  6
AIGENLINE002
 62
     7
 10
151.73899999999989
 20
177.15000000000001
 30
0.0
 11
151.73899999999989
 21
109.411
 31
0.0
  0
LINE
  5
1F4
  8
0
  6
AIGENLINE002
 62
     7
 10
151.73899999999989
 20
103.34
 30
0.0
 11
151.73899999999989
 21
44.205300000000001
 31
0.0
  0
LINE
  5
1F5
  8
0
  6
AIGENLINE002
 62
     7
 10
111.7389999999999
 20
177.15000000000001
 30
0.0
 11
111.7389999999999
 21
143.96600000000001
 31
0.0
  0
LINE
  5
1F6
  8
0
  6
AIGENLINE002
 62
     7
 10
58.183599999999998
 20
255.684
 30
0.0
 11
58.183599999999998
 21
203.83000000000001
 31
0.0
  0
LINE
  5
1F7
  8
0
 62
     7
 10
78.973600000000005
 20
134.93299999999991
 30
0.0
 11
78.973600000000005
 21
103.627
 31
0.0
  0
LINE
  5
1F8
  8
0
  6
AIGENLINE002
 62
     7
 10
58.183599999999998
 20
200.6629999999999
 30
0.0
 11
58.183599999999998
 21
80.139600000000002
 31
0.0
  0
LINE
  5
1F9
  8
0
 62
     7
 10
115.34099999999999
 20
145.12899999999999
 30
0.0
 11
115.34099999999999
 21
146.96899999999991
 31
0.0
  0
LINE
  5
1FA
  8
0
 62
     7
 10
68.783799999999985
 20
126.84699999999999
 30
0.0
 11
69.183800000000005
 21
126.84699999999999
 31
0.0
  0
LINE
  5
1FB
  8
0
 62
     7
 10
68.783799999999985
 20
119.64700000000001
 30
0.0
 11
69.183800000000005
 21
119.64700000000001
 31
0.0
  0
ARC
  5
1FC
  8
0
 62
     7
 10
66.678034999999994
 20
123.153869
 30
0.0
 40
5.8762369999999997
 50
179.09520599999999
 51
224.6011519999999
  0
ARC
  5
1FD
  8
0
 62
     7
 10
66.977575999999999
 20
123.219776
 30
0.0
 40
6.1751040000000001
 50
136.4920009999999
 51
179.75054899999989
  0
LINE
  5
1FE
  8
0
 62
     7
 10
60.761200000000002
 20
252.74600000000001
 30
0.0
 11
60.754600000000003
 21
252.74600000000001
 31
0.0
  0
ARC
  5
1FF
  8
0
 62
     7
 10
60.964525000000002
 20
258.92962599999993
 30
0.0
 40
6.1873259999999997
 50
262.47102999999993
 51
268.05608699999988
  0
LINE
  5
200
  8
0
 62
     7
 10
59.5578
 20
252.92799999999991
 30
0.0
 11
59.557099999999991
 21
252.929
 31
0.0
  0
ARC
  5
201
  8
0
 62
     7
 10
60.674014
 20
256.51295899999991
 30
0.0
 40
3.7541440000000001
 50
254.5280249999999
 51
261.38684699999999
  0
ARC
  5
202
  8
0
 62
     7
 10
61.959249
 20
227.16322799999989
 30
0.0
 40
25.585561999999989
 50
89.984222000000003
 51
91.329824000000016
  0
ARC
  5
203
  8
0
 62
     7
 10
61.153626000000003
 20
269.39197899999988
 30
0.0
 40
16.651427999999989
 50
268.67563699999988
 51
270.72893599999992
  0
ARC
  5
204
  8
0
 62
     7
 10
61.959249
 20
272.40874200000002
 30
0.0
 40
27.659517000000001
 50
268.76990499999988
 51
270.01459599999993
  0
ARC
  5
205
  8
0
 62
     7
 10
61.170749999999991
 20
226.9113649999999
 30
0.0
 40
17.845298
 50
89.374814999999998
 51
91.336101999999997
  0
ARC
  5
206
  8
0
 62
     7
 10
60.942515
 20
238.66863599999999
 30
0.0
 40
6.0860750000000001
 50
91.768939999999986
 51
96.217711999999992
  0
ARC
  5
207
  8
0
 62
     7
 10
58.643345999999987
 20
144.8552489999999
 30
0.0
 40
0.263325
 50
329.76638700000001
 51
335.83736299999993
  0
ARC
  5
208
  8
0
 62
     7
 10
58.306362999999997
 20
145.0342949999999
 30
0.0
 40
0.6448000000000002
 50
328.83511699999991
 51
331.09832899999992
  0
ARC
  5
209
  8
0
 62
     7
 10
57.472538999999998
 20
145.5286439999999
 30
0.0
 40
1.614136
 50
328.335691
 51
329.13685199999998
  0
ARC
  5
20A
  8
0
 62
     7
 10
58.723987000000001
 20
144.74921499999991
 30
0.0
 40
0.139976
 50
322.723004
 51
330.98301199999997
  0
ARC
  5
20B
  8
0
 62
     7
 10
59.057403999999998
 20
144.5072219999999
 30
0.0
 40
0.272059
 50
144.69940700000001
 51
148.52353400000001
  0
ARC
  5
20C
  8
0
 62
     7
 10
57.32611
 20
144.5082219999999
 30
0.0
 40
0.258234
 50
33.108882000000001
 51
37.223982999999997
  0
LINE
  5
20D
  8
0
 62
     7
 10
57.531700000000001
 20
144.6639999999999
 30
0.0
 11
57.5214
 21
144.68199999999999
 31
0.0
  0
ARC
  5
20E
  8
0
 62
     7
 10
57.987484000000002
 20
144.978015
 30
0.0
 40
0.55223
 50
210.09280200000001
 51
212.43469400000001
  0
ARC
  5
20F
  8
0
 62
     7
 10
58.949244999999998
 20
145.570775
 30
0.0
 40
1.6818489999999999
 50
210.26295300000001
 51
211.13652500000001
  0
ARC
  5
210
  8
0
 62
     7
 10
58.512345000000003
 20
145.27175199999999
 30
0.0
 40
1.1544190000000001
 50
207.01081499999989
 51
208.37223499999999
  0
ARC
  5
211
  8
0
 62
     7
 10
58.78957299999999
 20
144.955388
 30
0.0
 40
0.149237
 50
352.96781499999992
 51
1.979951999999999
  0
ARC
  5
212
  8
0
 62
     7
 10
58.796171999999999
 20
144.93692899999991
 30
0.0
 40
0.141516
 50
350.19481500000001
 51
0.076157
  0
ARC
  5
213
  8
0
 62
     7
 10
58.715194999999987
 20
144.93287299999989
 30
0.0
 40
0.221336
 50
348.17252300000001
 51
354.80406900000003
  0
LINE
  5
214
  8
0
 62
     7
 10
58.931800000000003
 20
144.88800000000001
 30
0.0
 11
58.927
 21
144.8609999999999
 31
0.0
  0
ARC
  5
215
  8
0
 62
     7
 10
58.142670999999993
 20
145.0797419999999
 30
0.0
 40
0.8141350000000001
 50
342.49041299999988
 51
344.45053100000001
  0
ARC
  5
216
  8
0
 62
     7
 10
59.850195999999997
 20
144.52053100000001
 30
0.0
 40
0.982717
 50
161.3495879999999
 51
163.05839800000001
  0
ARC
  5
217
  8
0
 62
     7
 10
58.00154599999999
 20
145.15781000000001
 30
0.0
 40
0.973994
 50
337.045478
 51
338.88207299999988
  0
ARC
  5
218
  8
0
 62
     7
 10
58.245130000000003
 20
145.07652400000001
 30
0.0
 40
0.718279
 50
332.73390999999998
 51
335.43811399999998
  0
LINE
  5
219
  8
0
 62
     7
 10
58.18419999999999
 20
144.65000000000001
 30
0.0
 11
58.276899999999998
 21
144.65000000000001
 31
0.0
  0
LINE
  5
21A
  8
0
 62
     7
 10
58.276899999999998
 20
144.65000000000001
 30
0.0
 11
58.369199999999999
 21
144.65000000000001
 31
0.0
  0
LINE
  5
21B
  8
0
 62
     7
 10
58.369199999999999
 20
144.65000000000001
 30
0.0
 11
58.461899999999993
 21
144.65000000000001
 31
0.0
  0
LINE
  5
21C
  8
0
 62
     7
 10
58.461899999999993
 20
144.65000000000001
 30
0.0
 11
58.553899999999992
 21
144.65000000000001
 31
0.0
  0
LINE
  5
21D
  8
0
 62
     7
 10
58.553899999999992
 20
144.65000000000001
 30
0.0
 11
58.645200000000003
 21
144.65000000000001
 31
0.0
  0
LINE
  5
21E
  8
0
 62
     7
 10
58.645200000000003
 20
144.65000000000001
 30
0.0
 11
58.735100000000003
 21
144.65000000000001
 31
0.0
  0
LINE
  5
21F
  8
0
 62
     7
 10
58.735100000000003
 20
144.65000000000001
 30
0.0
 11
58.825400000000002
 21
144.649
 31
0.0
  0
LINE
  5
220
  8
0
 62
     7
 10
57.542400000000001
 20
144.649
 30
0.0
 11
57.632300000000001
 21
144.65000000000001
 31
0.0
  0
LINE
  5
221
  8
0
 62
     7
 10
57.632300000000001
 20
144.65000000000001
 30
0.0
 11
57.723300000000002
 21
144.65000000000001
 31
0.0
  0
LINE
  5
222
  8
0
 62
     7
 10
57.723300000000002
 20
144.65000000000001
 30
0.0
 11
57.814599999999999
 21
144.65000000000001
 31
0.0
  0
LINE
  5
223
  8
0
 62
     7
 10
57.814599999999999
 20
144.65000000000001
 30
0.0
 11
57.90659999999999
 21
144.65000000000001
 31
0.0
  0
LINE
  5
224
  8
0
 62
     7
 10
57.90659999999999
 20
144.65000000000001
 30
0.0
 11
57.998899999999999
 21
144.65000000000001
 31
0.0
  0
LINE
  5
225
  8
0
 62
     7
 10
57.998899999999999
 20
144.65000000000001
 30
0.0
 11
58.091200000000001
 21
144.65000000000001
 31
0.0
  0
LINE
  5
226
  8
0
 62
     7
 10
58.091200000000001
 20
144.65000000000001
 30
0.0
 11
58.18419999999999
 21
144.65000000000001
 31
0.0
  0
ARC
  5
227
  8
0
 62
     7
 10
58.154936999999997
 20
145.07687999999999
 30
0.0
 40
0.7475800000000001
 50
203.56943799999991
 51
206.14498900000001
  0
ARC
  5
228
  8
0
 62
     7
 10
57.715513000000001
 20
144.88815600000001
 30
0.0
 40
0.269364
 50
197.55912599999999
 51
204.14982499999999
  0
ARC
  5
229
  8
0
 62
     7
 10
57.875897999999999
 20
144.97200000000001
 30
0.0
 40
0.4486830000000001
 50
197.805812
 51
201.59146599999991
  0
ARC
  5
22A
  8
0
 62
     7
 10
57.758625999999992
 20
144.929014
 30
0.0
 40
0.323922
 50
192.030879
 51
196.9097449999999
  0
ARC
  5
22B
  8
0
 62
     7
 10
57.881733999999987
 20
144.96831299999991
 30
0.0
 40
0.452698
 50
190.28232999999989
 51
193.647965
  0
ARC
  5
22C
  8
0
 62
     7
 10
58.050393
 20
145.00917799999991
 30
0.0
 40
0.6260250000000001
 50
188.853407
 51
191.20705799999999
  0
ARC
  5
22D
  8
0
 62
     7
 10
57.594302999999996
 20
144.93888799999991
 30
0.0
 40
0.164552
 50
180.6169009999999
 51
189.11216599999989
  0
ARC
  5
22E
  8
0
 62
     7
 10
57.782918000000002
 20
144.96443400000001
 30
0.0
 40
0.354213
 50
180.62924399999989
 51
184.42302900000001
  0
LINE
  5
22F
  8
0
 62
     7
 10
108.804
 20
150.649
 30
0.0
 11
108.804
 21
150.601
 31
0.0
  0
ARC
  5
230
  8
0
 62
     7
 10
111.99118300000001
 20
150.50850199999991
 30
0.0
 40
3.1884990000000002
 50
178.33029899999991
 51
179.18792199999999
  0
ARC
  5
231
  8
0
 62
     7
 10
107.109055
 20
150.603173
 30
0.0
 40
1.6946709999999989
 50
356.71203600000001
 51
358.32681200000002
  0
ARC
  5
232
  8
0
 62
     7
 10
106.760783
 20
150.59988200000001
 30
0.0
 40
2.0423139999999989
 50
356.02373499999987
 51
357.36460599999992
  0
ARC
  5
233
  8
0
 62
     7
 10
106.513823
 20
150.60197500000001
 30
0.0
 40
2.2888739999999999
 50
355.21982200000002
 51
356.40016299999991
  0
ARC
  5
234
  8
0
 62
     7
 10
105.84066
 20
150.648281
 30
0.0
 40
2.9635720000000001
 50
354.50286699999992
 51
355.4122319999999
  0
ARC
  5
235
  8
0
 62
     7
 10
107.66915899999999
 20
150.45769299999989
 30
0.0
 40
1.1253189999999991
 50
352.87144599999988
 51
355.24360899999999
  0
LINE
  5
236
  8
0
 62
     7
 10
108.786
 20
150.3179999999999
 30
0.0
 11
108.78
 21
150.27199999999999
 31
0.0
  0
LINE
  5
237
  8
0
 62
     7
 10
108.78
 20
150.27199999999999
 30
0.0
 11
108.7739999999999
 21
150.227
 31
0.0
  0
ARC
  5
238
  8
0
 62
     7
 10
106.123842
 20
150.63931099999999
 30
0.0
 40
2.6824300000000001
 50
350.20566000000002
 51
351.16016999999988
  0
ARC
  5
239
  8
0
 62
     7
 10
106.984531
 20
150.44250299999999
 30
0.0
 40
1.801434
 50
350.31406299999992
 51
351.71742799999998
  0
ARC
  5
23A
  8
0
 62
     7
 10
106.34111399999991
 20
150.53599
 30
0.0
 40
2.4514599999999991
 50
349.69749300000001
 51
350.69032399999998
  0
ARC
  5
23B
  8
0
 62
     7
 10
87.449346999999989
 20
154.19381599999991
 30
0.0
 40
21.693942
 50
349.00576999999998
 51
349.11604999999992
  0
LINE
  5
23C
  8
0
 62
     7
 10
108.745
 20
150.05699999999999
 30
0.0
 11
108.73699999999999
 21
150.01699999999991
 31
0.0
  0
ARC
  5
23D
  8
0
 62
     7
 10
121.591882
 20
147.2047959999999
 30
0.0
 40
13.15898299999999
 50
167.66116199999999
 51
167.83078099999989
  0
ARC
  5
23E
  8
0
 62
     7
 10
121.56373000000001
 20
147.03974600000001
 30
0.0
 40
13.167319000000001
 50
167.10288199999999
 51
167.26507699999991
  0
ARC
  5
23F
  8
0
 62
     7
 10
113.9018419999999
 20
148.686679
 30
0.0
 40
5.3314979999999998
 50
166.377678
 51
166.76022699999999
  0
ARC
  5
240
  8
0
 62
     7
 10
114.67702199999999
 20
148.4386979999999
 30
0.0
 40
6.1432010000000004
 50
166.16468499999999
 51
166.477193
  0
ARC
  5
241
  8
0
 62
     7
 10
109.6255699999999
 20
149.61155999999991
 30
0.0
 40
0.958408
 50
164.03464099999999
 51
165.94316699999999
  0
ARC
  5
242
  8
0
 62
     7
 10
109.59995600000001
 20
149.59907699999991
 30
0.0
 40
0.9367719999999998
 50
164.8219389999999
 51
166.61583300000001
  0
LINE
  5
243
  8
0
 62
     7
 10
108.68899999999989
 20
149.816
 30
0.0
 11
108.681
 21
149.7889999999999
 31
0.0
  0
ARC
  5
244
  8
0
 62
     7
 10
109.225521
 20
149.62953599999989
 30
0.0
 40
0.567786
 50
163.64762999999991
 51
166.18621399999989
  0
ARC
  5
245
  8
0
 62
     7
 10
109.893221
 20
149.38561100000001
 30
0.0
 40
1.2767660000000001
 50
162.7086689999999
 51
163.72600600000001
  0
ARC
  5
246
  8
0
 62
     7
 10
108.8578599999999
 20
149.67978999999991
 30
0.0
 40
0.200601
 50
161.51241999999999
 51
167.38793599999991
  0
ARC
  5
247
  8
0
 62
     7
 10
109.11746599999989
 20
149.5697439999999
 30
0.0
 40
0.480654
 50
161.3323199999999
 51
163.5079419999999
  0
LINE
  5
248
  8
0
 62
     7
 10
108.657
 20
149.70599999999999
 30
0.0
 11
108.6519999999999
 21
149.69099999999989
 31
0.0
  0
LINE
  5
249
  8
0
 62
     7
 10
108.6519999999999
 20
149.69099999999989
 30
0.0
 11
108.6479999999999
 21
149.678
 31
0.0
  0
LINE
  5
24A
  8
0
 62
     7
 10
108.6479999999999
 20
149.678
 30
0.0
 11
108.6449999999999
 21
149.66800000000001
 31
0.0
  0
LINE
  5
24B
  8
0
 62
     7
 10
108.6449999999999
 20
149.66800000000001
 30
0.0
 11
108.642
 21
149.65999999999991
 31
0.0
  0
LINE
  5
24C
  8
0
 62
     7
 10
108.642
 20
149.65999999999991
 30
0.0
 11
108.64
 21
149.65399999999991
 31
0.0
  0
LINE
  5
24D
  8
0
 62
     7
 10
108.64
 20
149.65399999999991
 30
0.0
 11
108.6389999999999
 21
149.65100000000001
 31
0.0
  0
LINE
  5
24E
  8
0
 62
     7
 10
108.6389999999999
 20
149.65100000000001
 30
0.0
 11
108.6389999999999
 21
149.649
 31
0.0
  0
LINE
  5
24F
  8
0
 62
     7
 10
153.8779999999999
 20
142.13200000000001
 30
0.0
 11
153.87200000000001
 21
142.148
 31
0.0
  0
ARC
  5
250
  8
0
 62
     7
 10
154.330285
 20
142.27402799999999
 30
0.0
 40
0.4749520000000001
 50
193.20655699999989
 51
195.394034
  0
ARC
  5
251
  8
0
 62
     7
 10
153.99575999999999
 20
142.2129929999999
 30
0.0
 40
0.136394
 50
192.0717919999999
 51
200.36863099999991
  0
ARC
  5
252
  8
0
 62
     7
 10
153.67693799999989
 20
142.14765800000001
 30
0.0
 40
0.189062
 50
11.22716
 51
17.535626000000001
  0
ARC
  5
253
  8
0
 62
     7
 10
154.24431100000001
 20
142.302638
 30
0.0
 40
0.399313
 50
191.04260500000001
 51
194.20910599999999
  0
LINE
  5
254
  8
0
 62
     7
 10
153.852
 20
142.226
 30
0.0
 11
153.84700000000001
 21
142.24899999999991
 31
0.0
  0
ARC
  5
255
  8
0
 62
     7
 10
154.390716
 20
142.37739500000001
 30
0.0
 40
0.558437
 50
190.7375209999999
 51
193.285473
  0
ARC
  5
256
  8
0
 62
     7
 10
154.45614299999991
 20
142.39502300000001
 30
0.0
 40
0.6260250000000001
 50
188.853407
 51
191.20705799999999
  0
ARC
  5
257
  8
0
 62
     7
 10
154.13168300000001
 20
142.36173299999999
 30
0.0
 40
0.30079
 50
186.94294400000001
 51
192.10160400000001
  0
ARC
  5
258
  8
0
 62
     7
 10
154.38717199999999
 20
142.421717
 30
0.0
 40
0.5623870000000001
 50
186.989824
 51
189.86415199999999
  0
ARC
  5
259
  8
0
 62
     7
 10
154.082246
 20
142.40409700000001
 30
0.0
 40
0.258329
 50
184.82015100000001
 51
191.34515300000001
  0
LINE
  5
25A
  8
0
 62
     7
 10
153.8249999999999
 20
142.38200000000001
 30
0.0
 11
153.821
 21
142.4129999999999
 31
0.0
  0
ARC
  5
25B
  8
0
 62
     7
 10
154.27257599999999
 20
142.47334599999991
 30
0.0
 40
0.455612
 50
183.75091199999989
 51
187.67031299999991
  0
ARC
  5
25C
  8
0
 62
     7
 10
154.30684999999991
 20
142.82288
 30
0.0
 40
0.48999
 50
172.50952399999991
 51
176.1939429999999
  0
LINE
  5
25D
  8
0
 62
     7
 10
153.821
 20
142.887
 30
0.0
 11
153.8249999999999
 21
142.917
 31
0.0
  0
ARC
  5
25E
  8
0
 62
     7
 10
154.12447199999991
 20
142.88885899999991
 30
0.0
 40
0.300951
 50
169.08608100000001
 51
174.65367699999999
  0
ARC
  5
25F
  8
0
 62
     7
 10
154.791302
 20
142.8165599999999
 30
0.0
 40
0.970983
 50
170.694118
 51
172.34873999999991
  0
ARC
  5
260
  8
0
 62
     7
 10
154.19654
 20
142.92633299999989
 30
0.0
 40
0.3664989999999999
 50
168.36107100000001
 51
172.59438099999991
  0
ARC
  5
261
  8
0
 62
     7
 10
154.34062599999999
 20
142.92503899999991
 30
0.0
 40
0.5086430000000001
 50
168.57816099999999
 51
171.49419299999991
  0
LINE
  5
262
  8
0
 62
     7
 10
153.84200000000001
 20
143.02600000000001
 30
0.0
 11
153.84700000000001
 21
143.05000000000001
 31
0.0
  0
LINE
  5
263
  8
0
 62
     7
 10
153.84700000000001
 20
143.05000000000001
 30
0.0
 11
153.852
 21
143.07299999999989
 31
0.0
  0
ARC
  5
264
  8
0
 62
     7
 10
154.8466159999999
 20
142.86506299999991
 30
0.0
 40
1.0156929999999991
 50
166.93488300000001
 51
168.19861
  0
ARC
  5
265
  8
0
 62
     7
 10
153.6691679999999
 20
143.154303
 30
0.0
 40
0.197276
 50
342.404853
 51
348.3534029999999
  0
ARC
  5
266
  8
0
 62
     7
 10
154.12488699999989
 20
143.0483879999999
 30
0.0
 40
0.270696
 50
161.690909
 51
165.8686679999999
  0
LINE
  5
267
  8
0
 62
     7
 10
153.86799999999999
 20
143.1329999999999
 30
0.0
 11
153.87200000000001
 21
143.15100000000001
 31
0.0
  0
LINE
  5
268
  8
0
 62
     7
 10
153.87200000000001
 20
143.15100000000001
 30
0.0
 11
153.8779999999999
 21
143.16699999999989
 31
0.0
  0
LINE
  5
269
  8
0
 62
     7
 10
153.922
 20
142.0089999999999
 30
0.0
 11
153.922
 21
142.00999999999991
 31
0.0
  0
LINE
  5
26A
  8
0
 62
     7
 10
153.922
 20
142.00999999999991
 30
0.0
 11
153.92099999999991
 21
142.01300000000001
 31
0.0
  0
LINE
  5
26B
  8
0
 62
     7
 10
153.92099999999991
 20
142.01300000000001
 30
0.0
 11
153.9189999999999
 21
142.01699999999991
 31
0.0
  0
LINE
  5
26C
  8
0
 62
     7
 10
153.9189999999999
 20
142.01699999999991
 30
0.0
 11
153.916
 21
142.02399999999989
 31
0.0
  0
LINE
  5
26D
  8
0
 62
     7
 10
153.916
 20
142.02399999999989
 30
0.0
 11
153.9129999999999
 21
142.03200000000001
 31
0.0
  0
LINE
  5
26E
  8
0
 62
     7
 10
153.9129999999999
 20
142.03200000000001
 30
0.0
 11
153.90899999999991
 21
142.04099999999991
 31
0.0
  0
LINE
  5
26F
  8
0
 62
     7
 10
153.90899999999991
 20
142.04099999999991
 30
0.0
 11
153.905
 21
142.053
 31
0.0
  0
LINE
  5
270
  8
0
 62
     7
 10
153.905
 20
142.053
 30
0.0
 11
153.90000000000001
 21
142.06599999999989
 31
0.0
  0
LINE
  5
271
  8
0
 62
     7
 10
153.90000000000001
 20
142.06599999999989
 30
0.0
 11
153.8949999999999
 21
142.08000000000001
 31
0.0
  0
LINE
  5
272
  8
0
 62
     7
 10
153.8949999999999
 20
142.08000000000001
 30
0.0
 11
153.8899999999999
 21
142.096
 31
0.0
  0
ARC
  5
273
  8
0
 62
     7
 10
153.69346100000001
 20
142.0304669999999
 30
0.0
 40
0.207154
 50
18.471789000000001
 51
23.525645000000001
  0
ARC
  5
274
  8
0
 62
     7
 10
153.556343
 20
142.0214389999999
 30
0.0
 40
0.339671
 50
15.665044999999999
 51
18.983129999999989
  0
ARC
  5
275
  8
0
 62
     7
 10
153.65742800000001
 20
143.2474489999999
 30
0.0
 40
0.23423
 50
340.0059589999999
 51
344.73800599999993
  0
ARC
  5
276
  8
0
 62
     7
 10
153.98432700000001
 20
143.156834
 30
0.0
 40
0.105001
 50
154.01125300000001
 51
163.99127399999989
  0
LINE
  5
277
  8
0
 62
     7
 10
153.8899999999999
 20
143.203
 30
0.0
 11
153.8949999999999
 21
143.21899999999999
 31
0.0
  0
LINE
  5
278
  8
0
 62
     7
 10
153.8949999999999
 20
143.21899999999999
 30
0.0
 11
153.90000000000001
 21
143.233
 31
0.0
  0
LINE
  5
279
  8
0
 62
     7
 10
153.90000000000001
 20
143.233
 30
0.0
 11
153.905
 21
143.24600000000001
 31
0.0
  0
LINE
  5
27A
  8
0
 62
     7
 10
153.905
 20
143.24600000000001
 30
0.0
 11
153.90899999999991
 21
143.25700000000001
 31
0.0
  0
LINE
  5
27B
  8
0
 62
     7
 10
153.90899999999991
 20
143.25700000000001
 30
0.0
 11
153.9129999999999
 21
143.26699999999991
 31
0.0
  0
LINE
  5
27C
  8
0
 62
     7
 10
153.9129999999999
 20
143.26699999999991
 30
0.0
 11
153.916
 21
143.27600000000001
 31
0.0
  0
LINE
  5
27D
  8
0
 62
     7
 10
153.916
 20
143.27600000000001
 30
0.0
 11
153.9189999999999
 21
143.28200000000001
 31
0.0
  0
LINE
  5
27E
  8
0
 62
     7
 10
153.9189999999999
 20
143.28200000000001
 30
0.0
 11
153.92099999999991
 21
143.28599999999989
 31
0.0
  0
LINE
  5
27F
  8
0
 62
     7
 10
153.92099999999991
 20
143.28599999999989
 30
0.0
 11
153.922
 21
143.2889999999999
 31
0.0
  0
LINE
  5
280
  8
0
 62
     7
 10
153.922
 20
143.2889999999999
 30
0.0
 11
153.922
 21
143.28999999999991
 31
0.0
  0
ARC
  5
281
  8
0
 62
     7
 10
151.65804299999991
 20
142.42838399999999
 30
0.0
 40
1.0710859999999991
 50
90.028655999999984
 51
92.517383999999979
  0
ARC
  5
282
  8
0
 62
     7
 10
151.657297
 20
142.49453099999999
 30
0.0
 40
1.0049719999999991
 50
92.640512000000001
 51
95.219819000000001
  0
ARC
  5
283
  8
0
 62
     7
 10
151.673114
 20
142.38942599999999
 30
0.0
 40
1.111097
 50
95.539012999999969
 51
97.828693999999999
  0
ARC
  5
284
  8
0
 62
     7
 10
151.67102700000001
 20
142.50723099999999
 30
0.0
 40
0.994204
 50
98.634335000000007
 51
101.1740089999999
  0
ARC
  5
285
  8
0
 62
     7
 10
151.6889239999999
 20
142.41280900000001
 30
0.0
 40
1.090304999999999
 50
101.135108
 51
103.43277999999999
  0
ARC
  5
286
  8
0
 62
     7
 10
151.59967700000001
 20
142.789716
 30
0.0
 40
0.7029770000000001
 50
103.4939899999999
 51
107.01622399999989
  0
ARC
  5
287
  8
0
 62
     7
 10
151.86813699999999
 20
141.90624199999991
 30
0.0
 40
1.626337999999999
 50
106.951606
 51
108.46781899999991
  0
ARC
  5
288
  8
0
 62
     7
 10
151.85327399999991
 20
142.09409600000001
 30
0.0
 40
1.4441639999999989
 50
110.269695
 51
111.93995700000001
  0
ARC
  5
289
  8
0
 62
     7
 10
151.821033
 20
142.24537799999999
 30
0.0
 40
1.2920670000000001
 50
113.1203949999999
 51
114.99427899999991
  0
ARC
  5
28A
  8
0
 62
     7
 10
152.11812699999999
 20
141.699029
 30
0.0
 40
1.9131659999999999
 50
116.1450679999999
 51
117.40475599999991
  0
ARC
  5
28B
  8
0
 62
     7
 10
152.167258
 20
141.77136299999989
 30
0.0
 40
1.8731429999999989
 50
119.757959
 51
121.02853899999999
  0
ARC
  5
28C
  8
0
 62
     7
 10
152.01495299999991
 20
142.0939909999999
 30
0.0
 40
1.5185930000000001
 50
122.379051
 51
123.9473709999999
  0
ARC
  5
28D
  8
0
 62
     7
 10
151.63522
 20
142.68095600000001
 30
0.0
 40
0.8197209999999998
 50
124.840174
 51
127.76879199999991
  0
ARC
  5
28E
  8
0
 62
     7
 10
151.86622899999989
 20
142.37905299999991
 30
0.0
 40
1.1998610000000001
 50
127.6590259999999
 51
129.660562
  0
ARC
  5
28F
  8
0
 62
     7
 10
151.49845300000001
 20
142.84781699999991
 30
0.0
 40
0.604473
 50
131.182491
 51
135.12225900000001
  0
ARC
  5
290
  8
0
 62
     7
 10
151.5406439999999
 20
142.77110799999991
 30
0.0
 40
0.6889350000000001
 50
133.077054
 51
136.592682
  0
ARC
  5
291
  8
0
 62
     7
 10
151.74139699999989
 20
142.5989899999999
 30
0.0
 40
0.953143
 50
137.36882199999999
 51
139.907521
  0
ARC
  5
292
  8
0
 62
     7
 10
151.46476200000001
 20
142.82637700000001
 30
0.0
 40
0.5950880000000001
 50
139.50249199999999
 51
143.61136899999991
  0
ARC
  5
293
  8
0
 62
     7
 10
151.516538
 20
142.77662100000001
 30
0.0
 40
0.6663520000000001
 50
142.80844500000001
 51
146.4420199999999
  0
ARC
  5
294
  8
0
 62
     7
 10
151.365475
 20
142.862752
 30
0.0
 40
0.492995
 50
145.078756
 51
150.08431200000001
  0
ARC
  5
295
  8
0
 62
     7
 10
151.822712
 20
142.5867209999999
 30
0.0
 40
1.0270349999999999
 50
149.45853799999989
 51
151.85099600000001
  0
ARC
  5
296
  8
0
 62
     7
 10
151.64160100000001
 20
142.678258
 30
0.0
 40
0.824174
 50
151.52205900000001
 51
154.53222
  0
ARC
  5
297
  8
0
 62
     7
 10
151.543384
 20
142.72943499999991
 30
0.0
 40
0.7135060000000001
 50
154.85098199999999
 51
158.333369
  0
ARC
  5
298
  8
0
 62
     7
 10
151.4507769999999
 20
142.75781199999989
 30
0.0
 40
0.6170140000000001
 50
157.607269
 51
161.6519659999999
  0
ARC
  5
299
  8
0
 62
     7
 10
151.4658189999999
 20
142.72959800000001
 30
0.0
 40
0.6405529999999999
 50
159.6797399999999
 51
163.59303099999991
  0
ARC
  5
29A
  8
0
 62
     7
 10
151.9133159999999
 20
142.61265900000001
 30
0.0
 40
1.1029489999999991
 50
164.3318899999999
 51
166.61526399999991
  0
ARC
  5
29B
  8
0
 62
     7
 10
151.275935
 20
142.75105500000001
 30
0.0
 40
0.4510290000000001
 50
164.975098
 51
170.55264199999991
  0
ARC
  5
29C
  8
0
 62
     7
 10
151.27737500000001
 20
142.728599
 30
0.0
 40
0.4566620000000001
 50
167.80192600000001
 51
173.34684799999991
  0
ARC
  5
29D
  8
0
 62
     7
 10
151.458778
 20
142.68432699999991
 30
0.0
 40
0.642382
 50
171.29879999999989
 51
175.22914
  0
ARC
  5
29E
  8
0
 62
     7
 10
151.39518100000001
 20
142.67505700000001
 30
0.0
 40
0.5799590000000001
 50
173.793825
 51
178.16215600000001
  0
ARC
  5
29F
  8
0
 62
     7
 10
151.838007
 20
142.63963399999989
 30
0.0
 40
1.0239119999999999
 50
176.97557499999991
 51
179.4445649999999
  0
ARC
  5
2A0
  8
0
 62
     7
 10
151.68585200000001
 20
142.65473
 30
0.0
 40
0.8717249999999999
 50
180.3398719999999
 51
183.23998899999989
  0
ARC
  5
2A1
  8
0
 62
     7
 10
151.49633899999989
 20
142.6311739999999
 30
0.0
 40
0.681304
 50
182.16286599999989
 51
185.88115300000001
  0
ARC
  5
2A2
  8
0
 62
     7
 10
151.4044649999999
 20
142.6080199999999
 30
0.0
 40
0.587699
 50
184.55340599999991
 51
188.86630599999989
  0
ARC
  5
2A3
  8
0
 62
     7
 10
151.2995479999999
 20
142.574028
 30
0.0
 40
0.479113
 50
186.783164
 51
192.06806199999991
  0
ARC
  5
2A4
  8
0
 62
     7
 10
151.29895300000001
 20
142.55288200000001
 30
0.0
 40
0.4745560000000001
 50
189.58571599999999
 51
194.88654399999999
  0
ARC
  5
2A5
  8
0
 62
     7
 10
151.67677699999999
 20
142.62499700000001
 30
0.0
 40
0.8586619999999999
 50
193.059865
 51
195.99298099999999
  0
ARC
  5
2A6
  8
0
 62
     7
 10
151.485376
 20
142.57584
 30
0.0
 40
0.6611470000000002
 50
196.46794199999991
 51
200.259287
  0
ARC
  5
2A7
  8
0
 62
     7
 10
151.38576599999999
 20
142.51878899999991
 30
0.0
 40
0.548275
 50
198.270195
 51
202.78848300000001
  0
ARC
  5
2A8
  8
0
 62
     7
 10
151.61052100000001
 20
142.59748599999989
 30
0.0
 40
0.7861010000000001
 50
201.73160799999999
 51
204.90384399999999
  0
ARC
  5
2A9
  8
0
 62
     7
 10
151.57239199999989
 20
142.58563699999999
 30
0.0
 40
0.7465470000000001
 50
205.31123600000001
 51
208.63448500000001
  0
ARC
  5
2AA
  8
0
 62
     7
 10
152.09974700000001
 20
142.86503999999991
 30
0.0
 40
1.3433200000000001
 50
208.31508099999991
 51
210.15058699999989
  0
ARC
  5
2AB
  8
0
 62
     7
 10
151.39349899999991
 20
142.45541900000001
 30
0.0
 40
0.5268800000000001
 50
210.20795099999989
 51
214.87558799999991
  0
ARC
  5
2AC
  8
0
 62
     7
 10
151.56011699999999
 20
142.55127999999991
 30
0.0
 40
0.7185780000000001
 50
213.54967500000001
 51
216.930296
  0
ARC
  5
2AD
  8
0
 62
     7
 10
151.64600100000001
 20
142.6164389999999
 30
0.0
 40
0.8263809999999999
 50
216.96379400000001
 51
219.9223439999999
  0
ARC
  5
2AE
  8
0
 62
     7
 10
151.733192
 20
142.69273200000001
 30
0.0
 40
0.942214
 50
220.07775299999989
 51
222.64590399999989
  0
ARC
  5
2AF
  8
0
 62
     7
 10
151.5492449999999
 20
142.53648799999991
 30
0.0
 40
0.7011270000000001
 50
223.43789599999991
 51
226.89236799999989
  0
ARC
  5
2B0
  8
0
 62
     7
 10
151.65499800000001
 20
142.62190200000001
 30
0.0
 40
0.8359669999999999
 50
225.60115699999989
 51
228.4416019999999
  0
ARC
  5
2B1
  8
0
 62
     7
 10
151.93715199999991
 20
143.0087179999999
 30
0.0
 40
1.313377
 50
230.42594299999999
 51
232.25446899999989
  0
ARC
  5
2B2
  8
0
 62
     7
 10
151.53080399999999
 20
142.47974999999991
 30
0.0
 40
0.646359
 50
232.033164
 51
235.738494
  0
ARC
  5
2B3
  8
0
 62
     7
 10
151.7953179999999
 20
142.862076
 30
0.0
 40
1.1112610000000001
 50
235.56441499999991
 51
237.71253200000001
  0
ARC
  5
2B4
  8
0
 62
     7
 10
151.58435700000001
 20
142.53918200000001
 30
0.0
 40
0.725629
 50
238.175433
 51
241.44883200000001
  0
ARC
  5
2B5
  8
0
 62
     7
 10
152.422549
 20
144.18266199999999
 30
0.0
 40
2.5703269999999998
 50
242.54631299999991
 51
243.48566199999999
  0
LINE
  5
2B6
  8
0
 62
     7
 10
151.27500000000001
 20
141.8829999999999
 30
0.0
 11
151.31399999999991
 21
141.86500000000001
 31
0.0
  0
LINE
  5
2B7
  8
0
 62
     7
 10
151.31399999999991
 20
141.86500000000001
 30
0.0
 11
151.35299999999989
 21
141.84999999999991
 31
0.0
  0
LINE
  5
2B8
  8
0
 62
     7
 10
151.35299999999989
 20
141.84999999999991
 30
0.0
 11
151.39400000000001
 21
141.83699999999999
 31
0.0
  0
LINE
  5
2B9
  8
0
 62
     7
 10
151.39400000000001
 20
141.83699999999999
 30
0.0
 11
151.43600000000001
 21
141.82599999999991
 31
0.0
  0
LINE
  5
2BA
  8
0
 62
     7
 10
151.43600000000001
 20
141.82599999999991
 30
0.0
 11
151.47799999999989
 21
141.816
 31
0.0
  0
LINE
  5
2BB
  8
0
 62
     7
 10
151.47799999999989
 20
141.816
 30
0.0
 11
151.52199999999999
 21
141.809
 31
0.0
  0
LINE
  5
2BC
  8
0
 62
     7
 10
151.52199999999999
 20
141.809
 30
0.0
 11
151.566
 21
141.80399999999989
 31
0.0
  0
LINE
  5
2BD
  8
0
 62
     7
 10
151.566
 20
141.80399999999989
 30
0.0
 11
151.6109999999999
 21
141.80099999999999
 31
0.0
  0
LINE
  5
2BE
  8
0
 62
     7
 10
151.6109999999999
 20
141.80099999999999
 30
0.0
 11
151.6579999999999
 21
141.79900000000001
 31
0.0
  0
LINE
  5
2BF
  8
0
 62
     7
 10
108.804
 20
150.649
 30
0.0
 11
108.804
 21
150.697
 31
0.0
  0
ARC
  5
2C0
  8
0
 62
     7
 10
111.996486
 20
150.790537
 30
0.0
 40
3.1938080000000002
 50
180.81883099999999
 51
181.67193700000001
  0
ARC
  5
2C1
  8
0
 62
     7
 10
107.03379699999989
 20
150.6928749999999
 30
0.0
 40
1.7699720000000001
 50
1.684207999999999
 51
3.241425
  0
ARC
  5
2C2
  8
0
 62
     7
 10
106.671128
 20
150.692804
 30
0.0
 40
2.1321629999999998
 50
2.6922570000000001
 51
3.9673789999999989
  0
ARC
  5
2C3
  8
0
 62
     7
 10
106.41958700000001
 20
150.69042999999991
 30
0.0
 40
2.3833120000000001
 50
3.6059199999999989
 51
4.7436189999999989
  0
ARC
  5
2C4
  8
0
 62
     7
 10
105.682259
 20
150.63650200000001
 30
0.0
 40
3.1225839999999989
 50
4.6109220000000004
 51
5.473978999999999
  0
ARC
  5
2C5
  8
0
 62
     7
 10
107.6668439999999
 20
150.840304
 30
0.0
 40
1.1276889999999991
 50
4.785251999999999
 51
7.1437210000000002
  0
ARC
  5
2C6
  8
0
 62
     7
 10
117.88011400000001
 20
152.09783899999991
 30
0.0
 40
9.1627119999999991
 50
186.715486
 51
187.00407199999989
  0
ARC
  5
2C7
  8
0
 62
     7
 10
115.69850599999999
 20
151.94709399999991
 30
0.0
 40
6.979239999999999
 50
187.207223
 51
187.58083199999999
  0
ARC
  5
2C8
  8
0
 62
     7
 10
106.35836
 20
150.69775200000001
 30
0.0
 40
2.4447860000000001
 50
8.7934369999999991
 51
9.8407330000000002
  0
ARC
  5
2C9
  8
0
 62
     7
 10
107.11210800000001
 20
150.87513200000001
 30
0.0
 40
1.6724439999999989
 50
8.266432
 51
9.7722110000000004
  0
ARC
  5
2CA
  8
0
 62
     7
 10
106.52103200000001
 20
150.7951909999999
 30
0.0
 40
2.268613999999999
 50
9.2281080000000006
 51
10.305249
  0
LINE
  5
2CB
  8
0
 62
     7
 10
108.7529999999999
 20
151.20099999999999
 30
0.0
 11
108.745
 21
151.24199999999999
 31
0.0
  0
LINE
  5
2CC
  8
0
 62
     7
 10
108.745
 20
151.24199999999999
 30
0.0
 11
108.73699999999999
 21
151.28200000000001
 31
0.0
  0
LINE
  5
2CD
  8
0
 62
     7
 10
108.73699999999999
 20
151.28200000000001
 30
0.0
 11
108.729
 21
151.31999999999991
 31
0.0
  0
LINE
  5
2CE
  8
0
 62
     7
 10
108.729
 20
151.31999999999991
 30
0.0
 11
108.7199999999999
 21
151.35599999999999
 31
0.0
  0
ARC
  5
2CF
  8
0
 62
     7
 10
103.65581400000001
 20
150.1589679999999
 30
0.0
 40
5.2041019999999989
 50
13.300697
 51
13.690766999999999
  0
ARC
  5
2D0
  8
0
 62
     7
 10
95.494775000000004
 20
148.2248679999999
 30
0.0
 40
13.591131000000001
 50
13.469773
 51
13.612437999999999
  0
ARC
  5
2D1
  8
0
 62
     7
 10
109.7434709999999
 20
151.72180499999999
 30
0.0
 40
1.08128
 50
194.3359309999999
 51
196.00993600000001
  0
ARC
  5
2D2
  8
0
 62
     7
 10
109.7754969999999
 20
151.73935599999999
 30
0.0
 40
1.116690999999999
 50
193.270982
 51
194.80154099999999
  0
ARC
  5
2D3
  8
0
 62
     7
 10
100.554492
 20
149.03565599999999
 30
0.0
 40
8.494333000000001
 50
16.745211000000001
 51
16.929729999999999
  0
ARC
  5
2D4
  8
0
 62
     7
 10
109.528154
 20
151.75061199999999
 30
0.0
 40
0.8811669999999999
 50
194.26524000000001
 51
195.900916
  0
LINE
  5
2D5
  8
0
 62
     7
 10
108.67400000000001
 20
151.5329999999999
 30
0.0
 11
108.66799999999991
 21
151.55600000000001
 31
0.0
  0
ARC
  5
2D6
  8
0
 62
     7
 10
108.828952
 20
151.611412
 30
0.0
 40
0.170743
 50
192.2553739999999
 51
199.103711
  0
ARC
  5
2D7
  8
0
 62
     7
 10
109.11667299999991
 20
151.73012700000001
 30
0.0
 40
0.48026
 50
196.66577899999999
 51
198.8236
  0
LINE
  5
2D8
  8
0
 62
     7
 10
108.657
 20
151.59200000000001
 30
0.0
 11
108.6519999999999
 21
151.608
 31
0.0
  0
LINE
  5
2D9
  8
0
 62
     7
 10
108.6519999999999
 20
151.608
 30
0.0
 11
108.6479999999999
 21
151.61999999999989
 31
0.0
  0
LINE
  5
2DA
  8
0
 62
     7
 10
108.6479999999999
 20
151.61999999999989
 30
0.0
 11
108.6449999999999
 21
151.631
 31
0.0
  0
LINE
  5
2DB
  8
0
 62
     7
 10
108.6449999999999
 20
151.631
 30
0.0
 11
108.642
 21
151.63900000000001
 31
0.0
  0
LINE
  5
2DC
  8
0
 62
     7
 10
108.642
 20
151.63900000000001
 30
0.0
 11
108.64
 21
151.64500000000001
 31
0.0
  0
LINE
  5
2DD
  8
0
 62
     7
 10
108.64
 20
151.64500000000001
 30
0.0
 11
108.6389999999999
 21
151.648
 31
0.0
  0
LINE
  5
2DE
  8
0
 62
     7
 10
108.6389999999999
 20
151.648
 30
0.0
 11
108.6389999999999
 21
151.649
 31
0.0
  0
ARC
  5
2DF
  8
0
 62
     7
 10
71.970652999999999
 20
252.54129399999991
 30
0.0
 40
0.207624
 50
2.1193080000000002
 51
87.979382999999999
  0
ARC
  5
2E0
  8
0
 62
     7
 10
71.970550000000003
 20
244.95682400000001
 30
0.0
 40
0.20773
 50
272.04793799999999
 51
357.85337099999992
  0
ARC
  5
2E1
  8
0
 62
     7
 10
71.970399999999998
 20
248.25689499999999
 30
0.0
 40
0.207901
 50
272.08783499999998
 51
357.71460400000001
  0
ARC
  5
2E2
  8
0
 62
     7
 10
71.969859
 20
249.240972
 30
0.0
 40
0.208414
 50
2.0837460000000001
 51
87.768512000000015
  0
ARC
  5
2E3
  8
0
 62
     7
 10
71.105142999999998
 20
248.72215899999989
 30
0.0
 40
0.7275840000000001
 50
92.156493999999995
 51
177.87167999999991
  0
ARC
  5
2E4
  8
0
 62
     7
 10
71.105048999999994
 20
248.77610699999991
 30
0.0
 40
0.727487
 50
182.12122600000001
 51
267.85059999999999
  0
LINE
  5
2E5
  8
0
 62
     7
 10
59.543700000000001
 20
252.93299999999991
 30
0.0
 11
59.551299999999998
 21
252.9309999999999
 31
0.0
  0
LINE
  5
2E6
  8
0
 62
     7
 10
59.5578
 20
252.92799999999991
 30
0.0
 11
59.6023
 21
252.91499999999999
 31
0.0
  0
ARC
  5
2E7
  8
0
 62
     7
 10
60.093186000000003
 20
254.49437800000001
 30
0.0
 40
1.6539049999999991
 50
252.7324689999999
 51
255.26550900000001
  0
ARC
  5
2E8
  8
0
 62
     7
 10
58.103588000000002
 20
248.66867899999991
 30
0.0
 40
2.1812490000000002
 50
2.1150250000000002
 51
87.899068000000014
  0
ARC
  5
2E9
  8
0
 62
     7
 10
58.263998999999998
 20
248.66783899999999
 30
0.0
 40
2.1821069999999989
 50
92.112762000000004
 51
177.86370600000001
  0
ARC
  5
2EA
  8
0
 62
     7
 10
58.057299999999998
 20
248.71234899999999
 30
0.0
 40
2.494349999999999
 50
333.18112500000001
 51
58.912593999999991
  0
ARC
  5
2EB
  8
0
 62
     7
 10
58.219116
 20
248.62423399999989
 30
0.0
 40
2.4930620000000001
 50
63.146842000000007
 51
148.9436409999999
  0
ARC
  5
2EC
  8
0
 62
     7
 10
57.616470999999997
 20
248.9560029999999
 30
0.0
 40
1.8058439999999989
 50
148.097139
 51
167.44522799999999
  0
ARC
  5
2ED
  8
0
 62
     7
 10
58.286599000000002
 20
248.76987999999989
 30
0.0
 40
2.5006650000000001
 50
166.620239
 51
208.23172199999991
  0
ARC
  5
2EE
  8
0
 62
     7
 10
57.955010999999999
 20
248.81673399999991
 30
0.0
 40
4.5713879999999989
 50
300.61913799999991
 51
26.399853999999991
  0
ARC
  5
2EF
  8
0
 62
     7
 10
58.183430999999999
 20
248.74914799999999
 30
0.0
 40
4.3998280000000003
 50
28.511244999999999
 51
118.50896899999999
  0
ARC
  5
2F0
  8
0
 62
     7
 10
58.184125999999999
 20
248.7487769999999
 30
0.0
 40
4.4004849999999989
 50
118.51461399999999
 51
208.505278
  0
ARC
  5
2F1
  8
0
 62
     7
 10
56.410947
 20
247.6372979999999
 30
0.0
 40
2.3155019999999991
 50
205.27425099999999
 51
212.7640779999999
  0
ARC
  5
2F2
  8
0
 62
     7
 10
58.203209999999991
 20
248.79350899999989
 30
0.0
 40
4.4483470000000001
 50
212.79404
 51
241.540549
  0
ARC
  5
2F3
  8
0
 62
     7
 10
58.183470999999997
 20
248.748243
 30
0.0
 40
5.5003830000000002
 50
46.662295999999998
 51
136.65990300000001
  0
ARC
  5
2F4
  8
0
 62
     7
 10
58.182935999999998
 20
248.7489259999999
 30
0.0
 40
5.4995250000000002
 50
136.66125500000001
 51
226.65894199999991
  0
ARC
  5
2F5
  8
0
 62
     7
 10
56.375273
 20
246.66184899999999
 30
0.0
 40
2.7434910000000001
 50
224.19872899999999
 51
230.957313
  0
ARC
  5
2F6
  8
0
 62
     7
 10
58.299737
 20
248.97119699999999
 30
0.0
 40
5.7494659999999991
 50
230.55840399999991
 51
247.32620700000001
  0
ARC
  5
2F7
  8
0
 62
     7
 10
59.387566999999997
 20
246.153537
 30
0.0
 40
2.6438349999999988
 50
289.80499800000001
 51
296.4822529999999
  0
ARC
  5
2F8
  8
0
 62
     7
 10
58.050175000000003
 20
248.91898199999989
 30
0.0
 40
5.7155940000000003
 50
296.12031200000001
 51
313.13951300000002
  0
ARC
  5
2F9
  8
0
 62
     7
 10
59.020161999999999
 20
205.40530799999999
 30
0.0
 40
0.162834
 50
283.53352100000001
 51
359.20859599999989
  0
ARC
  5
2FA
  8
0
 62
     7
 10
57.345672
 20
205.40520199999989
 30
0.0
 40
0.162596
 50
180.75526899999991
 51
256.65686599999998
  0
ARC
  5
2FB
  8
0
 62
     7
 10
58.183207000000003
 20
208.74999
 30
0.0
 40
2.0997989999999991
 50
180.00941
 51
270.00941999999998
  0
ARC
  5
2FC
  8
0
 62
     7
 10
58.183723999999998
 20
208.749819
 30
0.0
 40
2.099626999999999
 50
269.99531899999999
 51
359.99528900000001
  0
ARC
  5
2FD
  8
0
 62
     7
 10
58.307921999999998
 20
208.78599800000001
 30
0.0
 40
2.4931160000000001
 50
153.15888799999991
 51
238.94600899999989
  0
ARC
  5
2FE
  8
0
 62
     7
 10
58.147841
 20
208.874146
 30
0.0
 40
2.492751999999999
 50
243.14703600000001
 51
328.94670200000002
  0
ARC
  5
2FF
  8
0
 62
     7
 10
58.744275999999999
 20
208.545016
 30
0.0
 40
1.812198
 50
328.13409899999999
 51
347.41753399999988
  0
ARC
  5
300
  8
0
 62
     7
 10
58.080539000000002
 20
208.72886500000001
 30
0.0
 40
2.5002879999999998
 50
346.61908
 51
28.233958000000001
  0
ARC
  5
301
  8
0
 62
     7
 10
58.183863000000002
 20
208.74946099999991
 30
0.0
 40
3.1005500000000001
 50
132.64434299999991
 51
222.636247
  0
ARC
  5
302
  8
0
 62
     7
 10
58.189794999999997
 20
208.91899000000001
 30
0.0
 40
3.2220049999999989
 50
224.783107
 51
310.52412299999992
  0
ARC
  5
303
  8
0
 62
     7
 10
58.015618000000003
 20
208.75680899999989
 30
0.0
 40
3.2206890000000001
 50
314.758014
 51
40.530647999999999
  0
ARC
  5
304
  8
0
 62
     7
 10
58.515467000000001
 20
209.083766
 30
0.0
 40
2.6294080000000002
 50
42.193975000000002
 51
47.751265999999987
  0
ARC
  5
305
  8
0
 62
     7
 10
58.182961999999989
 20
208.75018199999991
 30
0.0
 40
3.5504660000000001
 50
286.150734
 51
16.137598999999991
  0
ARC
  5
306
  8
0
 62
     7
 10
59.682600999999998
 20
209.30287299999989
 30
0.0
 40
1.959624
 50
12.799747
 51
20.525791999999999
  0
ARC
  5
307
  8
0
 62
     7
 10
58.173014000000002
 20
208.72547499999999
 30
0.0
 40
3.5758449999999988
 50
20.709039000000001
 51
53.831306000000012
  0
ARC
  5
308
  8
0
 62
     7
 10
58.372795999999987
 20
208.72107199999991
 30
0.0
 40
3.6878009999999999
 50
128.37456900000001
 51
214.16300200000001
  0
ARC
  5
309
  8
0
 62
     7
 10
56.974023000000003
 20
207.71968100000001
 30
0.0
 40
1.9685379999999999
 50
212.9079799999999
 51
220.60206199999999
  0
ARC
  5
30A
  8
0
 62
     7
 10
58.181674999999998
 20
208.770611
 30
0.0
 40
3.5694119999999998
 50
220.794297
 51
253.9785399999999
  0
ARC
  5
30B
  8
0
 62
     7
 10
57.852069999999991
 20
207.20330000000001
 30
0.0
 40
2.030511999999999
 50
254.4621809999999
 51
262.17816099999988
  0
ARC
  5
30C
  8
0
 62
     7
 10
58.164839999999998
 20
209.29741100000001
 30
0.0
 40
4.14778
 50
261.83468299999993
 51
282.43893799999989
  0
ARC
  5
30D
  8
0
 62
     7
 10
58.570250000000001
 20
158.76145600000001
 30
0.0
 40
3.348589
 50
159.48608200000001
 51
165.591219
  0
ARC
  5
30E
  8
0
 62
     7
 10
62.404345999999997
 20
157.72540699999999
 30
0.0
 40
7.3200589999999988
 50
165.20461900000001
 51
179.81538499999999
  0
ARC
  5
30F
  8
0
 62
     7
 10
63.923984999999988
 20
161.98586900000001
 30
0.0
 40
3.342938999999999
 50
177.6888999999999
 51
183.80391299999991
  0
ARC
  5
310
  8
0
 62
     7
 10
67.917202000000003
 20
162.202011
 30
0.0
 40
7.341863
 50
183.41955899999999
 51
197.98633599999999
  0
ARC
  5
311
  8
0
 62
     7
 10
60.543342000000003
 20
141.75904800000001
 30
0.0
 40
0.040426
 50
0.6590650000000001
 51
77.030590000000004
  0
ARC
  5
312
  8
0
 62
     7
 10
60.542994999999991
 20
143.540177
 30
0.0
 40
0.040777
 50
283.35576200000003
 51
358.9545839999999
  0
ARC
  5
313
  8
0
 62
     7
 10
60.535682999999999
 20
143.54100899999989
 30
0.0
 40
0.042943
 50
296.98746299999988
 51
357.89627300000001
  0
ARC
  5
314
  8
0
 62
     7
 10
60.535939999999997
 20
141.75810100000001
 30
0.0
 40
0.042681
 50
1.8963859999999999
 51
63.219878000000001
  0
ARC
  5
315
  8
0
 62
     7
 10
61.651263
 20
146.96649099999991
 30
0.0
 40
0.082878
 50
2.0055999999999989
 51
87.994389999999996
  0
ARC
  5
316
  8
0
 62
     7
 10
61.651037000000002
 20
145.13247999999999
 30
0.0
 40
0.083112
 50
272.15559999999999
 51
357.84440999999998
  0
ARC
  5
317
  8
0
 62
     7
 10
63.579354000000002
 20
99.945351000000002
 30
0.0
 40
0.104393
 50
2.0322740000000001
 51
87.573931999999999
  0
ARC
  5
318
  8
0
 62
     7
 10
71.976108999999994
 20
119.45461399999991
 30
0.0
 40
0.207861
 50
271.98623599999991
 51
357.81654300000002
  0
ARC
  5
319
  8
0
 62
     7
 10
71.976356999999993
 20
140.2389189999999
 30
0.0
 40
0.207605
 50
2.1176059999999999
 51
88.079615000000004
  0
ARC
  5
31A
  8
0
 62
     7
 10
71.317879000000005
 20
139.51192900000001
 30
0.0
 40
0.9351179999999999
 50
92.121250000000003
 51
177.87871999999999
  0
LINE
  5
31B
  8
0
 62
     7
 10
64.266599999999997
 20
127.247
 30
0.0
 11
64.304100000000005
 21
127.247
 31
0.0
  0
LINE
  5
31C
  8
0
 62
     7
 10
64.304100000000005
 20
119.247
 30
0.0
 11
64.266300000000001
 21
119.246
 31
0.0
  0
LINE
  5
31D
  8
0
 62
     7
 10
62.583999999999989
 20
128.96700000000001
 30
0.0
 11
62.583999999999989
 21
128.92599999999999
 31
0.0
  0
LINE
  5
31E
  8
0
 62
     7
 10
62.583999999999989
 20
117.56699999999989
 30
0.0
 11
62.583999999999989
 21
117.527
 31
0.0
  0
ARC
  5
31F
  8
0
 62
     7
 10
64.356981999999988
 20
117.4730159999999
 30
0.0
 40
1.775491999999999
 50
92.929204999999996
 51
176.95330799999999
  0
ARC
  5
320
  8
0
 62
     7
 10
64.355637000000002
 20
129.019316
 30
0.0
 40
1.7740779999999989
 50
183.00611900000001
 51
267.12310099999991
  0
ARC
  5
321
  8
0
 62
     7
 10
64.375668000000005
 20
135.94379599999991
 30
0.0
 40
3.7974860000000001
 50
176.89247299999991
 51
182.67608000000001
  0
ARC
  5
322
  8
0
 62
     7
 10
67.445534999999992
 20
136.08586199999999
 30
0.0
 40
6.8706389999999988
 50
182.664255
 51
194.0652399999999
  0
ARC
  5
323
  8
0
 62
     7
 10
69.135919000000001
 20
136.37672199999989
 30
0.0
 40
8.5819960000000002
 50
193.20618799999991
 51
203.4940179999999
  0
ARC
  5
324
  8
0
 62
     7
 10
65.535150000000002
 20
134.835104
 30
0.0
 40
4.6652040000000001
 50
203.7597439999999
 51
212.11685799999989
  0
ARC
  5
325
  8
0
 62
     7
 10
57.982377999999997
 20
130.30513500000001
 30
0.0
 40
3.7985999999999991
 50
147.34356699999989
 51
153.12550400000001
  0
ARC
  5
326
  8
0
 62
     7
 10
60.711346999999989
 20
128.92198300000001
 30
0.0
 40
6.8580750000000004
 50
153.12405299999989
 51
164.54498899999999
  0
ARC
  5
327
  8
0
 62
     7
 10
62.344707999999997
 20
128.33615499999991
 30
0.0
 40
8.5894600000000008
 50
163.68190000000001
 51
173.9590729999999
  0
ARC
  5
328
  8
0
 62
     7
 10
58.456434000000002
 20
128.768959
 30
0.0
 40
4.6772780000000003
 50
174.21882699999989
 51
182.55136100000001
  0
ARC
  5
329
  8
0
 62
     7
 10
58.145505999999997
 20
150.61109500000001
 30
0.0
 40
1.0388660000000001
 50
2.1072189999999988
 51
87.863153000000011
  0
ARC
  5
32A
  8
0
 62
     7
 10
58.222855000000003
 20
150.61014299999999
 30
0.0
 40
1.039812999999999
 50
92.128178000000005
 51
177.8421899999999
  0
ARC
  5
32B
  8
0
 62
     7
 10
58.184068999999987
 20
150.6494659999999
 30
0.0
 40
1.000289999999999
 50
180.0098769999999
 51
270.00988699999999
  0
ARC
  5
32C
  8
0
 62
     7
 10
58.145582999999988
 20
150.68723600000001
 30
0.0
 40
1.03878
 50
272.13275099999998
 51
357.906746
  0
ARC
  5
32D
  8
0
 62
     7
 10
58.184068000000003
 20
197.15010799999999
 30
0.0
 40
2.099626999999999
 50
359.99530899999991
 51
89.995280000000008
  0
ARC
  5
32E
  8
0
 62
     7
 10
58.183896999999988
 20
197.1495909999999
 30
0.0
 40
2.1001439999999989
 50
89.990600999999984
 51
179.9905709999999
  0
ARC
  5
32F
  8
0
 62
     7
 10
52.272486000000001
 20
161.1151659999999
 30
0.0
 40
3.3746379999999991
 50
339.52854600000001
 51
345.58570900000001
  0
ARC
  5
330
  8
0
 62
     7
 10
48.452930000000002
 20
162.14630700000001
 30
0.0
 40
7.3307979999999988
 50
345.21154000000001
 51
359.79965199999992
  0
ARC
  5
331
  8
0
 62
     7
 10
57.908169999999998
 20
157.88246000000001
 30
0.0
 40
3.378623999999999
 50
357.735998
 51
3.7876259999999999
  0
ARC
  5
332
  8
0
 62
     7
 10
53.940042000000012
 20
157.66753600000001
 30
0.0
 40
7.3524380000000003
 50
3.4161160000000002
 51
17.961932000000001
  0
ARC
  5
333
  8
0
 62
     7
 10
54.716813999999999
 20
146.96690799999999
 30
0.0
 40
0.082459
 50
91.973225999999968
 51
178.2742419999999
  0
ARC
  5
334
  8
0
 62
     7
 10
54.717165000000001
 20
145.1321879999999
 30
0.0
 40
0.082822
 50
181.96063499999991
 51
267.79189699999989
  0
ARC
  5
335
  8
0
 62
     7
 10
52.787801999999992
 20
99.945627999999999
 30
0.0
 40
0.104091
 50
92.082305000000005
 51
178.1142199999999
  0
ARC
  5
336
  8
0
 62
     7
 10
51.587789999999998
 20
134.401163
 30
0.0
 40
3.7953579999999998
 50
327.37356299999999
 51
333.16044299999999
  0
ARC
  5
337
  8
0
 62
     7
 10
48.844552999999998
 20
135.790818
 30
0.0
 40
6.8704989999999997
 50
333.14877300000001
 51
344.549691
  0
ARC
  5
338
  8
0
 62
     7
 10
47.225605999999999
 20
136.37183400000001
 30
0.0
 40
8.5866889999999998
 50
343.69071000000002
 51
353.97228699999988
  0
ARC
  5
339
  8
0
 62
     7
 10
51.119036000000001
 20
135.9391249999999
 30
0.0
 40
4.669395999999999
 50
354.23573299999993
 51
2.5842040000000002
  0
ARC
  5
33A
  8
0
 62
     7
 10
58.571218000000002
 20
129.18412900000001
 30
0.0
 40
4.018656
 50
356.90180699999991
 51
10.05617399999999
  0
ARC
  5
33B
  8
0
 62
     7
 10
55.997911000000002
 20
128.8034879999999
 30
0.0
 40
6.6193140000000001
 50
9.4109410000000011
 51
32.446815000000001
  0
ARC
  5
33C
  8
0
 62
     7
 10
154.09646299999989
 20
141.75793599999989
 30
0.0
 40
0.041558
 50
2.1746270000000001
 51
88.317168999999993
  0
ARC
  5
33D
  8
0
 62
     7
 10
154.09642999999991
 20
143.541044
 30
0.0
 40
0.041593
 50
271.72783500000003
 51
357.78036900000001
  0
ARC
  5
33E
  8
0
 62
     7
 10
154.055137
 20
146.96644199999989
 30
0.0
 40
0.082907
 50
2.03912
 51
88.452675999999997
  0
ARC
  5
33F
  8
0
 62
     7
 10
153.71319
 20
142.23499399999989
 30
0.0
 40
0.307959
 50
312.773886
 51
334.58125299999989
  0
ARC
  5
340
  8
0
 62
     7
 10
153.64160999999999
 20
142.2881129999999
 30
0.0
 40
0.395786
 50
332.08283299999988
 51
0.207165
  0
ARC
  5
341
  8
0
 62
     7
 10
153.73844999999989
 20
143.02462099999991
 30
0.0
 40
0.299314
 50
357.15137499999992
 51
18.594982000000002
  0
ARC
  5
342
  8
0
 62
     7
 10
153.6367919999999
 20
143.00859199999991
 30
0.0
 40
0.401146
 50
16.134073000000001
 51
44.618594000000002
  0
ARC
  5
343
  8
0
 62
     7
 10
148.92291099999991
 20
144.63441
 30
0.0
 40
0.4152770000000001
 50
2.0992500000000001
 51
87.97475
  0
ARC
  5
344
  8
0
 62
     7
 10
151.71086399999999
 20
139.71978899999991
 30
0.0
 40
0.7271030000000001
 50
2.094161999999999
 51
87.905828999999997
  0
ARC
  5
345
  8
0
 62
     7
 10
151.76402200000001
 20
139.72012799999999
 30
0.0
 40
0.726765
 50
92.096599999999995
 51
177.93157400000001
  0
ARC
  5
346
  8
0
 62
     7
 10
155.44172499999999
 20
142.64947299999989
 30
0.0
 40
1.636790999999999
 50
172.7721929999999
 51
187.22780700000001
  0
ARC
  5
347
  8
0
 62
     7
 10
157.92048899999989
 20
135.94191699999999
 30
0.0
 40
3.788198
 50
176.856393
 51
182.65420499999999
  0
ARC
  5
348
  8
0
 62
     7
 10
160.98799999999989
 20
136.08288799999991
 30
0.0
 40
6.8589460000000004
 50
182.6439309999999
 51
194.06410199999999
  0
ARC
  5
349
  8
0
 62
     7
 10
162.689457
 20
136.37609299999991
 30
0.0
 40
8.5816219999999994
 50
193.2024569999999
 51
203.49051999999989
  0
ARC
  5
34A
  8
0
 62
     7
 10
159.093087
 20
134.83647899999991
 30
0.0
 40
4.6696609999999987
 50
203.754108
 51
212.10245399999999
  0
ARC
  5
34B
  8
0
 62
     7
 10
153.41721000000001
 20
127.934611
 30
0.0
 40
0.9798319999999998
 50
179.16442900000001
 51
250.96033799999989
  0
ARC
  5
34C
  8
0
 62
     7
 10
151.54720599999999
 20
130.30032800000001
 30
0.0
 40
3.8107009999999999
 50
147.374325
 51
153.1366779999999
  0
ARC
  5
34D
  8
0
 62
     7
 10
154.27939599999999
 20
128.916595
 30
0.0
 40
6.87331
 50
153.13806700000001
 51
164.53350499999991
  0
ARC
  5
34E
  8
0
 62
     7
 10
155.891367
 20
128.33712600000001
 30
0.0
 40
8.5823990000000006
 50
163.67485999999991
 51
173.96060700000001
  0
ARC
  5
34F
  8
0
 62
     7
 10
151.99369300000001
 20
128.770971
 30
0.0
 40
4.6607620000000001
 50
174.223129
 51
182.5851649999999
  0
ARC
  5
350
  8
0
 62
     7
 10
153.07872399999991
 20
122.87391699999991
 30
0.0
 40
1.8151749999999991
 50
336.605299
 51
344.64743099999993
  0
ARC
  5
351
  8
0
 62
     7
 10
151.718694
 20
123.23442799999999
 30
0.0
 40
3.2221449999999998
 50
344.86852399999998
 51
20.095604000000002
  0
ARC
  5
352
  8
0
 62
     7
 10
150.3957659999999
 20
123.621036
 30
0.0
 40
1.814095
 50
156.59938600000001
 51
164.6574169999999
  0
ARC
  5
353
  8
0
 62
     7
 10
151.75395800000001
 20
123.26016899999991
 30
0.0
 40
3.2193839999999989
 50
164.85955799999999
 51
200.11174199999991
  0
ARC
  5
354
  8
0
 62
     7
 10
152.825187
 20
122.9869199999999
 30
0.0
 40
2.1927400000000001
 50
336.675408
 51
354.36320399999988
  0
ARC
  5
355
  8
0
 62
     7
 10
151.56330199999991
 20
123.220463
 30
0.0
 40
3.473157
 50
352.57353299999988
 51
19.426462000000001
  0
ARC
  5
356
  8
0
 62
     7
 10
150.64851399999989
 20
123.507211
 30
0.0
 40
2.191438999999999
 50
156.65447599999999
 51
174.3656629999999
  0
ARC
  5
357
  8
0
 62
     7
 10
151.9065389999999
 20
123.273684
 30
0.0
 40
3.4680230000000001
 50
172.56642400000001
 51
199.45282800000001
  0
ARC
  5
358
  8
0
 62
     7
 10
151.73777699999991
 20
123.247693
 30
0.0
 40
3.9997410000000002
 50
109.880206
 51
199.880256
  0
ARC
  5
359
  8
0
 62
     7
 10
151.73818700000001
 20
123.2471399999999
 30
0.0
 40
3.9999379999999989
 50
199.87081399999991
 51
289.86774800000001
  0
ARC
  5
35A
  8
0
 62
     7
 10
151.73777699999991
 20
123.24700299999991
 30
0.0
 40
3.9999489999999991
 50
289.87392699999992
 51
19.873896999999989
  0
ARC
  5
35B
  8
0
 62
     7
 10
152.85678200000001
 20
123.81587399999999
 30
0.0
 40
2.758535999999999
 50
16.66144899999999
 51
32.49966899999999
  0
ARC
  5
35C
  8
0
 62
     7
 10
151.63782699999999
 20
123.1028899999999
 30
0.0
 40
4.1700229999999996
 50
31.763045000000002
 51
69.509286000000003
  0
ARC
  5
35D
  8
0
 62
     7
 10
157.1334719999999
 20
99.945228
 30
0.0
 40
0.104506
 50
2.0974900000000001
 51
87.705945999999997
  0
ARC
  5
35E
  8
0
 62
     7
 10
150.05794499999999
 20
127.934651
 30
0.0
 40
0.9798889999999998
 50
289.04209400000002
 51
0.8331389999999999
  0
ARC
  5
35F
  8
0
 62
     7
 10
145.14795699999999
 20
134.39852500000001
 30
0.0
 40
3.7883519999999988
 50
327.35310699999991
 51
333.15154699999999
  0
ARC
  5
360
  8
0
 62
     7
 10
142.39849399999991
 20
135.79235800000001
 30
0.0
 40
6.8709350000000002
 50
333.13622199999998
 51
344.53737399999989
  0
ARC
  5
361
  8
0
 62
     7
 10
140.78433000000001
 20
136.37217299999989
 30
0.0
 40
8.5822199999999995
 50
343.679621
 51
353.96686
  0
ARC
  5
362
  8
0
 62
     7
 10
144.67755
 20
135.93922599999991
 30
0.0
 40
4.665108
 50
354.22916400000008
 51
2.585331
  0
ARC
  5
363
  8
0
 62
     7
 10
152.33147699999989
 20
128.766616
 30
0.0
 40
3.8116239999999988
 50
356.90397699999988
 51
2.6644549999999989
  0
ARC
  5
364
  8
0
 62
     7
 10
149.27771799999999
 20
128.624472
 30
0.0
 40
6.8686889999999989
 50
2.664709999999999
 51
14.067245
  0
ARC
  5
365
  8
0
 62
     7
 10
147.58986299999989
 20
128.334326
 30
0.0
 40
8.5774179999999998
 50
13.20680999999999
 51
23.498785999999988
  0
ARC
  5
366
  8
0
 62
     7
 10
151.18926499999989
 20
129.875799
 30
0.0
 40
4.6619380000000001
 50
23.763663999999991
 51
32.124853000000002
  0
ARC
  5
367
  8
0
 62
     7
 10
146.34150199999999
 20
99.945820999999995
 30
0.0
 40
0.103904
 50
92.176067000000003
 51
178.2176879999999
  0
ARC
  5
368
  8
0
 62
     7
 10
108.27153199999999
 20
146.96616900000001
 30
0.0
 40
0.083199
 50
91.973588000000007
 51
177.7799489999999
  0
ARC
  5
369
  8
0
 62
     7
 10
108.27134699999991
 20
145.1323909999999
 30
0.0
 40
0.083007
 50
182.09672800000001
 51
268.14973399999991
  0
ARC
  5
36A
  8
0
 62
     7
 10
108.39281800000001
 20
149.8109649999999
 30
0.0
 40
0.161793
 50
193.12208200000001
 51
269.58911699999987
  0
ARC
  5
36B
  8
0
 62
     7
 10
108.39272800000001
 20
151.48751100000001
 30
0.0
 40
0.161731
 50
90.379366000000005
 51
166.83240799999999
  0
ARC
  5
36C
  8
0
 62
     7
 10
110.20945500000001
 20
150.9788649999999
 30
0.0
 40
2.048181
 50
164.55410499999999
 51
172.19772399999999
  0
ARC
  5
36D
  8
0
 62
     7
 10
112.307509
 20
150.66769500000001
 30
0.0
 40
4.1691219999999989
 50
171.875182
 51
192.37473499999999
  0
ARC
  5
36E
  8
0
 62
     7
 10
112.101417
 20
158.76763399999999
 30
0.0
 40
3.324392
 50
159.44371000000001
 51
165.593997
  0
ARC
  5
36F
  8
0
 62
     7
 10
115.957803
 20
157.7246989999999
 30
0.0
 40
7.3191709999999999
 50
165.197046
 51
179.8098169999999
  0
ARC
  5
370
  8
0
 62
     7
 10
111.46516099999999
 20
157.88366499999989
 30
0.0
 40
3.3760309999999989
 50
357.71379899999999
 51
3.7700519999999988
  0
ARC
  5
371
  8
0
 62
     7
 10
107.50639099999989
 20
157.66930500000001
 30
0.0
 40
7.3404759999999989
 50
3.4078549999999992
 51
17.977682999999988
  0
ARC
  5
372
  8
0
 62
     7
 10
105.855571
 20
161.1072189999999
 30
0.0
 40
3.3452599999999988
 50
339.48598500000003
 51
345.59691800000002
  0
ARC
  5
373
  8
0
 62
     7
 10
101.9966509999999
 20
162.14872700000001
 30
0.0
 40
7.3421229999999991
 50
345.21533499999993
 51
359.78107199999999
  0
ARC
  5
374
  8
0
 62
     7
 10
117.481962
 20
161.98445000000001
 30
0.0
 40
3.346279
 50
177.6668919999999
 51
183.77576199999999
  0
ARC
  5
375
  8
0
 62
     7
 10
121.46059199999991
 20
162.199186
 30
0.0
 40
7.3305679999999986
 50
183.40271599999991
 51
197.991782
  0
ARC
  5
376
  8
0
 62
     7
 10
131.7380939999999
 20
177.1504239999999
 30
0.0
 40
17.899539999999991
 50
359.99973399999988
 51
89.999703999999994
  0
ARC
  5
377
  8
0
 62
     7
 10
131.73827299999999
 20
177.1504239999999
 30
0.0
 40
17.899539999999991
 50
90.000276000000014
 51
180.00028599999999
  0
ARC
  5
378
  8
0
 62
     7
 10
131.73817999999989
 20
177.15033700000001
 30
0.0
 40
22.099398000000001
 50
0.00001
 51
89.999980000000008
  0
ARC
  5
379
  8
0
 62
     7
 10
131.73784299999991
 20
177.14999299999999
 30
0.0
 40
22.099741999999999
 50
89.999106999999995
 51
179.99907699999989
  0
LINE
  5
37A
  8
0
 62
     7
 10
59.718699999999998
 20
252.88200000000001
 30
0.0
 11
59.662199999999991
 21
252.89699999999999
 31
0.0
  0
LINE
  5
37B
  8
0
 62
     7
 10
59.662199999999991
 20
252.89699999999999
 30
0.0
 11
59.60779999999999
 21
252.91399999999999
 31
0.0
  0
LINE
  5
37C
  8
0
 62
     7
 10
60.116599999999998
 20
252.80099999999999
 30
0.0
 11
60.093499999999999
 21
252.804
 31
0.0
  0
LINE
  5
37D
  8
0
 62
     7
 10
60.093499999999999
 20
252.804
 30
0.0
 11
60.026699999999998
 21
252.815
 31
0.0
  0
LINE
  5
37E
  8
0
 62
     7
 10
60.026699999999998
 20
252.815
 30
0.0
 11
59.9619
 21
252.827
 31
0.0
  0
LINE
  5
37F
  8
0
 62
     7
 10
59.9619
 20
252.827
 30
0.0
 11
59.89889999999999
 21
252.83999999999989
 31
0.0
  0
LINE
  5
380
  8
0
 62
     7
 10
59.89889999999999
 20
252.83999999999989
 30
0.0
 11
59.837200000000003
 21
252.85299999999989
 31
0.0
  0
LINE
  5
381
  8
0
 62
     7
 10
59.837200000000003
 20
252.85299999999989
 30
0.0
 11
59.777599999999993
 21
252.86699999999999
 31
0.0
  0
LINE
  5
382
  8
0
 62
     7
 10
59.777599999999993
 20
252.86699999999999
 30
0.0
 11
59.718699999999998
 21
252.88200000000001
 31
0.0
  0
LINE
  5
383
  8
0
 62
     7
 10
60.161000000000001
 20
252.79400000000001
 30
0.0
 11
60.116599999999998
 21
252.80099999999999
 31
0.0
  0
LINE
  5
384
  8
0
 62
     7
 10
60.1569
 20
252.79499999999999
 30
0.0
 11
60.153799999999997
 21
252.79599999999991
 31
0.0
  0
LINE
  5
385
  8
0
 62
     7
 10
60.761200000000002
 20
252.74600000000001
 30
0.0
 11
60.67540000000001
 21
252.749
 31
0.0
  0
LINE
  5
386
  8
0
 62
     7
 10
60.67540000000001
 20
252.749
 30
0.0
 11
60.597900000000003
 21
252.75299999999999
 31
0.0
  0
LINE
  5
387
  8
0
 62
     7
 10
60.597900000000003
 20
252.75299999999999
 30
0.0
 11
60.521799999999992
 21
252.75700000000001
 31
0.0
  0
LINE
  5
388
  8
0
 62
     7
 10
60.521799999999992
 20
252.75700000000001
 30
0.0
 11
60.44769999999999
 21
252.76300000000001
 31
0.0
  0
LINE
  5
389
  8
0
 62
     7
 10
60.44769999999999
 20
252.76300000000001
 30
0.0
 11
60.3733
 21
252.77000000000001
 31
0.0
  0
LINE
  5
38A
  8
0
 62
     7
 10
60.3733
 20
252.77000000000001
 30
0.0
 11
60.301600000000001
 21
252.77699999999999
 31
0.0
  0
LINE
  5
38B
  8
0
 62
     7
 10
60.301600000000001
 20
252.77699999999999
 30
0.0
 11
60.230600000000003
 21
252.78499999999991
 31
0.0
  0
LINE
  5
38C
  8
0
 62
     7
 10
60.230600000000003
 20
252.78499999999991
 30
0.0
 11
60.161000000000001
 21
252.79400000000001
 31
0.0
  0
LINE
  5
38D
  8
0
 62
     7
 10
60.768799999999999
 20
252.74499999999989
 30
0.0
 11
60.759500000000003
 21
252.74600000000001
 31
0.0
  0
LINE
  5
38E
  8
0
 62
     7
 10
61.96629999999999
 20
252.749
 30
0.0
 11
68.778099999999995
 21
252.749
 31
0.0
  0
LINE
  5
38F
  8
0
 62
     7
 10
72.183300000000003
 20
252.04900000000001
 30
0.0
 11
72.178100000000001
 21
252.04900000000001
 31
0.0
  0
LINE
  5
390
  8
0
 62
     7
 10
72.178100000000001
 20
251.84999999999991
 30
0.0
 11
72.183300000000003
 21
251.84999999999991
 31
0.0
  0
LINE
  5
391
  8
0
 62
     7
 10
72.178100000000001
 20
251.75599999999989
 30
0.0
 11
72.183300000000003
 21
251.75599999999989
 31
0.0
  0
LINE
  5
392
  8
0
 62
     7
 10
59.557099999999991
 20
252.929
 30
0.0
 11
59.551299999999998
 21
252.9309999999999
 31
0.0
  0
LINE
  5
393
  8
0
 62
     7
 10
59.60779999999999
 20
252.91399999999999
 30
0.0
 11
59.557099999999991
 21
252.929
 31
0.0
  0
LINE
  5
394
  8
0
 62
     7
 10
71.977999999999994
 20
249.44900000000001
 30
0.0
 11
71.077799999999996
 21
249.44900000000001
 31
0.0
  0
LINE
  5
395
  8
0
 62
     7
 10
71.977999999999994
 20
248.04900000000001
 30
0.0
 11
71.077799999999996
 21
248.04900000000001
 31
0.0
  0
LINE
  5
396
  8
0
 62
     7
 10
72.178100000000001
 20
245.74199999999999
 30
0.0
 11
72.183300000000003
 21
245.74199999999999
 31
0.0
  0
LINE
  5
397
  8
0
 62
     7
 10
72.178100000000001
 20
245.64799999999991
 30
0.0
 11
72.183300000000003
 21
245.64799999999991
 31
0.0
  0
LINE
  5
398
  8
0
 62
     7
 10
72.178100000000001
 20
245.44900000000001
 30
0.0
 11
72.183300000000003
 21
245.44900000000001
 31
0.0
  0
LINE
  5
399
  8
0
 62
     7
 10
61.96629999999999
 20
244.749
 30
0.0
 11
68.778099999999995
 21
244.749
 31
0.0
  0
LINE
  5
39A
  8
0
 62
     7
 10
72.183300000000003
 20
251.75599999999989
 30
0.0
 11
72.183300000000003
 21
252.04900000000001
 31
0.0
  0
LINE
  5
39B
  8
0
 62
     7
 10
72.183300000000003
 20
245.74199999999999
 30
0.0
 11
72.183300000000003
 21
245.44900000000001
 31
0.0
  0
LINE
  5
39C
  8
0
 62
     7
 10
72.178100000000001
 20
252.54900000000001
 30
0.0
 11
72.178100000000001
 21
244.94900000000001
 31
0.0
  0
LINE
  5
39D
  8
0
 62
     7
 10
71.977999999999994
 20
252.749
 30
0.0
 11
71.977999999999994
 21
252.749
 31
0.0
  0
LINE
  5
39E
  8
0
 62
     7
 10
71.977999999999994
 20
244.749
 30
0.0
 11
71.977999999999994
 21
244.749
 31
0.0
  0
LINE
  5
39F
  8
0
 62
     7
 10
60.2834
 20
248.749
 30
0.0
 11
60.2834
 21
208.74999999999989
 31
0.0
  0
LINE
  5
3A0
  8
0
 62
     7
 10
59.183
 20
205.40299999999999
 30
0.0
 11
59.183
 21
205.81599999999989
 31
0.0
  0
LINE
  5
3A1
  8
0
 62
     7
 10
57.183100000000003
 20
205.40299999999999
 30
0.0
 11
57.183100000000003
 21
205.81599999999989
 31
0.0
  0
LINE
  5
3A2
  8
0
 62
     7
 10
56.083399999999997
 20
248.749
 30
0.0
 11
56.083399999999997
 21
208.74999999999989
 31
0.0
  0
LINE
  5
3A3
  8
0
 62
     7
 10
69.718100000000007
 20
127.30500000000001
 30
0.0
 11
69.694699999999997
 21
127.297
 31
0.0
  0
LINE
  5
3A4
  8
0
 62
     7
 10
69.694699999999997
 20
127.297
 30
0.0
 11
69.671300000000002
 21
127.289
 31
0.0
  0
LINE
  5
3A5
  8
0
 62
     7
 10
69.671300000000002
 20
127.289
 30
0.0
 11
69.648200000000003
 21
127.282
 31
0.0
  0
LINE
  5
3A6
  8
0
 62
     7
 10
70.017499999999998
 20
127.4729999999999
 30
0.0
 11
69.998199999999997
 21
127.458
 31
0.0
  0
LINE
  5
3A7
  8
0
 62
     7
 10
69.998199999999997
 20
127.458
 30
0.0
 11
69.9786
 21
127.444
 31
0.0
  0
LINE
  5
3A8
  8
0
 62
     7
 10
69.9786
 20
127.444
 30
0.0
 11
69.958299999999994
 21
127.429
 31
0.0
  0
LINE
  5
3A9
  8
0
 62
     7
 10
69.958299999999994
 20
127.429
 30
0.0
 11
69.937899999999999
 21
127.41500000000001
 31
0.0
  0
LINE
  5
3AA
  8
0
 62
     7
 10
69.937899999999999
 20
127.41500000000001
 30
0.0
 11
69.917599999999993
 21
127.401
 31
0.0
  0
LINE
  5
3AB
  8
0
 62
     7
 10
69.917599999999993
 20
127.401
 30
0.0
 11
69.896299999999997
 21
127.38799999999991
 31
0.0
  0
LINE
  5
3AC
  8
0
 62
     7
 10
69.896299999999997
 20
127.38799999999991
 30
0.0
 11
69.875600000000006
 21
127.376
 31
0.0
  0
LINE
  5
3AD
  8
0
 62
     7
 10
69.875600000000006
 20
127.376
 30
0.0
 11
69.853499999999997
 21
127.3639999999999
 31
0.0
  0
LINE
  5
3AE
  8
0
 62
     7
 10
69.853499999999997
 20
127.3639999999999
 30
0.0
 11
69.831500000000005
 21
127.35299999999999
 31
0.0
  0
LINE
  5
3AF
  8
0
 62
     7
 10
69.831500000000005
 20
127.35299999999999
 30
0.0
 11
69.809399999999997
 21
127.342
 31
0.0
  0
LINE
  5
3B0
  8
0
 62
     7
 10
69.809399999999997
 20
127.342
 30
0.0
 11
69.787400000000005
 21
127.33199999999999
 31
0.0
  0
LINE
  5
3B1
  8
0
 62
     7
 10
69.787400000000005
 20
127.33199999999999
 30
0.0
 11
69.764700000000005
 21
127.322
 31
0.0
  0
LINE
  5
3B2
  8
0
 62
     7
 10
69.764700000000005
 20
127.322
 30
0.0
 11
69.741200000000006
 21
127.3129999999999
 31
0.0
  0
LINE
  5
3B3
  8
0
 62
     7
 10
69.741200000000006
 20
127.3129999999999
 30
0.0
 11
69.718100000000007
 21
127.30500000000001
 31
0.0
  0
LINE
  5
3B4
  8
0
 62
     7
 10
70.036100000000005
 20
127.4889999999999
 30
0.0
 11
70.017499999999998
 21
127.4729999999999
 31
0.0
  0
LINE
  5
3B5
  8
0
 62
     7
 10
70.049199999999999
 20
127.50099999999991
 30
0.0
 11
70.036100000000005
 21
127.4889999999999
 31
0.0
  0
LINE
  5
3B6
  8
0
 62
     7
 10
70.054699999999997
 20
127.506
 30
0.0
 11
70.046499999999995
 21
127.498
 31
0.0
  0
LINE
  5
3B7
  8
0
 62
     7
 10
60.283700000000003
 20
169.22900000000001
 30
0.0
 11
56.083799999999997
 21
169.22900000000001
 31
0.0
  0
LINE
  5
3B8
  8
0
 62
     7
 10
56.104100000000003
 20
169.209
 30
0.0
 11
60.2637
 21
169.209
 31
0.0
  0
LINE
  5
3B9
  8
0
 62
     7
 10
60.283700000000003
 20
169.18899999999999
 30
0.0
 11
56.083799999999997
 21
169.18899999999999
 31
0.0
  0
LINE
  5
3BA
  8
0
 62
     7
 10
55.783700000000003
 20
165.34899999999999
 30
0.0
 11
60.583799999999989
 21
165.34899999999999
 31
0.0
  0
LINE
  5
3BB
  8
0
 62
     7
 10
60.283700000000003
 20
169.18899999999999
 30
0.0
 11
60.2637
 21
169.209
 31
0.0
  0
LINE
  5
3BC
  8
0
 62
     7
 10
70.353800000000007
 20
128.00599999999989
 30
0.0
 11
70.3476
 21
127.982
 31
0.0
  0
LINE
  5
3BD
  8
0
 62
     7
 10
70.3476
 20
127.982
 30
0.0
 11
70.341399999999993
 21
127.959
 31
0.0
  0
LINE
  5
3BE
  8
0
 62
     7
 10
70.341399999999993
 20
127.959
 30
0.0
 11
70.334100000000007
 21
127.9349999999999
 31
0.0
  0
LINE
  5
3BF
  8
0
 62
     7
 10
70.334100000000007
 20
127.9349999999999
 30
0.0
 11
70.325199999999995
 21
127.91200000000001
 31
0.0
  0
LINE
  5
3C0
  8
0
 62
     7
 10
70.325199999999995
 20
127.91200000000001
 30
0.0
 11
70.317300000000003
 21
127.889
 31
0.0
  0
LINE
  5
3C1
  8
0
 62
     7
 10
70.317300000000003
 20
127.889
 30
0.0
 11
70.308000000000007
 21
127.866
 31
0.0
  0
LINE
  5
3C2
  8
0
 62
     7
 10
70.308000000000007
 20
127.866
 30
0.0
 11
70.298699999999997
 21
127.8429999999999
 31
0.0
  0
LINE
  5
3C3
  8
0
 62
     7
 10
70.298699999999997
 20
127.8429999999999
 30
0.0
 11
70.288300000000007
 21
127.821
 31
0.0
  0
LINE
  5
3C4
  8
0
 62
     7
 10
70.288300000000007
 20
127.821
 30
0.0
 11
70.277299999999997
 21
127.79899999999989
 31
0.0
  0
LINE
  5
3C5
  8
0
 62
     7
 10
70.277299999999997
 20
127.79899999999989
 30
0.0
 11
70.265600000000006
 21
127.777
 31
0.0
  0
LINE
  5
3C6
  8
0
 62
     7
 10
70.265600000000006
 20
127.777
 30
0.0
 11
70.253900000000002
 21
127.7549999999999
 31
0.0
  0
LINE
  5
3C7
  8
0
 62
     7
 10
70.253900000000002
 20
127.7549999999999
 30
0.0
 11
70.241500000000002
 21
127.7339999999999
 31
0.0
  0
LINE
  5
3C8
  8
0
 62
     7
 10
70.241500000000002
 20
127.7339999999999
 30
0.0
 11
70.229100000000003
 21
127.71299999999989
 31
0.0
  0
LINE
  5
3C9
  8
0
 62
     7
 10
70.229100000000003
 20
127.71299999999989
 30
0.0
 11
70.216000000000008
 21
127.69199999999999
 31
0.0
  0
LINE
  5
3CA
  8
0
 62
     7
 10
70.216000000000008
 20
127.69199999999999
 30
0.0
 11
70.201800000000006
 21
127.672
 31
0.0
  0
LINE
  5
3CB
  8
0
 62
     7
 10
70.201800000000006
 20
127.672
 30
0.0
 11
70.186999999999983
 21
127.652
 31
0.0
  0
LINE
  5
3CC
  8
0
 62
     7
 10
70.186999999999983
 20
127.652
 30
0.0
 11
70.172200000000004
 21
127.63200000000001
 31
0.0
  0
LINE
  5
3CD
  8
0
 62
     7
 10
70.172200000000004
 20
127.63200000000001
 30
0.0
 11
70.156400000000005
 21
127.6129999999999
 31
0.0
  0
LINE
  5
3CE
  8
0
 62
     7
 10
70.156400000000005
 20
127.6129999999999
 30
0.0
 11
70.140900000000002
 21
127.59399999999999
 31
0.0
  0
LINE
  5
3CF
  8
0
 62
     7
 10
70.140900000000002
 20
127.59399999999999
 30
0.0
 11
70.124300000000005
 21
127.57599999999999
 31
0.0
  0
LINE
  5
3D0
  8
0
 62
     7
 10
70.124300000000005
 20
127.57599999999999
 30
0.0
 11
70.107399999999998
 21
127.55799999999989
 31
0.0
  0
LINE
  5
3D1
  8
0
 62
     7
 10
70.107399999999998
 20
127.55799999999989
 30
0.0
 11
70.090599999999995
 21
127.54000000000001
 31
0.0
  0
LINE
  5
3D2
  8
0
 62
     7
 10
70.090599999999995
 20
127.54000000000001
 30
0.0
 11
70.072699999999998
 21
127.52200000000001
 31
0.0
  0
LINE
  5
3D3
  8
0
 62
     7
 10
70.072699999999998
 20
127.52200000000001
 30
0.0
 11
70.054699999999997
 21
127.506
 31
0.0
  0
LINE
  5
3D4
  8
0
 62
     7
 10
56.104100000000003
 20
169.209
 30
0.0
 11
56.083799999999997
 21
169.22900000000001
 31
0.0
  0
LINE
  5
3D5
  8
0
 62
     7
 10
70.383399999999995
 20
128.24700000000001
 30
0.0
 11
70.383399999999995
 21
128.22599999999991
 31
0.0
  0
LINE
  5
3D6
  8
0
 62
     7
 10
70.383399999999995
 20
128.22599999999991
 30
0.0
 11
70.382400000000004
 21
128.20099999999991
 31
0.0
  0
LINE
  5
3D7
  8
0
 62
     7
 10
70.382400000000004
 20
128.20099999999991
 30
0.0
 11
70.381
 21
128.17699999999999
 31
0.0
  0
LINE
  5
3D8
  8
0
 62
     7
 10
70.381
 20
128.17699999999999
 30
0.0
 11
70.378600000000006
 21
128.15199999999999
 31
0.0
  0
LINE
  5
3D9
  8
0
 62
     7
 10
70.378600000000006
 20
128.15199999999999
 30
0.0
 11
70.376499999999993
 21
128.12700000000001
 31
0.0
  0
LINE
  5
3DA
  8
0
 62
     7
 10
70.376499999999993
 20
128.12700000000001
 30
0.0
 11
70.373400000000004
 21
128.10299999999989
 31
0.0
  0
LINE
  5
3DB
  8
0
 62
     7
 10
70.373400000000004
 20
128.10299999999989
 30
0.0
 11
70.368899999999996
 21
128.07900000000001
 31
0.0
  0
LINE
  5
3DC
  8
0
 62
     7
 10
70.368899999999996
 20
128.07900000000001
 30
0.0
 11
70.364800000000002
 21
128.054
 31
0.0
  0
LINE
  5
3DD
  8
0
 62
     7
 10
70.364800000000002
 20
128.054
 30
0.0
 11
70.359300000000005
 21
128.02999999999989
 31
0.0
  0
LINE
  5
3DE
  8
0
 62
     7
 10
70.359300000000005
 20
128.02999999999989
 30
0.0
 11
70.353800000000007
 21
128.00599999999989
 31
0.0
  0
LINE
  5
3DF
  8
0
 62
     7
 10
68.783799999999985
 20
127.247
 30
0.0
 11
68.783799999999985
 21
119.247
 31
0.0
  0
LINE
  5
3E0
  8
0
 62
     7
 10
69.183800000000005
 20
127.247
 30
0.0
 11
69.183800000000005
 21
119.247
 31
0.0
  0
LINE
  5
3E1
  8
0
 62
     7
 10
72.183800000000005
 20
140.24700000000001
 30
0.0
 11
72.183800000000005
 21
119.447
 31
0.0
  0
LINE
  5
3E2
  8
0
 62
     7
 10
70.383399999999995
 20
139.54699999999991
 30
0.0
 11
70.383399999999995
 21
128.24700000000001
 31
0.0
  0
LINE
  5
3E3
  8
0
 62
     7
 10
62.583999999999989
 20
117.5589999999999
 30
0.0
 11
62.585700000000003
 21
117.59699999999999
 31
0.0
  0
LINE
  5
3E4
  8
0
 62
     7
 10
62.585700000000003
 20
117.59699999999999
 30
0.0
 11
62.5871
 21
117.63500000000001
 31
0.0
  0
LINE
  5
3E5
  8
0
 62
     7
 10
62.5871
 20
117.63500000000001
 30
0.0
 11
62.5899
 21
117.6729999999999
 31
0.0
  0
LINE
  5
3E6
  8
0
 62
     7
 10
62.5899
 20
117.6729999999999
 30
0.0
 11
62.593299999999999
 21
117.70999999999999
 31
0.0
  0
LINE
  5
3E7
  8
0
 62
     7
 10
62.593299999999999
 20
117.70999999999999
 30
0.0
 11
62.598100000000002
 21
117.74799999999991
 31
0.0
  0
LINE
  5
3E8
  8
0
 62
     7
 10
62.598100000000002
 20
117.74799999999991
 30
0.0
 11
62.602899999999998
 21
117.785
 31
0.0
  0
LINE
  5
3E9
  8
0
 62
     7
 10
62.602899999999998
 20
117.785
 30
0.0
 11
62.609799999999993
 21
117.822
 31
0.0
  0
LINE
  5
3EA
  8
0
 62
     7
 10
62.609799999999993
 20
117.822
 30
0.0
 11
62.616700000000002
 21
117.85899999999999
 31
0.0
  0
LINE
  5
3EB
  8
0
 62
     7
 10
62.616700000000002
 20
117.85899999999999
 30
0.0
 11
62.62360000000001
 21
117.896
 31
0.0
  0
LINE
  5
3EC
  8
0
 62
     7
 10
62.62360000000001
 20
117.896
 30
0.0
 11
62.632899999999999
 21
117.934
 31
0.0
  0
LINE
  5
3ED
  8
0
 62
     7
 10
62.632899999999999
 20
117.934
 30
0.0
 11
62.6419
 21
117.96899999999989
 31
0.0
  0
LINE
  5
3EE
  8
0
 62
     7
 10
62.6419
 20
117.96899999999989
 30
0.0
 11
62.651899999999998
 21
118.006
 31
0.0
  0
LINE
  5
3EF
  8
0
 62
     7
 10
62.651899999999998
 20
118.006
 30
0.0
 11
62.663200000000003
 21
118.04299999999991
 31
0.0
  0
LINE
  5
3F0
  8
0
 62
     7
 10
62.663200000000003
 20
118.04299999999991
 30
0.0
 11
62.674599999999991
 21
118.07899999999999
 31
0.0
  0
LINE
  5
3F1
  8
0
 62
     7
 10
62.674599999999991
 20
118.07899999999999
 30
0.0
 11
62.686999999999991
 21
118.1139999999999
 31
0.0
  0
LINE
  5
3F2
  8
0
 62
     7
 10
62.686999999999991
 20
118.1139999999999
 30
0.0
 11
62.700400000000002
 21
118.14999999999991
 31
0.0
  0
LINE
  5
3F3
  8
0
 62
     7
 10
62.700400000000002
 20
118.14999999999991
 30
0.0
 11
62.714599999999997
 21
118.184
 31
0.0
  0
LINE
  5
3F4
  8
0
 62
     7
 10
62.714599999999997
 20
118.184
 30
0.0
 11
62.729700000000001
 21
118.21899999999999
 31
0.0
  0
LINE
  5
3F5
  8
0
 62
     7
 10
62.729700000000001
 20
118.21899999999999
 30
0.0
 11
62.744900000000001
 21
118.25399999999991
 31
0.0
  0
LINE
  5
3F6
  8
0
 62
     7
 10
62.744900000000001
 20
118.25399999999991
 30
0.0
 11
62.761400000000002
 21
118.2879999999999
 31
0.0
  0
LINE
  5
3F7
  8
0
 62
     7
 10
62.761400000000002
 20
118.2879999999999
 30
0.0
 11
62.778300000000002
 21
118.322
 31
0.0
  0
LINE
  5
3F8
  8
0
 62
     7
 10
62.778300000000002
 20
118.322
 30
0.0
 11
62.796199999999999
 21
118.355
 31
0.0
  0
LINE
  5
3F9
  8
0
 62
     7
 10
62.796199999999999
 20
118.355
 30
0.0
 11
62.814799999999998
 21
118.38800000000001
 31
0.0
  0
LINE
  5
3FA
  8
0
 62
     7
 10
62.814799999999998
 20
118.38800000000001
 30
0.0
 11
62.833799999999997
 21
118.42
 31
0.0
  0
LINE
  5
3FB
  8
0
 62
     7
 10
62.833799999999997
 20
118.42
 30
0.0
 11
62.854399999999998
 21
118.452
 31
0.0
  0
LINE
  5
3FC
  8
0
 62
     7
 10
62.854399999999998
 20
118.452
 30
0.0
 11
62.8748
 21
118.4839999999999
 31
0.0
  0
LINE
  5
3FD
  8
0
 62
     7
 10
62.8748
 20
118.4839999999999
 30
0.0
 11
62.896500000000003
 21
118.5149999999999
 31
0.0
  0
LINE
  5
3FE
  8
0
 62
     7
 10
62.896500000000003
 20
118.5149999999999
 30
0.0
 11
62.918199999999999
 21
118.54600000000001
 31
0.0
  0
LINE
  5
3FF
  8
0
 62
     7
 10
62.918199999999999
 20
118.54600000000001
 30
0.0
 11
62.941299999999998
 21
118.57599999999999
 31
0.0
  0
LINE
  5
400
  8
0
 62
     7
 10
62.941299999999998
 20
118.57599999999999
 30
0.0
 11
62.964300000000001
 21
118.60599999999999
 31
0.0
  0
LINE
  5
401
  8
0
 62
     7
 10
62.964300000000001
 20
118.60599999999999
 30
0.0
 11
62.988500000000002
 21
118.63500000000001
 31
0.0
  0
LINE
  5
402
  8
0
 62
     7
 10
62.988500000000002
 20
118.63500000000001
 30
0.0
 11
63.012900000000002
 21
118.664
 31
0.0
  0
LINE
  5
403
  8
0
 62
     7
 10
63.012900000000002
 20
118.664
 30
0.0
 11
63.038400000000003
 21
118.69199999999999
 31
0.0
  0
LINE
  5
404
  8
0
 62
     7
 10
63.038400000000003
 20
118.69199999999999
 30
0.0
 11
63.064599999999999
 21
118.71899999999989
 31
0.0
  0
LINE
  5
405
  8
0
 62
     7
 10
63.064599999999999
 20
118.71899999999989
 30
0.0
 11
63.090800000000002
 21
118.747
 31
0.0
  0
LINE
  5
406
  8
0
 62
     7
 10
63.090800000000002
 20
118.747
 30
0.0
 11
63.118000000000002
 21
118.77200000000001
 31
0.0
  0
LINE
  5
407
  8
0
 62
     7
 10
63.118000000000002
 20
118.77200000000001
 30
0.0
 11
63.14589999999999
 21
118.7979999999999
 31
0.0
  0
LINE
  5
408
  8
0
 62
     7
 10
63.14589999999999
 20
118.7979999999999
 30
0.0
 11
63.174100000000003
 21
118.82299999999989
 31
0.0
  0
LINE
  5
409
  8
0
 62
     7
 10
63.174100000000003
 20
118.82299999999989
 30
0.0
 11
63.202399999999997
 21
118.8479999999999
 31
0.0
  0
LINE
  5
40A
  8
0
 62
     7
 10
63.202399999999997
 20
118.8479999999999
 30
0.0
 11
63.232399999999998
 21
118.871
 31
0.0
  0
LINE
  5
40B
  8
0
 62
     7
 10
63.232399999999998
 20
118.871
 30
0.0
 11
63.262300000000003
 21
118.8949999999999
 31
0.0
  0
LINE
  5
40C
  8
0
 62
     7
 10
63.262300000000003
 20
118.8949999999999
 30
0.0
 11
63.29229999999999
 21
118.91799999999991
 31
0.0
  0
LINE
  5
40D
  8
0
 62
     7
 10
63.29229999999999
 20
118.91799999999991
 30
0.0
 11
63.323300000000003
 21
118.94
 31
0.0
  0
LINE
  5
40E
  8
0
 62
     7
 10
63.323300000000003
 20
118.94
 30
0.0
 11
63.354300000000002
 21
118.961
 31
0.0
  0
LINE
  5
40F
  8
0
 62
     7
 10
63.354300000000002
 20
118.961
 30
0.0
 11
63.386400000000002
 21
118.982
 31
0.0
  0
LINE
  5
410
  8
0
 62
     7
 10
63.386400000000002
 20
118.982
 30
0.0
 11
63.41879999999999
 21
119.001
 31
0.0
  0
LINE
  5
411
  8
0
 62
     7
 10
63.41879999999999
 20
119.001
 30
0.0
 11
63.451099999999997
 21
119.0209999999999
 31
0.0
  0
LINE
  5
412
  8
0
 62
     7
 10
63.451099999999997
 20
119.0209999999999
 30
0.0
 11
63.484900000000003
 21
119.038
 31
0.0
  0
LINE
  5
413
  8
0
 62
     7
 10
63.484900000000003
 20
119.038
 30
0.0
 11
63.517600000000002
 21
119.056
 31
0.0
  0
LINE
  5
414
  8
0
 62
     7
 10
63.517600000000002
 20
119.056
 30
0.0
 11
63.551699999999997
 21
119.0739999999999
 31
0.0
  0
LINE
  5
415
  8
0
 62
     7
 10
63.551699999999997
 20
119.0739999999999
 30
0.0
 11
63.585799999999992
 21
119.089
 31
0.0
  0
LINE
  5
416
  8
0
 62
     7
 10
63.585799999999992
 20
119.089
 30
0.0
 11
63.620600000000003
 21
119.105
 31
0.0
  0
LINE
  5
417
  8
0
 62
     7
 10
63.620600000000003
 20
119.105
 30
0.0
 11
63.6554
 21
119.12
 31
0.0
  0
LINE
  5
418
  8
0
 62
     7
 10
63.6554
 20
119.12
 30
0.0
 11
63.69019999999999
 21
119.134
 31
0.0
  0
LINE
  5
419
  8
0
 62
     7
 10
63.69019999999999
 20
119.134
 30
0.0
 11
63.7254
 21
119.1459999999999
 31
0.0
  0
LINE
  5
41A
  8
0
 62
     7
 10
63.7254
 20
119.1459999999999
 30
0.0
 11
63.761899999999997
 21
119.15899999999991
 31
0.0
  0
LINE
  5
41B
  8
0
 62
     7
 10
63.761899999999997
 20
119.15899999999991
 30
0.0
 11
63.797400000000003
 21
119.1699999999999
 31
0.0
  0
LINE
  5
41C
  8
0
 62
     7
 10
63.797400000000003
 20
119.1699999999999
 30
0.0
 11
63.833500000000001
 21
119.181
 31
0.0
  0
LINE
  5
41D
  8
0
 62
     7
 10
63.833500000000001
 20
119.181
 30
0.0
 11
63.870399999999989
 21
119.191
 31
0.0
  0
LINE
  5
41E
  8
0
 62
     7
 10
63.870399999999989
 20
119.191
 30
0.0
 11
63.9069
 21
119.1999999999999
 31
0.0
  0
LINE
  5
41F
  8
0
 62
     7
 10
63.9069
 20
119.1999999999999
 30
0.0
 11
63.943800000000003
 21
119.209
 31
0.0
  0
LINE
  5
420
  8
0
 62
     7
 10
63.943800000000003
 20
119.209
 30
0.0
 11
63.981000000000002
 21
119.21599999999999
 31
0.0
  0
LINE
  5
421
  8
0
 62
     7
 10
63.981000000000002
 20
119.21599999999999
 30
0.0
 11
64.018199999999993
 21
119.223
 31
0.0
  0
LINE
  5
422
  8
0
 62
     7
 10
64.018199999999993
 20
119.223
 30
0.0
 11
64.055400000000006
 21
119.22799999999999
 31
0.0
  0
LINE
  5
423
  8
0
 62
     7
 10
64.055400000000006
 20
119.22799999999999
 30
0.0
 11
64.092600000000004
 21
119.2339999999999
 31
0.0
  0
LINE
  5
424
  8
0
 62
     7
 10
64.092600000000004
 20
119.2339999999999
 30
0.0
 11
64.130200000000002
 21
119.2379999999999
 31
0.0
  0
LINE
  5
425
  8
0
 62
     7
 10
64.130200000000002
 20
119.2379999999999
 30
0.0
 11
64.168099999999995
 21
119.2409999999999
 31
0.0
  0
LINE
  5
426
  8
0
 62
     7
 10
64.168099999999995
 20
119.2409999999999
 30
0.0
 11
64.204899999999995
 21
119.2439999999999
 31
0.0
  0
LINE
  5
427
  8
0
 62
     7
 10
64.204899999999995
 20
119.2439999999999
 30
0.0
 11
64.242800000000003
 21
119.245
 31
0.0
  0
LINE
  5
428
  8
0
 62
     7
 10
62.583999999999989
 20
117.527
 30
0.0
 11
62.583999999999989
 21
117.5589999999999
 31
0.0
  0
LINE
  5
429
  8
0
 62
     7
 10
63.683700000000002
 20
99.949100000000001
 30
0.0
 11
63.683700000000002
 21
99.049199999999999
 31
0.0
  0
LINE
  5
42A
  8
0
 62
     7
 10
54.713999999999999
 20
147.04900000000001
 30
0.0
 11
61.65420000000001
 21
147.04900000000001
 31
0.0
  0
LINE
  5
42B
  8
0
 62
     7
 10
62.583999999999989
 20
117.527
 30
0.0
 11
62.583999999999989
 21
100.0499999999999
 31
0.0
  0
LINE
  5
42C
  8
0
 62
     7
 10
61.734099999999998
 20
145.12899999999999
 30
0.0
 11
61.734099999999998
 21
146.96899999999991
 31
0.0
  0
LINE
  5
42D
  8
0
 62
     7
 10
61.284199999999998
 20
157.749
 30
0.0
 11
61.284199999999998
 21
147.04900000000001
 31
0.0
  0
LINE
  5
42E
  8
0
 62
     7
 10
60.583799999999989
 20
141.75999999999999
 30
0.0
 11
60.583799999999989
 21
136.15000000000001
 31
0.0
  0
LINE
  5
42F
  8
0
 62
     7
 10
60.583799999999989
 20
145.04900000000001
 30
0.0
 11
60.583799999999989
 21
143.5389999999999
 31
0.0
  0
LINE
  5
430
  8
0
 62
     7
 10
60.583799999999989
 20
165.34899999999999
 30
0.0
 11
60.583799999999989
 21
162.12100000000001
 31
0.0
  0
LINE
  5
431
  8
0
 62
     7
 10
60.3688
 20
142.346
 30
0.0
 11
60.3688
 21
142.95299999999989
 31
0.0
  0
LINE
  5
432
  8
0
 62
     7
 10
60.283700000000003
 20
165.34899999999999
 30
0.0
 11
60.283700000000003
 21
197.149
 31
0.0
  0
LINE
  5
433
  8
0
 62
     7
 10
62.585700000000003
 20
128.89599999999999
 30
0.0
 11
62.583999999999989
 21
128.93499999999989
 31
0.0
  0
LINE
  5
434
  8
0
 62
     7
 10
62.583999999999989
 20
128.93499999999989
 30
0.0
 11
62.583999999999989
 21
128.96700000000001
 31
0.0
  0
LINE
  5
435
  8
0
 62
     7
 10
61.65420000000001
 20
145.04900000000001
 30
0.0
 11
54.713999999999999
 21
145.04900000000001
 31
0.0
  0
LINE
  5
436
  8
0
 62
     7
 10
60.578600000000002
 20
143.5389999999999
 30
0.0
 11
60.583799999999989
 21
143.5389999999999
 31
0.0
  0
LINE
  5
437
  8
0
 62
     7
 10
60.538600000000002
 20
143.49899999999991
 30
0.0
 11
60.543500000000002
 21
143.49899999999991
 31
0.0
  0
LINE
  5
438
  8
0
 62
     7
 10
58.93869999999999
 20
145.04900000000001
 30
0.0
 11
58.93869999999999
 21
144.96100000000001
 31
0.0
  0
LINE
  5
439
  8
0
 62
     7
 10
57.428699999999992
 20
144.96100000000001
 30
0.0
 11
57.428699999999992
 21
145.04900000000001
 31
0.0
  0
LINE
  5
43A
  8
0
 62
     7
 10
56.083799999999997
 20
165.34899999999999
 30
0.0
 11
56.083799999999997
 21
197.149
 31
0.0
  0
LINE
  5
43B
  8
0
 62
     7
 10
60.556899999999999
 20
141.7939999999999
 30
0.0
 11
60.556499999999993
 21
141.7939999999999
 31
0.0
  0
LINE
  5
43C
  8
0
 62
     7
 10
60.556499999999993
 20
141.7939999999999
 30
0.0
 11
60.555500000000002
 21
141.7939999999999
 31
0.0
  0
LINE
  5
43D
  8
0
 62
     7
 10
60.555500000000002
 20
141.7939999999999
 30
0.0
 11
60.555199999999999
 21
141.7949999999999
 31
0.0
  0
LINE
  5
43E
  8
0
 62
     7
 10
60.555199999999999
 20
141.7949999999999
 30
0.0
 11
60.555199999999999
 21
141.79599999999991
 31
0.0
  0
LINE
  5
43F
  8
0
 62
     7
 10
60.555199999999999
 20
141.79599999999991
 30
0.0
 11
60.554099999999998
 21
141.79599999999991
 31
0.0
  0
LINE
  5
440
  8
0
 62
     7
 10
60.554099999999998
 20
141.79599999999991
 30
0.0
 11
60.553800000000003
 21
141.79699999999991
 31
0.0
  0
LINE
  5
441
  8
0
 62
     7
 10
60.553800000000003
 20
141.79699999999991
 30
0.0
 11
60.553400000000011
 21
141.798
 31
0.0
  0
LINE
  5
442
  8
0
 62
     7
 10
60.553400000000011
 20
141.798
 30
0.0
 11
60.551699999999997
 21
141.79900000000001
 31
0.0
  0
LINE
  5
443
  8
0
 62
     7
 10
60.551699999999997
 20
141.79900000000001
 30
0.0
 11
60.551000000000002
 21
141.80000000000001
 31
0.0
  0
LINE
  5
444
  8
0
 62
     7
 10
60.551000000000002
 20
141.80000000000001
 30
0.0
 11
60.5503
 21
141.80199999999999
 31
0.0
  0
LINE
  5
445
  8
0
 62
     7
 10
60.5503
 20
141.80199999999999
 30
0.0
 11
60.549700000000001
 21
141.80299999999991
 31
0.0
  0
LINE
  5
446
  8
0
 62
     7
 10
60.549700000000001
 20
141.80299999999991
 30
0.0
 11
60.54829999999999
 21
141.80500000000001
 31
0.0
  0
LINE
  5
447
  8
0
 62
     7
 10
60.54829999999999
 20
141.80500000000001
 30
0.0
 11
60.546900000000001
 21
141.80699999999999
 31
0.0
  0
LINE
  5
448
  8
0
 62
     7
 10
60.546900000000001
 20
141.80699999999999
 30
0.0
 11
60.545200000000001
 21
141.80799999999991
 31
0.0
  0
LINE
  5
449
  8
0
 62
     7
 10
60.545200000000001
 20
141.80799999999991
 30
0.0
 11
60.5441
 21
141.81100000000001
 31
0.0
  0
LINE
  5
44A
  8
0
 62
     7
 10
60.5441
 20
141.81100000000001
 30
0.0
 11
60.542400000000001
 21
141.81200000000001
 31
0.0
  0
LINE
  5
44B
  8
0
 62
     7
 10
60.542400000000001
 20
141.81200000000001
 30
0.0
 11
60.540999999999997
 21
141.81499999999991
 31
0.0
  0
LINE
  5
44C
  8
0
 62
     7
 10
60.540999999999997
 20
141.81499999999991
 30
0.0
 11
60.539299999999997
 21
141.81700000000001
 31
0.0
  0
LINE
  5
44D
  8
0
 62
     7
 10
60.539299999999997
 20
141.81700000000001
 30
0.0
 11
60.537599999999998
 21
141.81999999999991
 31
0.0
  0
LINE
  5
44E
  8
0
 62
     7
 10
60.537599999999998
 20
141.81999999999991
 30
0.0
 11
60.536200000000001
 21
141.82299999999989
 31
0.0
  0
LINE
  5
44F
  8
0
 62
     7
 10
60.536200000000001
 20
141.82299999999989
 30
0.0
 11
60.534500000000001
 21
141.82599999999991
 31
0.0
  0
LINE
  5
450
  8
0
 62
     7
 10
60.534500000000001
 20
141.82599999999991
 30
0.0
 11
60.532099999999993
 21
141.82900000000001
 31
0.0
  0
LINE
  5
451
  8
0
 62
     7
 10
60.532099999999993
 20
141.82900000000001
 30
0.0
 11
60.5304
 21
141.83199999999999
 31
0.0
  0
LINE
  5
452
  8
0
 62
     7
 10
60.5304
 20
141.83199999999999
 30
0.0
 11
60.529000000000003
 21
141.83600000000001
 31
0.0
  0
LINE
  5
453
  8
0
 62
     7
 10
60.529000000000003
 20
141.83600000000001
 30
0.0
 11
60.526899999999998
 21
141.839
 31
0.0
  0
LINE
  5
454
  8
0
 62
     7
 10
60.526899999999998
 20
141.839
 30
0.0
 11
60.524500000000003
 21
141.8429999999999
 31
0.0
  0
LINE
  5
455
  8
0
 62
     7
 10
60.524500000000003
 20
141.8429999999999
 30
0.0
 11
60.522100000000002
 21
141.8479999999999
 31
0.0
  0
LINE
  5
456
  8
0
 62
     7
 10
60.522100000000002
 20
141.8479999999999
 30
0.0
 11
60.520400000000002
 21
141.852
 31
0.0
  0
LINE
  5
457
  8
0
 62
     7
 10
60.520400000000002
 20
141.852
 30
0.0
 11
60.517600000000002
 21
141.85599999999999
 31
0.0
  0
LINE
  5
458
  8
0
 62
     7
 10
60.517600000000002
 20
141.85599999999999
 30
0.0
 11
60.515599999999999
 21
141.8609999999999
 31
0.0
  0
LINE
  5
459
  8
0
 62
     7
 10
60.515599999999999
 20
141.8609999999999
 30
0.0
 11
60.512799999999999
 21
141.86600000000001
 31
0.0
  0
LINE
  5
45A
  8
0
 62
     7
 10
60.512799999999999
 20
141.86600000000001
 30
0.0
 11
60.510399999999997
 21
141.87100000000001
 31
0.0
  0
LINE
  5
45B
  8
0
 62
     7
 10
60.510399999999997
 20
141.87100000000001
 30
0.0
 11
60.507300000000001
 21
141.87700000000001
 31
0.0
  0
LINE
  5
45C
  8
0
 62
     7
 10
60.507300000000001
 20
141.87700000000001
 30
0.0
 11
60.504899999999992
 21
141.88200000000001
 31
0.0
  0
LINE
  5
45D
  8
0
 62
     7
 10
60.504899999999992
 20
141.88200000000001
 30
0.0
 11
60.50180000000001
 21
141.88800000000001
 31
0.0
  0
LINE
  5
45E
  8
0
 62
     7
 10
60.50180000000001
 20
141.88800000000001
 30
0.0
 11
60.499400000000001
 21
141.89400000000001
 31
0.0
  0
LINE
  5
45F
  8
0
 62
     7
 10
60.499400000000001
 20
141.89400000000001
 30
0.0
 11
60.496299999999998
 21
141.90100000000001
 31
0.0
  0
LINE
  5
460
  8
0
 62
     7
 10
60.496299999999998
 20
141.90100000000001
 30
0.0
 11
60.493200000000002
 21
141.90700000000001
 31
0.0
  0
LINE
  5
461
  8
0
 62
     7
 10
60.493200000000002
 20
141.90700000000001
 30
0.0
 11
60.490400000000001
 21
141.9139999999999
 31
0.0
  0
LINE
  5
462
  8
0
 62
     7
 10
60.490400000000001
 20
141.9139999999999
 30
0.0
 11
60.487000000000002
 21
141.92199999999991
 31
0.0
  0
LINE
  5
463
  8
0
 62
     7
 10
60.487000000000002
 20
141.92199999999991
 30
0.0
 11
60.483499999999999
 21
141.92999999999989
 31
0.0
  0
LINE
  5
464
  8
0
 62
     7
 10
60.483499999999999
 20
141.92999999999989
 30
0.0
 11
60.480400000000003
 21
141.9379999999999
 31
0.0
  0
LINE
  5
465
  8
0
 62
     7
 10
60.480400000000003
 20
141.9379999999999
 30
0.0
 11
60.476599999999998
 21
141.94599999999991
 31
0.0
  0
LINE
  5
466
  8
0
 62
     7
 10
60.476599999999998
 20
141.94599999999991
 30
0.0
 11
60.4739
 21
141.95400000000001
 31
0.0
  0
LINE
  5
467
  8
0
 62
     7
 10
60.4739
 20
141.95400000000001
 30
0.0
 11
60.470100000000002
 21
141.96299999999991
 31
0.0
  0
LINE
  5
468
  8
0
 62
     7
 10
60.470100000000002
 20
141.96299999999991
 30
0.0
 11
60.465899999999998
 21
141.9729999999999
 31
0.0
  0
LINE
  5
469
  8
0
 62
     7
 10
60.465899999999998
 20
141.9729999999999
 30
0.0
 11
60.462800000000001
 21
141.983
 31
0.0
  0
LINE
  5
46A
  8
0
 62
     7
 10
60.462800000000001
 20
141.983
 30
0.0
 11
60.4587
 21
141.99299999999991
 31
0.0
  0
LINE
  5
46B
  8
0
 62
     7
 10
60.4587
 20
141.99299999999991
 30
0.0
 11
60.454900000000002
 21
142.00399999999999
 31
0.0
  0
LINE
  5
46C
  8
0
 62
     7
 10
60.454900000000002
 20
142.00399999999999
 30
0.0
 11
60.450400000000002
 21
142.0149999999999
 31
0.0
  0
LINE
  5
46D
  8
0
 62
     7
 10
60.450400000000002
 20
142.0149999999999
 30
0.0
 11
60.446599999999997
 21
142.02699999999999
 31
0.0
  0
LINE
  5
46E
  8
0
 62
     7
 10
60.446599999999997
 20
142.02699999999999
 30
0.0
 11
60.4422
 21
142.03999999999991
 31
0.0
  0
LINE
  5
46F
  8
0
 62
     7
 10
60.4422
 20
142.03999999999991
 30
0.0
 11
60.438000000000002
 21
142.053
 31
0.0
  0
LINE
  5
470
  8
0
 62
     7
 10
60.438000000000002
 20
142.053
 30
0.0
 11
60.433599999999991
 21
142.06599999999989
 31
0.0
  0
LINE
  5
471
  8
0
 62
     7
 10
60.433599999999991
 20
142.06599999999989
 30
0.0
 11
60.428699999999999
 21
142.08099999999999
 31
0.0
  0
LINE
  5
472
  8
0
 62
     7
 10
60.428699999999999
 20
142.08099999999999
 30
0.0
 11
60.424599999999998
 21
142.096
 31
0.0
  0
LINE
  5
473
  8
0
 62
     7
 10
60.424599999999998
 20
142.096
 30
0.0
 11
60.420099999999998
 21
142.11299999999989
 31
0.0
  0
LINE
  5
474
  8
0
 62
     7
 10
60.420099999999998
 20
142.11299999999989
 30
0.0
 11
60.415300000000002
 21
142.13
 31
0.0
  0
LINE
  5
475
  8
0
 62
     7
 10
60.415300000000002
 20
142.13
 30
0.0
 11
60.410499999999999
 21
142.14699999999999
 31
0.0
  0
LINE
  5
476
  8
0
 62
     7
 10
60.410499999999999
 20
142.14699999999999
 30
0.0
 11
60.405299999999997
 21
142.16599999999991
 31
0.0
  0
LINE
  5
477
  8
0
 62
     7
 10
60.405299999999997
 20
142.16599999999991
 30
0.0
 11
60.40079999999999
 21
142.18399999999991
 31
0.0
  0
LINE
  5
478
  8
0
 62
     7
 10
60.40079999999999
 20
142.18399999999991
 30
0.0
 11
60.396700000000003
 21
142.203
 31
0.0
  0
LINE
  5
479
  8
0
 62
     7
 10
60.396700000000003
 20
142.203
 30
0.0
 11
60.392200000000003
 21
142.22200000000001
 31
0.0
  0
LINE
  5
47A
  8
0
 62
     7
 10
60.392200000000003
 20
142.22200000000001
 30
0.0
 11
60.388100000000001
 21
142.24199999999999
 31
0.0
  0
LINE
  5
47B
  8
0
 62
     7
 10
60.388100000000001
 20
142.24199999999999
 30
0.0
 11
60.383600000000001
 21
142.262
 31
0.0
  0
LINE
  5
47C
  8
0
 62
     7
 10
60.383600000000001
 20
142.262
 30
0.0
 11
60.380200000000002
 21
142.28200000000001
 31
0.0
  0
LINE
  5
47D
  8
0
 62
     7
 10
60.380200000000002
 20
142.28200000000001
 30
0.0
 11
60.376000000000012
 21
142.30199999999999
 31
0.0
  0
LINE
  5
47E
  8
0
 62
     7
 10
60.376000000000012
 20
142.30199999999999
 30
0.0
 11
60.372199999999999
 21
142.32299999999989
 31
0.0
  0
LINE
  5
47F
  8
0
 62
     7
 10
60.372199999999999
 20
142.32299999999989
 30
0.0
 11
60.369100000000003
 21
142.34399999999999
 31
0.0
  0
LINE
  5
480
  8
0
 62
     7
 10
60.369100000000003
 20
142.34399999999999
 30
0.0
 11
60.366
 21
142.36500000000001
 31
0.0
  0
LINE
  5
481
  8
0
 62
     7
 10
60.366
 20
142.36500000000001
 30
0.0
 11
60.36290000000001
 21
142.38599999999991
 31
0.0
  0
LINE
  5
482
  8
0
 62
     7
 10
60.36290000000001
 20
142.38599999999991
 30
0.0
 11
60.360500000000002
 21
142.4079999999999
 31
0.0
  0
LINE
  5
483
  8
0
 62
     7
 10
60.360500000000002
 20
142.4079999999999
 30
0.0
 11
60.3581
 21
142.429
 31
0.0
  0
LINE
  5
484
  8
0
 62
     7
 10
60.3581
 20
142.429
 30
0.0
 11
60.35540000000001
 21
142.45099999999991
 31
0.0
  0
LINE
  5
485
  8
0
 62
     7
 10
60.35540000000001
 20
142.45099999999991
 30
0.0
 11
60.3536
 21
142.47200000000001
 31
0.0
  0
LINE
  5
486
  8
0
 62
     7
 10
60.3536
 20
142.47200000000001
 30
0.0
 11
60.351900000000001
 21
142.495
 31
0.0
  0
LINE
  5
487
  8
0
 62
     7
 10
60.351900000000001
 20
142.495
 30
0.0
 11
60.349800000000002
 21
142.517
 31
0.0
  0
LINE
  5
488
  8
0
 62
     7
 10
60.349800000000002
 20
142.517
 30
0.0
 11
60.348799999999997
 21
142.5389999999999
 31
0.0
  0
LINE
  5
489
  8
0
 62
     7
 10
60.348799999999997
 20
142.5389999999999
 30
0.0
 11
60.347099999999998
 21
142.56099999999989
 31
0.0
  0
LINE
  5
48A
  8
0
 62
     7
 10
60.347099999999998
 20
142.56099999999989
 30
0.0
 11
60.347099999999998
 21
142.58299999999991
 31
0.0
  0
LINE
  5
48B
  8
0
 62
     7
 10
60.347099999999998
 20
142.58299999999991
 30
0.0
 11
60.345700000000001
 21
142.6049999999999
 31
0.0
  0
LINE
  5
48C
  8
0
 62
     7
 10
60.345700000000001
 20
142.6049999999999
 30
0.0
 11
60.345399999999991
 21
142.62799999999999
 31
0.0
  0
LINE
  5
48D
  8
0
 62
     7
 10
60.345399999999991
 20
142.62799999999999
 30
0.0
 11
60.345399999999991
 21
142.65000000000001
 31
0.0
  0
LINE
  5
48E
  8
0
 62
     7
 10
60.345399999999991
 20
142.65000000000001
 30
0.0
 11
60.345399999999991
 21
142.673
 31
0.0
  0
LINE
  5
48F
  8
0
 62
     7
 10
60.345399999999991
 20
142.673
 30
0.0
 11
60.345700000000001
 21
142.69499999999991
 31
0.0
  0
LINE
  5
490
  8
0
 62
     7
 10
60.345700000000001
 20
142.69499999999991
 30
0.0
 11
60.347099999999998
 21
142.7179999999999
 31
0.0
  0
LINE
  5
491
  8
0
 62
     7
 10
60.347099999999998
 20
142.7179999999999
 30
0.0
 11
60.347099999999998
 21
142.74000000000001
 31
0.0
  0
LINE
  5
492
  8
0
 62
     7
 10
60.347099999999998
 20
142.74000000000001
 30
0.0
 11
60.348799999999997
 21
142.762
 31
0.0
  0
LINE
  5
493
  8
0
 62
     7
 10
60.348799999999997
 20
142.762
 30
0.0
 11
60.350499999999997
 21
142.78399999999991
 31
0.0
  0
LINE
  5
494
  8
0
 62
     7
 10
60.350499999999997
 20
142.78399999999991
 30
0.0
 11
60.351900000000001
 21
142.80600000000001
 31
0.0
  0
LINE
  5
495
  8
0
 62
     7
 10
60.351900000000001
 20
142.80600000000001
 30
0.0
 11
60.353999999999999
 21
142.82799999999989
 31
0.0
  0
LINE
  5
496
  8
0
 62
     7
 10
60.353999999999999
 20
142.82799999999989
 30
0.0
 11
60.35540000000001
 21
142.84999999999991
 31
0.0
  0
LINE
  5
497
  8
0
 62
     7
 10
60.35540000000001
 20
142.84999999999991
 30
0.0
 11
60.3581
 21
142.87200000000001
 31
0.0
  0
LINE
  5
498
  8
0
 62
     7
 10
60.3581
 20
142.87200000000001
 30
0.0
 11
60.360500000000002
 21
142.893
 31
0.0
  0
LINE
  5
499
  8
0
 62
     7
 10
60.360500000000002
 20
142.893
 30
0.0
 11
60.363599999999998
 21
142.91499999999991
 31
0.0
  0
LINE
  5
49A
  8
0
 62
     7
 10
60.363599999999998
 20
142.91499999999991
 30
0.0
 11
60.366
 21
142.93600000000001
 31
0.0
  0
LINE
  5
49B
  8
0
 62
     7
 10
60.366
 20
142.93600000000001
 30
0.0
 11
60.369100000000003
 21
142.95699999999999
 31
0.0
  0
LINE
  5
49C
  8
0
 62
     7
 10
60.369100000000003
 20
142.95699999999999
 30
0.0
 11
60.3733
 21
142.97799999999989
 31
0.0
  0
LINE
  5
49D
  8
0
 62
     7
 10
60.3733
 20
142.97799999999989
 30
0.0
 11
60.376000000000012
 21
142.99799999999999
 31
0.0
  0
LINE
  5
49E
  8
0
 62
     7
 10
60.376000000000012
 20
142.99799999999999
 30
0.0
 11
60.380499999999998
 21
143.01900000000001
 31
0.0
  0
LINE
  5
49F
  8
0
 62
     7
 10
60.380499999999998
 20
143.01900000000001
 30
0.0
 11
60.38389999999999
 21
143.0389999999999
 31
0.0
  0
LINE
  5
4A0
  8
0
 62
     7
 10
60.38389999999999
 20
143.0389999999999
 30
0.0
 11
60.388100000000001
 21
143.05799999999991
 31
0.0
  0
LINE
  5
4A1
  8
0
 62
     7
 10
60.388100000000001
 20
143.05799999999991
 30
0.0
 11
60.392200000000003
 21
143.078
 31
0.0
  0
LINE
  5
4A2
  8
0
 62
     7
 10
60.392200000000003
 20
143.078
 30
0.0
 11
60.396700000000003
 21
143.09700000000001
 31
0.0
  0
LINE
  5
4A3
  8
0
 62
     7
 10
60.396700000000003
 20
143.09700000000001
 30
0.0
 11
60.401200000000003
 21
143.11600000000001
 31
0.0
  0
LINE
  5
4A4
  8
0
 62
     7
 10
60.401200000000003
 20
143.11600000000001
 30
0.0
 11
60.406000000000013
 21
143.13499999999991
 31
0.0
  0
LINE
  5
4A5
  8
0
 62
     7
 10
60.406000000000013
 20
143.13499999999991
 30
0.0
 11
60.410499999999999
 21
143.15299999999991
 31
0.0
  0
LINE
  5
4A6
  8
0
 62
     7
 10
60.410499999999999
 20
143.15299999999991
 30
0.0
 11
60.415599999999998
 21
143.17099999999991
 31
0.0
  0
LINE
  5
4A7
  8
0
 62
     7
 10
60.415599999999998
 20
143.17099999999991
 30
0.0
 11
60.420099999999998
 21
143.1879999999999
 31
0.0
  0
LINE
  5
4A8
  8
0
 62
     7
 10
60.420099999999998
 20
143.1879999999999
 30
0.0
 11
60.424599999999998
 21
143.20400000000001
 31
0.0
  0
LINE
  5
4A9
  8
0
 62
     7
 10
60.424599999999998
 20
143.20400000000001
 30
0.0
 11
60.429400000000001
 21
143.21899999999999
 31
0.0
  0
LINE
  5
4AA
  8
0
 62
     7
 10
60.429400000000001
 20
143.21899999999999
 30
0.0
 11
60.433900000000001
 21
143.23400000000001
 31
0.0
  0
LINE
  5
4AB
  8
0
 62
     7
 10
60.433900000000001
 20
143.23400000000001
 30
0.0
 11
60.438699999999997
 21
143.24700000000001
 31
0.0
  0
LINE
  5
4AC
  8
0
 62
     7
 10
60.438699999999997
 20
143.24700000000001
 30
0.0
 11
60.442500000000003
 21
143.25999999999991
 31
0.0
  0
LINE
  5
4AD
  8
0
 62
     7
 10
60.442500000000003
 20
143.25999999999991
 30
0.0
 11
60.446599999999997
 21
143.273
 31
0.0
  0
LINE
  5
4AE
  8
0
 62
     7
 10
60.446599999999997
 20
143.273
 30
0.0
 11
60.450800000000001
 21
143.28399999999991
 31
0.0
  0
LINE
  5
4AF
  8
0
 62
     7
 10
60.450800000000001
 20
143.28399999999991
 30
0.0
 11
60.454900000000002
 21
143.29599999999999
 31
0.0
  0
LINE
  5
4B0
  8
0
 62
     7
 10
60.454900000000002
 20
143.29599999999999
 30
0.0
 11
60.4587
 21
143.30600000000001
 31
0.0
  0
LINE
  5
4B1
  8
0
 62
     7
 10
60.4587
 20
143.30600000000001
 30
0.0
 11
60.462800000000001
 21
143.31700000000001
 31
0.0
  0
LINE
  5
4B2
  8
0
 62
     7
 10
60.462800000000001
 20
143.31700000000001
 30
0.0
 11
60.466999999999999
 21
143.32599999999991
 31
0.0
  0
LINE
  5
4B3
  8
0
 62
     7
 10
60.466999999999999
 20
143.32599999999991
 30
0.0
 11
60.470100000000002
 21
143.33600000000001
 31
0.0
  0
LINE
  5
4B4
  8
0
 62
     7
 10
60.470100000000002
 20
143.33600000000001
 30
0.0
 11
60.4739
 21
143.345
 31
0.0
  0
LINE
  5
4B5
  8
0
 62
     7
 10
60.4739
 20
143.345
 30
0.0
 11
60.476599999999998
 21
143.3539999999999
 31
0.0
  0
LINE
  5
4B6
  8
0
 62
     7
 10
60.476599999999998
 20
143.3539999999999
 30
0.0
 11
60.480400000000003
 21
143.36199999999991
 31
0.0
  0
LINE
  5
4B7
  8
0
 62
     7
 10
60.480400000000003
 20
143.36199999999991
 30
0.0
 11
60.483499999999999
 21
143.36999999999989
 31
0.0
  0
LINE
  5
4B8
  8
0
 62
     7
 10
60.483499999999999
 20
143.36999999999989
 30
0.0
 11
60.487000000000002
 21
143.3779999999999
 31
0.0
  0
LINE
  5
4B9
  8
0
 62
     7
 10
60.487000000000002
 20
143.3779999999999
 30
0.0
 11
60.490400000000001
 21
143.38499999999991
 31
0.0
  0
LINE
  5
4BA
  8
0
 62
     7
 10
60.490400000000001
 20
143.38499999999991
 30
0.0
 11
60.493499999999997
 21
143.392
 31
0.0
  0
LINE
  5
4BB
  8
0
 62
     7
 10
60.493499999999997
 20
143.392
 30
0.0
 11
60.496299999999998
 21
143.399
 31
0.0
  0
LINE
  5
4BC
  8
0
 62
     7
 10
60.496299999999998
 20
143.399
 30
0.0
 11
60.499400000000001
 21
143.405
 31
0.0
  0
LINE
  5
4BD
  8
0
 62
     7
 10
60.499400000000001
 20
143.405
 30
0.0
 11
60.50180000000001
 21
143.41099999999989
 31
0.0
  0
LINE
  5
4BE
  8
0
 62
     7
 10
60.50180000000001
 20
143.41099999999989
 30
0.0
 11
60.504899999999992
 21
143.41699999999989
 31
0.0
  0
LINE
  5
4BF
  8
0
 62
     7
 10
60.504899999999992
 20
143.41699999999989
 30
0.0
 11
60.507300000000001
 21
143.423
 31
0.0
  0
LINE
  5
4C0
  8
0
 62
     7
 10
60.507300000000001
 20
143.423
 30
0.0
 11
60.510399999999997
 21
143.428
 31
0.0
  0
LINE
  5
4C1
  8
0
 62
     7
 10
60.510399999999997
 20
143.428
 30
0.0
 11
60.512799999999999
 21
143.43299999999991
 31
0.0
  0
LINE
  5
4C2
  8
0
 62
     7
 10
60.512799999999999
 20
143.43299999999991
 30
0.0
 11
60.515599999999999
 21
143.4379999999999
 31
0.0
  0
LINE
  5
4C3
  8
0
 62
     7
 10
60.515599999999999
 20
143.4379999999999
 30
0.0
 11
60.517600000000002
 21
143.4429999999999
 31
0.0
  0
LINE
  5
4C4
  8
0
 62
     7
 10
60.517600000000002
 20
143.4429999999999
 30
0.0
 11
60.520400000000002
 21
143.447
 31
0.0
  0
LINE
  5
4C5
  8
0
 62
     7
 10
60.520400000000002
 20
143.447
 30
0.0
 11
60.522100000000002
 21
143.452
 31
0.0
  0
LINE
  5
4C6
  8
0
 62
     7
 10
60.522100000000002
 20
143.452
 30
0.0
 11
60.524500000000003
 21
143.45599999999999
 31
0.0
  0
LINE
  5
4C7
  8
0
 62
     7
 10
60.524500000000003
 20
143.45599999999999
 30
0.0
 11
60.526899999999998
 21
143.46000000000001
 31
0.0
  0
LINE
  5
4C8
  8
0
 62
     7
 10
60.526899999999998
 20
143.46000000000001
 30
0.0
 11
60.529000000000003
 21
143.46299999999999
 31
0.0
  0
LINE
  5
4C9
  8
0
 62
     7
 10
60.529000000000003
 20
143.46299999999999
 30
0.0
 11
60.5304
 21
143.46700000000001
 31
0.0
  0
LINE
  5
4CA
  8
0
 62
     7
 10
60.5304
 20
143.46700000000001
 30
0.0
 11
60.532099999999993
 21
143.47
 31
0.0
  0
LINE
  5
4CB
  8
0
 62
     7
 10
60.532099999999993
 20
143.47
 30
0.0
 11
60.534500000000001
 21
143.4729999999999
 31
0.0
  0
LINE
  5
4CC
  8
0
 62
     7
 10
60.534500000000001
 20
143.4729999999999
 30
0.0
 11
60.536200000000001
 21
143.47599999999991
 31
0.0
  0
LINE
  5
4CD
  8
0
 62
     7
 10
60.536200000000001
 20
143.47599999999991
 30
0.0
 11
60.537599999999998
 21
143.4789999999999
 31
0.0
  0
LINE
  5
4CE
  8
0
 62
     7
 10
60.537599999999998
 20
143.4789999999999
 30
0.0
 11
60.539299999999997
 21
143.482
 31
0.0
  0
LINE
  5
4CF
  8
0
 62
     7
 10
60.539299999999997
 20
143.482
 30
0.0
 11
60.540999999999997
 21
143.48400000000001
 31
0.0
  0
LINE
  5
4D0
  8
0
 62
     7
 10
60.540999999999997
 20
143.48400000000001
 30
0.0
 11
60.542400000000001
 21
143.48699999999991
 31
0.0
  0
LINE
  5
4D1
  8
0
 62
     7
 10
60.542400000000001
 20
143.48699999999991
 30
0.0
 11
60.543500000000002
 21
143.489
 31
0.0
  0
LINE
  5
4D2
  8
0
 62
     7
 10
60.543500000000002
 20
143.489
 30
0.0
 11
60.545200000000001
 21
143.49100000000001
 31
0.0
  0
LINE
  5
4D3
  8
0
 62
     7
 10
60.545200000000001
 20
143.49100000000001
 30
0.0
 11
60.546900000000001
 21
143.49299999999999
 31
0.0
  0
LINE
  5
4D4
  8
0
 62
     7
 10
60.546900000000001
 20
143.49299999999999
 30
0.0
 11
60.54829999999999
 21
143.494
 31
0.0
  0
LINE
  5
4D5
  8
0
 62
     7
 10
60.54829999999999
 20
143.494
 30
0.0
 11
60.549700000000001
 21
143.49600000000001
 31
0.0
  0
LINE
  5
4D6
  8
0
 62
     7
 10
60.549700000000001
 20
143.49600000000001
 30
0.0
 11
60.5503
 21
143.49700000000001
 31
0.0
  0
LINE
  5
4D7
  8
0
 62
     7
 10
60.5503
 20
143.49700000000001
 30
0.0
 11
60.551000000000002
 21
143.49899999999991
 31
0.0
  0
LINE
  5
4D8
  8
0
 62
     7
 10
60.551000000000002
 20
143.49899999999991
 30
0.0
 11
60.551699999999997
 21
143.5
 31
0.0
  0
LINE
  5
4D9
  8
0
 62
     7
 10
60.551699999999997
 20
143.5
 30
0.0
 11
60.553400000000011
 21
143.501
 31
0.0
  0
LINE
  5
4DA
  8
0
 62
     7
 10
60.553400000000011
 20
143.501
 30
0.0
 11
60.553800000000003
 21
143.50200000000001
 31
0.0
  0
LINE
  5
4DB
  8
0
 62
     7
 10
60.553800000000003
 20
143.50200000000001
 30
0.0
 11
60.554099999999998
 21
143.5029999999999
 31
0.0
  0
LINE
  5
4DC
  8
0
 62
     7
 10
60.554099999999998
 20
143.5029999999999
 30
0.0
 11
60.555199999999999
 21
143.5029999999999
 31
0.0
  0
LINE
  5
4DD
  8
0
 62
     7
 10
60.555199999999999
 20
143.5029999999999
 30
0.0
 11
60.555199999999999
 21
143.50399999999991
 31
0.0
  0
LINE
  5
4DE
  8
0
 62
     7
 10
60.555199999999999
 20
143.50399999999991
 30
0.0
 11
60.555500000000002
 21
143.50399999999991
 31
0.0
  0
LINE
  5
4DF
  8
0
 62
     7
 10
60.555500000000002
 20
143.50399999999991
 30
0.0
 11
60.556499999999993
 21
143.50499999999991
 31
0.0
  0
LINE
  5
4E0
  8
0
 62
     7
 10
60.583799999999989
 20
141.75999999999999
 30
0.0
 11
60.578600000000002
 21
141.75999999999999
 31
0.0
  0
LINE
  5
4E1
  8
0
 62
     7
 10
71.9833
 20
140.446
 30
0.0
 11
71.283299999999997
 21
140.446
 31
0.0
  0
LINE
  5
4E2
  8
0
 62
     7
 10
55.783700000000003
 20
145.04900000000001
 30
0.0
 11
55.783700000000003
 21
136.15000000000001
 31
0.0
  0
LINE
  5
4E3
  8
0
 62
     7
 10
55.783700000000003
 20
165.34899999999999
 30
0.0
 11
55.783700000000003
 21
162.12100000000001
 31
0.0
  0
LINE
  5
4E4
  8
0
 62
     7
 10
55.084299999999999
 20
157.749
 30
0.0
 11
55.084299999999999
 21
147.04900000000001
 31
0.0
  0
LINE
  5
4E5
  8
0
 62
     7
 10
54.634399999999999
 20
145.12899999999999
 30
0.0
 11
54.634399999999999
 21
146.96899999999991
 31
0.0
  0
LINE
  5
4E6
  8
0
 62
     7
 10
53.783799999999992
 20
128.56100000000001
 30
0.0
 11
53.783799999999992
 21
100.0499999999999
 31
0.0
  0
LINE
  5
4E7
  8
0
 62
     7
 10
52.683799999999998
 20
99.949100000000001
 30
0.0
 11
52.683799999999998
 21
99.049199999999999
 31
0.0
  0
LINE
  5
4E8
  8
0
 62
     7
 10
60.2637
 20
169.209
 30
0.0
 11
60.283700000000003
 21
169.22900000000001
 31
0.0
  0
LINE
  5
4E9
  8
0
 62
     7
 10
56.083799999999997
 20
169.18899999999999
 30
0.0
 11
56.104100000000003
 21
169.209
 31
0.0
  0
LINE
  5
4EA
  8
0
 62
     7
 10
64.288300000000007
 20
127.247
 30
0.0
 11
64.251400000000004
 21
127.24799999999991
 31
0.0
  0
LINE
  5
4EB
  8
0
 62
     7
 10
64.251400000000004
 20
127.24799999999991
 30
0.0
 11
64.213200000000001
 21
127.2489999999999
 31
0.0
  0
LINE
  5
4EC
  8
0
 62
     7
 10
64.213200000000001
 20
127.2489999999999
 30
0.0
 11
64.176299999999983
 21
127.252
 31
0.0
  0
LINE
  5
4ED
  8
0
 62
     7
 10
64.176299999999983
 20
127.252
 30
0.0
 11
64.138099999999994
 21
127.255
 31
0.0
  0
LINE
  5
4EE
  8
0
 62
     7
 10
64.138099999999994
 20
127.255
 30
0.0
 11
64.100200000000001
 21
127.259
 31
0.0
  0
LINE
  5
4EF
  8
0
 62
     7
 10
64.100200000000001
 20
127.259
 30
0.0
 11
64.063000000000002
 21
127.2639999999999
 31
0.0
  0
LINE
  5
4F0
  8
0
 62
     7
 10
64.063000000000002
 20
127.2639999999999
 30
0.0
 11
64.025099999999995
 21
127.2699999999999
 31
0.0
  0
LINE
  5
4F1
  8
0
 62
     7
 10
64.025099999999995
 20
127.2699999999999
 30
0.0
 11
63.987200000000001
 21
127.276
 31
0.0
  0
LINE
  5
4F2
  8
0
 62
     7
 10
63.987200000000001
 20
127.276
 30
0.0
 11
63.950299999999999
 21
127.28399999999991
 31
0.0
  0
LINE
  5
4F3
  8
0
 62
     7
 10
63.950299999999999
 20
127.28399999999991
 30
0.0
 11
63.913499999999999
 21
127.292
 31
0.0
  0
LINE
  5
4F4
  8
0
 62
     7
 10
63.913499999999999
 20
127.292
 30
0.0
 11
63.876300000000001
 21
127.3009999999999
 31
0.0
  0
LINE
  5
4F5
  8
0
 62
     7
 10
63.876300000000001
 20
127.3009999999999
 30
0.0
 11
63.839700000000001
 21
127.31100000000001
 31
0.0
  0
LINE
  5
4F6
  8
0
 62
     7
 10
63.839700000000001
 20
127.31100000000001
 30
0.0
 11
63.803600000000003
 21
127.322
 31
0.0
  0
LINE
  5
4F7
  8
0
 62
     7
 10
63.803600000000003
 20
127.322
 30
0.0
 11
63.7667
 21
127.333
 31
0.0
  0
LINE
  5
4F8
  8
0
 62
     7
 10
63.7667
 20
127.333
 30
0.0
 11
63.7316
 21
127.3449999999999
 31
0.0
  0
LINE
  5
4F9
  8
0
 62
     7
 10
63.7316
 20
127.3449999999999
 30
0.0
 11
63.695399999999999
 21
127.3579999999999
 31
0.0
  0
LINE
  5
4FA
  8
0
 62
     7
 10
63.695399999999999
 20
127.3579999999999
 30
0.0
 11
63.660299999999999
 21
127.372
 31
0.0
  0
LINE
  5
4FB
  8
0
 62
     7
 10
63.660299999999999
 20
127.372
 30
0.0
 11
63.625500000000002
 21
127.386
 31
0.0
  0
LINE
  5
4FC
  8
0
 62
     7
 10
63.625500000000002
 20
127.386
 30
0.0
 11
63.590299999999999
 21
127.401
 31
0.0
  0
LINE
  5
4FD
  8
0
 62
     7
 10
63.590299999999999
 20
127.401
 30
0.0
 11
63.556600000000003
 21
127.41799999999991
 31
0.0
  0
LINE
  5
4FE
  8
0
 62
     7
 10
63.556600000000003
 20
127.41799999999991
 30
0.0
 11
63.522100000000002
 21
127.435
 31
0.0
  0
LINE
  5
4FF
  8
0
 62
     7
 10
63.522100000000002
 20
127.435
 30
0.0
 11
63.488999999999997
 21
127.452
 31
0.0
  0
LINE
  5
500
  8
0
 62
     7
 10
63.488999999999997
 20
127.452
 30
0.0
 11
63.45559999999999
 21
127.471
 31
0.0
  0
LINE
  5
501
  8
0
 62
     7
 10
63.45559999999999
 20
127.471
 30
0.0
 11
63.422899999999998
 21
127.4899999999999
 31
0.0
  0
LINE
  5
502
  8
0
 62
     7
 10
63.422899999999998
 20
127.4899999999999
 30
0.0
 11
63.390799999999999
 21
127.51000000000001
 31
0.0
  0
LINE
  5
503
  8
0
 62
     7
 10
63.390799999999999
 20
127.51000000000001
 30
0.0
 11
63.3581
 21
127.53
 31
0.0
  0
LINE
  5
504
  8
0
 62
     7
 10
63.3581
 20
127.53
 30
0.0
 11
63.327100000000002
 21
127.551
 31
0.0
  0
LINE
  5
505
  8
0
 62
     7
 10
63.327100000000002
 20
127.551
 30
0.0
 11
63.296100000000003
 21
127.57299999999999
 31
0.0
  0
LINE
  5
506
  8
0
 62
     7
 10
63.296100000000003
 20
127.57299999999999
 30
0.0
 11
63.2654
 21
127.5959999999999
 31
0.0
  0
LINE
  5
507
  8
0
 62
     7
 10
63.2654
 20
127.5959999999999
 30
0.0
 11
63.235100000000003
 21
127.6189999999999
 31
0.0
  0
LINE
  5
508
  8
0
 62
     7
 10
63.235100000000003
 20
127.6189999999999
 30
0.0
 11
63.205500000000001
 21
127.6429999999999
 31
0.0
  0
LINE
  5
509
  8
0
 62
     7
 10
63.205500000000001
 20
127.6429999999999
 30
0.0
 11
63.177199999999999
 21
127.66800000000001
 31
0.0
  0
LINE
  5
50A
  8
0
 62
     7
 10
63.177199999999999
 20
127.66800000000001
 30
0.0
 11
63.148299999999999
 21
127.6929999999999
 31
0.0
  0
LINE
  5
50B
  8
0
 62
     7
 10
63.148299999999999
 20
127.6929999999999
 30
0.0
 11
63.121099999999998
 21
127.7179999999999
 31
0.0
  0
LINE
  5
50C
  8
0
 62
     7
 10
63.121099999999998
 20
127.7179999999999
 30
0.0
 11
63.094200000000001
 21
127.74499999999991
 31
0.0
  0
LINE
  5
50D
  8
0
 62
     7
 10
63.094200000000001
 20
127.74499999999991
 30
0.0
 11
63.067399999999999
 21
127.771
 31
0.0
  0
LINE
  5
50E
  8
0
 62
     7
 10
63.067399999999999
 20
127.771
 30
0.0
 11
63.041200000000011
 21
127.79899999999989
 31
0.0
  0
LINE
  5
50F
  8
0
 62
     7
 10
63.041200000000011
 20
127.79899999999989
 30
0.0
 11
63.015999999999998
 21
127.827
 31
0.0
  0
LINE
  5
510
  8
0
 62
     7
 10
63.015999999999998
 20
127.827
 30
0.0
 11
62.991199999999999
 21
127.855
 31
0.0
  0
LINE
  5
511
  8
0
 62
     7
 10
62.991199999999999
 20
127.855
 30
0.0
 11
62.967799999999997
 21
127.8839999999999
 31
0.0
  0
LINE
  5
512
  8
0
 62
     7
 10
62.967799999999997
 20
127.8839999999999
 30
0.0
 11
62.9437
 21
127.9139999999999
 31
0.0
  0
LINE
  5
513
  8
0
 62
     7
 10
62.9437
 20
127.9139999999999
 30
0.0
 11
62.921300000000002
 21
127.94499999999989
 31
0.0
  0
LINE
  5
514
  8
0
 62
     7
 10
62.921300000000002
 20
127.94499999999989
 30
0.0
 11
62.898499999999999
 21
127.97499999999989
 31
0.0
  0
LINE
  5
515
  8
0
 62
     7
 10
62.898499999999999
 20
127.97499999999989
 30
0.0
 11
62.876800000000003
 21
128.00599999999989
 31
0.0
  0
LINE
  5
516
  8
0
 62
     7
 10
62.876800000000003
 20
128.00599999999989
 30
0.0
 11
62.856200000000001
 21
128.0379999999999
 31
0.0
  0
LINE
  5
517
  8
0
 62
     7
 10
62.856200000000001
 20
128.0379999999999
 30
0.0
 11
62.836199999999991
 21
128.071
 31
0.0
  0
LINE
  5
518
  8
0
 62
     7
 10
62.836199999999991
 20
128.071
 30
0.0
 11
62.816200000000002
 21
128.10299999999989
 31
0.0
  0
LINE
  5
519
  8
0
 62
     7
 10
62.816200000000002
 20
128.10299999999989
 30
0.0
 11
62.797899999999998
 21
128.136
 31
0.0
  0
LINE
  5
51A
  8
0
 62
     7
 10
62.797899999999998
 20
128.136
 30
0.0
 11
62.779299999999999
 21
128.1689999999999
 31
0.0
  0
LINE
  5
51B
  8
0
 62
     7
 10
62.779299999999999
 20
128.1689999999999
 30
0.0
 11
62.762799999999991
 21
128.20299999999989
 31
0.0
  0
LINE
  5
51C
  8
0
 62
     7
 10
62.762799999999991
 20
128.20299999999989
 30
0.0
 11
62.746299999999998
 21
128.23699999999999
 31
0.0
  0
LINE
  5
51D
  8
0
 62
     7
 10
62.746299999999998
 20
128.23699999999999
 30
0.0
 11
62.730800000000002
 21
128.27199999999999
 31
0.0
  0
LINE
  5
51E
  8
0
 62
     7
 10
62.730800000000002
 20
128.27199999999999
 30
0.0
 11
62.715299999999999
 21
128.30699999999999
 31
0.0
  0
LINE
  5
51F
  8
0
 62
     7
 10
62.715299999999999
 20
128.30699999999999
 30
0.0
 11
62.70150000000001
 21
128.34200000000001
 31
0.0
  0
LINE
  5
520
  8
0
 62
     7
 10
62.70150000000001
 20
128.34200000000001
 30
0.0
 11
62.688400000000001
 21
128.37700000000001
 31
0.0
  0
LINE
  5
521
  8
0
 62
     7
 10
62.688400000000001
 20
128.37700000000001
 30
0.0
 11
62.6753
 21
128.4129999999999
 31
0.0
  0
LINE
  5
522
  8
0
 62
     7
 10
62.6753
 20
128.4129999999999
 30
0.0
 11
62.663200000000003
 21
128.4489999999999
 31
0.0
  0
LINE
  5
523
  8
0
 62
     7
 10
62.663200000000003
 20
128.4489999999999
 30
0.0
 11
62.6526
 21
128.48500000000001
 31
0.0
  0
LINE
  5
524
  8
0
 62
     7
 10
62.6526
 20
128.48500000000001
 30
0.0
 11
62.642600000000002
 21
128.52199999999999
 31
0.0
  0
LINE
  5
525
  8
0
 62
     7
 10
62.642600000000002
 20
128.52199999999999
 30
0.0
 11
62.633299999999991
 21
128.559
 31
0.0
  0
LINE
  5
526
  8
0
 62
     7
 10
62.633299999999991
 20
128.559
 30
0.0
 11
62.624699999999997
 21
128.596
 31
0.0
  0
LINE
  5
527
  8
0
 62
     7
 10
62.624699999999997
 20
128.596
 30
0.0
 11
62.616700000000002
 21
128.6329999999999
 31
0.0
  0
LINE
  5
528
  8
0
 62
     7
 10
62.616700000000002
 20
128.6329999999999
 30
0.0
 11
62.609799999999993
 21
128.6699999999999
 31
0.0
  0
LINE
  5
529
  8
0
 62
     7
 10
62.609799999999993
 20
128.6699999999999
 30
0.0
 11
62.602899999999998
 21
128.708
 31
0.0
  0
LINE
  5
52A
  8
0
 62
     7
 10
62.602899999999998
 20
128.708
 30
0.0
 11
62.598100000000002
 21
128.74499999999989
 31
0.0
  0
LINE
  5
52B
  8
0
 62
     7
 10
62.598100000000002
 20
128.74499999999989
 30
0.0
 11
62.593299999999999
 21
128.78399999999991
 31
0.0
  0
LINE
  5
52C
  8
0
 62
     7
 10
62.593299999999999
 20
128.78399999999991
 30
0.0
 11
62.5899
 21
128.821
 31
0.0
  0
LINE
  5
52D
  8
0
 62
     7
 10
62.5899
 20
128.821
 30
0.0
 11
62.5871
 21
128.85900000000001
 31
0.0
  0
LINE
  5
52E
  8
0
 62
     7
 10
62.5871
 20
128.85900000000001
 30
0.0
 11
62.585700000000003
 21
128.89599999999999
 31
0.0
  0
LINE
  5
52F
  8
0
 62
     7
 10
64.304100000000005
 20
127.247
 30
0.0
 11
64.288300000000007
 21
127.247
 31
0.0
  0
LINE
  5
530
  8
0
 62
     7
 10
64.304100000000005
 20
127.247
 30
0.0
 11
68.783799999999985
 21
127.247
 31
0.0
  0
LINE
  5
531
  8
0
 62
     7
 10
69.183800000000005
 20
127.247
 30
0.0
 11
69.383600000000001
 21
127.247
 31
0.0
  0
LINE
  5
532
  8
0
 62
     7
 10
69.648200000000003
 20
127.282
 30
0.0
 11
69.624099999999999
 21
127.276
 31
0.0
  0
LINE
  5
533
  8
0
 62
     7
 10
69.624099999999999
 20
127.276
 30
0.0
 11
69.599599999999995
 21
127.2699999999999
 31
0.0
  0
LINE
  5
534
  8
0
 62
     7
 10
69.599599999999995
 20
127.2699999999999
 30
0.0
 11
69.575900000000004
 21
127.26600000000001
 31
0.0
  0
LINE
  5
535
  8
0
 62
     7
 10
69.575900000000004
 20
127.26600000000001
 30
0.0
 11
69.551100000000005
 21
127.261
 31
0.0
  0
LINE
  5
536
  8
0
 62
     7
 10
69.551100000000005
 20
127.261
 30
0.0
 11
69.527299999999997
 21
127.25699999999991
 31
0.0
  0
LINE
  5
537
  8
0
 62
     7
 10
69.527299999999997
 20
127.25699999999991
 30
0.0
 11
69.502799999999993
 21
127.254
 31
0.0
  0
LINE
  5
538
  8
0
 62
     7
 10
69.502799999999993
 20
127.254
 30
0.0
 11
69.478399999999993
 21
127.252
 31
0.0
  0
LINE
  5
539
  8
0
 62
     7
 10
69.478399999999993
 20
127.252
 30
0.0
 11
69.453199999999995
 21
127.2489999999999
 31
0.0
  0
LINE
  5
53A
  8
0
 62
     7
 10
69.453199999999995
 20
127.2489999999999
 30
0.0
 11
69.429100000000005
 21
127.24799999999991
 31
0.0
  0
LINE
  5
53B
  8
0
 62
     7
 10
69.429100000000005
 20
127.24799999999991
 30
0.0
 11
69.404300000000006
 21
127.247
 31
0.0
  0
LINE
  5
53C
  8
0
 62
     7
 10
69.404300000000006
 20
127.247
 30
0.0
 11
69.383600000000001
 21
127.247
 31
0.0
  0
LINE
  5
53D
  8
0
 62
     7
 10
64.304100000000005
 20
119.247
 30
0.0
 11
68.783799999999985
 21
119.247
 31
0.0
  0
LINE
  5
53E
  8
0
 62
     7
 10
69.183800000000005
 20
119.247
 30
0.0
 11
71.9833
 21
119.247
 31
0.0
  0
LINE
  5
53F
  8
0
 62
     7
 10
64.242800000000003
 20
119.245
 30
0.0
 11
64.280699999999996
 21
119.247
 31
0.0
  0
LINE
  5
540
  8
0
 62
     7
 10
64.280699999999996
 20
119.247
 30
0.0
 11
64.304100000000005
 21
119.247
 31
0.0
  0
LINE
  5
541
  8
0
 62
     7
 10
63.583799999999997
 20
100.0499999999999
 30
0.0
 11
52.783999999999999
 21
100.0499999999999
 31
0.0
  0
LINE
  5
542
  8
0
 62
     7
 10
63.683700000000002
 20
99.049199999999999
 30
0.0
 11
52.683799999999998
 21
99.049199999999999
 31
0.0
  0
LINE
  5
543
  8
0
 62
     7
 10
154.74499999999989
 20
124.342
 30
0.0
 11
154.83899999999991
 21
124.37599999999991
 31
0.0
  0
LINE
  5
544
  8
0
 62
     7
 10
148.63599999999991
 20
122.1189999999999
 30
0.0
 11
148.73099999999991
 21
122.15300000000001
 31
0.0
  0
LINE
  5
545
  8
0
 62
     7
 10
150.3779999999999
 20
127.0079999999999
 30
0.0
 11
150.3839999999999
 21
127.01000000000001
 31
0.0
  0
LINE
  5
546
  8
0
 62
     7
 10
150.39500000000001
 20
127.015
 30
0.0
 11
150.3779999999999
 21
127.0079999999999
 31
0.0
  0
LINE
  5
547
  8
0
 62
     7
 10
150.99899999999991
 20
127.67399999999989
 30
0.0
 11
150.994
 21
127.657
 31
0.0
  0
LINE
  5
548
  8
0
 62
     7
 10
150.994
 20
127.657
 30
0.0
 11
150.9859999999999
 21
127.63200000000001
 31
0.0
  0
LINE
  5
549
  8
0
 62
     7
 10
150.9859999999999
 20
127.63200000000001
 30
0.0
 11
150.97799999999989
 21
127.6089999999999
 31
0.0
  0
LINE
  5
54A
  8
0
 62
     7
 10
150.97799999999989
 20
127.6089999999999
 30
0.0
 11
150.96899999999991
 21
127.58499999999989
 31
0.0
  0
LINE
  5
54B
  8
0
 62
     7
 10
150.96899999999991
 20
127.58499999999989
 30
0.0
 11
150.96000000000001
 21
127.562
 31
0.0
  0
LINE
  5
54C
  8
0
 62
     7
 10
150.96000000000001
 20
127.562
 30
0.0
 11
150.9499999999999
 21
127.54000000000001
 31
0.0
  0
LINE
  5
54D
  8
0
 62
     7
 10
150.9499999999999
 20
127.54000000000001
 30
0.0
 11
150.94
 21
127.517
 31
0.0
  0
LINE
  5
54E
  8
0
 62
     7
 10
150.94
 20
127.517
 30
0.0
 11
150.929
 21
127.4939999999999
 31
0.0
  0
LINE
  5
54F
  8
0
 62
     7
 10
150.929
 20
127.4939999999999
 30
0.0
 11
150.917
 21
127.47199999999999
 31
0.0
  0
LINE
  5
550
  8
0
 62
     7
 10
150.917
 20
127.47199999999999
 30
0.0
 11
150.90399999999991
 21
127.4499999999999
 31
0.0
  0
LINE
  5
551
  8
0
 62
     7
 10
150.90399999999991
 20
127.4499999999999
 30
0.0
 11
150.89199999999991
 21
127.429
 31
0.0
  0
LINE
  5
552
  8
0
 62
     7
 10
150.89199999999991
 20
127.429
 30
0.0
 11
150.87899999999991
 21
127.4079999999999
 31
0.0
  0
LINE
  5
553
  8
0
 62
     7
 10
150.87899999999991
 20
127.4079999999999
 30
0.0
 11
150.86500000000001
 21
127.387
 31
0.0
  0
LINE
  5
554
  8
0
 62
     7
 10
150.86500000000001
 20
127.387
 30
0.0
 11
150.84999999999991
 21
127.366
 31
0.0
  0
LINE
  5
555
  8
0
 62
     7
 10
150.84999999999991
 20
127.366
 30
0.0
 11
150.83600000000001
 21
127.346
 31
0.0
  0
LINE
  5
556
  8
0
 62
     7
 10
150.83600000000001
 20
127.346
 30
0.0
 11
150.81999999999991
 21
127.32599999999999
 31
0.0
  0
LINE
  5
557
  8
0
 62
     7
 10
150.81999999999991
 20
127.32599999999999
 30
0.0
 11
150.804
 21
127.307
 31
0.0
  0
LINE
  5
558
  8
0
 62
     7
 10
150.804
 20
127.307
 30
0.0
 11
150.7879999999999
 21
127.288
 31
0.0
  0
LINE
  5
559
  8
0
 62
     7
 10
150.7879999999999
 20
127.288
 30
0.0
 11
150.77099999999999
 21
127.2699999999999
 31
0.0
  0
LINE
  5
55A
  8
0
 62
     7
 10
150.77099999999999
 20
127.2699999999999
 30
0.0
 11
150.75399999999991
 21
127.252
 31
0.0
  0
LINE
  5
55B
  8
0
 62
     7
 10
150.75399999999991
 20
127.252
 30
0.0
 11
150.73699999999991
 21
127.23399999999999
 31
0.0
  0
LINE
  5
55C
  8
0
 62
     7
 10
150.73699999999991
 20
127.23399999999999
 30
0.0
 11
150.7179999999999
 21
127.21599999999999
 31
0.0
  0
LINE
  5
55D
  8
0
 62
     7
 10
150.7179999999999
 20
127.21599999999999
 30
0.0
 11
150.6999999999999
 21
127.2
 31
0.0
  0
LINE
  5
55E
  8
0
 62
     7
 10
150.6999999999999
 20
127.2
 30
0.0
 11
150.68000000000001
 21
127.18300000000001
 31
0.0
  0
LINE
  5
55F
  8
0
 62
     7
 10
150.68000000000001
 20
127.18300000000001
 30
0.0
 11
150.661
 21
127.16799999999991
 31
0.0
  0
LINE
  5
560
  8
0
 62
     7
 10
150.661
 20
127.16799999999991
 30
0.0
 11
150.642
 21
127.1519999999999
 31
0.0
  0
LINE
  5
561
  8
0
 62
     7
 10
150.642
 20
127.1519999999999
 30
0.0
 11
150.62100000000001
 21
127.137
 31
0.0
  0
LINE
  5
562
  8
0
 62
     7
 10
150.62100000000001
 20
127.137
 30
0.0
 11
150.601
 21
127.122
 31
0.0
  0
LINE
  5
563
  8
0
 62
     7
 10
150.601
 20
127.122
 30
0.0
 11
150.58000000000001
 21
127.10899999999999
 31
0.0
  0
LINE
  5
564
  8
0
 62
     7
 10
150.58000000000001
 20
127.10899999999999
 30
0.0
 11
150.55899999999991
 21
127.096
 31
0.0
  0
LINE
  5
565
  8
0
 62
     7
 10
150.55899999999991
 20
127.096
 30
0.0
 11
150.53700000000001
 21
127.0829999999999
 31
0.0
  0
LINE
  5
566
  8
0
 62
     7
 10
150.53700000000001
 20
127.0829999999999
 30
0.0
 11
150.51599999999999
 21
127.071
 31
0.0
  0
LINE
  5
567
  8
0
 62
     7
 10
150.51599999999999
 20
127.071
 30
0.0
 11
150.495
 21
127.0599999999999
 31
0.0
  0
LINE
  5
568
  8
0
 62
     7
 10
150.495
 20
127.0599999999999
 30
0.0
 11
150.47499999999999
 21
127.04899999999989
 31
0.0
  0
LINE
  5
569
  8
0
 62
     7
 10
150.47499999999999
 20
127.04899999999989
 30
0.0
 11
150.45400000000001
 21
127.04000000000001
 31
0.0
  0
LINE
  5
56A
  8
0
 62
     7
 10
150.45400000000001
 20
127.04000000000001
 30
0.0
 11
150.434
 21
127.03100000000001
 31
0.0
  0
LINE
  5
56B
  8
0
 62
     7
 10
150.434
 20
127.03100000000001
 30
0.0
 11
150.41499999999991
 21
127.0229999999999
 31
0.0
  0
LINE
  5
56C
  8
0
 62
     7
 10
150.41499999999991
 20
127.0229999999999
 30
0.0
 11
150.39500000000001
 21
127.015
 31
0.0
  0
LINE
  5
56D
  8
0
 62
     7
 10
155.71000000000001
 20
122.777
 30
0.0
 11
155.71100000000001
 21
122.791
 31
0.0
  0
LINE
  5
56E
  8
0
 62
     7
 10
155.71100000000001
 20
122.791
 30
0.0
 11
155.71199999999999
 21
122.79899999999989
 31
0.0
  0
LINE
  5
56F
  8
0
 62
     7
 10
137.23400000000001
 20
130.876
 30
0.0
 11
137.23400000000001
 21
115.771
 31
0.0
  0
LINE
  5
570
  8
0
 62
     7
 10
157.238
 20
105.11799999999999
 30
0.0
 11
157.238
 21
100.842
 31
0.0
  0
LINE
  5
571
  8
0
 62
     7
 10
146.238
 20
105.11799999999999
 30
0.0
 11
146.238
 21
100.842
 31
0.0
  0
LINE
  5
572
  8
0
 62
     7
 10
157.238
 20
99.949100000000001
 30
0.0
 11
157.238
 21
99.049199999999999
 31
0.0
  0
LINE
  5
573
  8
0
 62
     7
 10
156.13799999999989
 20
128.56100000000001
 30
0.0
 11
156.13799999999989
 21
100.0499999999999
 31
0.0
  0
LINE
  5
574
  8
0
 62
     7
 10
155.71299999999991
 20
123.68299999999989
 30
0.0
 11
155.71299999999991
 21
123.68899999999999
 31
0.0
  0
LINE
  5
575
  8
0
 62
     7
 10
155.71299999999991
 20
123.68899999999999
 30
0.0
 11
155.71100000000001
 21
123.70699999999999
 31
0.0
  0
LINE
  5
576
  8
0
 62
     7
 10
155.71100000000001
 20
123.70699999999999
 30
0.0
 11
155.709
 21
123.72499999999989
 31
0.0
  0
LINE
  5
577
  8
0
 62
     7
 10
155.709
 20
123.72499999999989
 30
0.0
 11
155.70699999999991
 21
123.74299999999999
 31
0.0
  0
LINE
  5
578
  8
0
 62
     7
 10
155.70699999999991
 20
123.74299999999999
 30
0.0
 11
155.70400000000001
 21
123.761
 31
0.0
  0
LINE
  5
579
  8
0
 62
     7
 10
155.70400000000001
 20
123.761
 30
0.0
 11
155.702
 21
123.7789999999999
 31
0.0
  0
LINE
  5
57A
  8
0
 62
     7
 10
155.702
 20
123.7789999999999
 30
0.0
 11
155.6989999999999
 21
123.79600000000001
 31
0.0
  0
LINE
  5
57B
  8
0
 62
     7
 10
155.6989999999999
 20
123.79600000000001
 30
0.0
 11
155.69699999999989
 21
123.81399999999999
 31
0.0
  0
LINE
  5
57C
  8
0
 62
     7
 10
113.839
 20
169.22900000000001
 30
0.0
 11
109.63799999999991
 21
169.22900000000001
 31
0.0
  0
LINE
  5
57D
  8
0
 62
     7
 10
109.65899999999991
 20
169.209
 30
0.0
 11
113.8179999999999
 21
169.209
 31
0.0
  0
LINE
  5
57E
  8
0
 62
     7
 10
113.839
 20
169.18899999999999
 30
0.0
 11
109.63799999999991
 21
169.18899999999999
 31
0.0
  0
LINE
  5
57F
  8
0
 62
     7
 10
153.98199999999991
 20
143.21399999999991
 30
0.0
 11
153.98400000000001
 21
143.22099999999989
 31
0.0
  0
LINE
  5
580
  8
0
 62
     7
 10
153.98400000000001
 20
143.22099999999989
 30
0.0
 11
153.988
 21
143.2359999999999
 31
0.0
  0
LINE
  5
581
  8
0
 62
     7
 10
153.988
 20
143.2359999999999
 30
0.0
 11
153.99299999999999
 21
143.25
 31
0.0
  0
LINE
  5
582
  8
0
 62
     7
 10
153.99299999999999
 20
143.25
 30
0.0
 11
153.99700000000001
 21
143.262
 31
0.0
  0
LINE
  5
583
  8
0
 62
     7
 10
153.99700000000001
 20
143.262
 30
0.0
 11
154.001
 21
143.274
 31
0.0
  0
LINE
  5
584
  8
0
 62
     7
 10
154.001
 20
143.274
 30
0.0
 11
154.00499999999991
 21
143.28599999999989
 31
0.0
  0
LINE
  5
585
  8
0
 62
     7
 10
154.00499999999991
 20
143.28599999999989
 30
0.0
 11
154.00899999999999
 21
143.297
 31
0.0
  0
LINE
  5
586
  8
0
 62
     7
 10
154.00899999999999
 20
143.297
 30
0.0
 11
154.01299999999989
 21
143.30799999999991
 31
0.0
  0
LINE
  5
587
  8
0
 62
     7
 10
154.01299999999989
 20
143.30799999999991
 30
0.0
 11
154.01699999999991
 21
143.3179999999999
 31
0.0
  0
LINE
  5
588
  8
0
 62
     7
 10
154.01699999999991
 20
143.3179999999999
 30
0.0
 11
154.02099999999999
 21
143.328
 31
0.0
  0
LINE
  5
589
  8
0
 62
     7
 10
154.02099999999999
 20
143.328
 30
0.0
 11
154.024
 21
143.33699999999999
 31
0.0
  0
LINE
  5
58A
  8
0
 62
     7
 10
154.024
 20
143.33699999999999
 30
0.0
 11
154.02799999999991
 21
143.346
 31
0.0
  0
LINE
  5
58B
  8
0
 62
     7
 10
154.02799999999991
 20
143.346
 30
0.0
 11
154.03100000000001
 21
143.3549999999999
 31
0.0
  0
LINE
  5
58C
  8
0
 62
     7
 10
154.03100000000001
 20
143.3549999999999
 30
0.0
 11
154.035
 21
143.36299999999989
 31
0.0
  0
LINE
  5
58D
  8
0
 62
     7
 10
154.035
 20
143.36299999999989
 30
0.0
 11
154.0379999999999
 21
143.37100000000001
 31
0.0
  0
LINE
  5
58E
  8
0
 62
     7
 10
154.0379999999999
 20
143.37100000000001
 30
0.0
 11
154.041
 21
143.37899999999991
 31
0.0
  0
LINE
  5
58F
  8
0
 62
     7
 10
154.041
 20
143.37899999999991
 30
0.0
 11
154.0439999999999
 21
143.38599999999991
 31
0.0
  0
LINE
  5
590
  8
0
 62
     7
 10
154.0439999999999
 20
143.38599999999991
 30
0.0
 11
154.047
 21
143.39299999999989
 31
0.0
  0
LINE
  5
591
  8
0
 62
     7
 10
154.047
 20
143.39299999999989
 30
0.0
 11
154.05000000000001
 21
143.399
 31
0.0
  0
LINE
  5
592
  8
0
 62
     7
 10
154.05000000000001
 20
143.399
 30
0.0
 11
154.05299999999991
 21
143.40600000000001
 31
0.0
  0
LINE
  5
593
  8
0
 62
     7
 10
154.05299999999991
 20
143.40600000000001
 30
0.0
 11
154.05600000000001
 21
143.41200000000001
 31
0.0
  0
LINE
  5
594
  8
0
 62
     7
 10
154.05600000000001
 20
143.41200000000001
 30
0.0
 11
154.05899999999991
 21
143.41800000000001
 31
0.0
  0
LINE
  5
595
  8
0
 62
     7
 10
154.05899999999991
 20
143.41800000000001
 30
0.0
 11
154.06200000000001
 21
143.423
 31
0.0
  0
LINE
  5
596
  8
0
 62
     7
 10
154.06200000000001
 20
143.423
 30
0.0
 11
154.06399999999991
 21
143.429
 31
0.0
  0
LINE
  5
597
  8
0
 62
     7
 10
154.06399999999991
 20
143.429
 30
0.0
 11
154.06700000000001
 21
143.43399999999991
 31
0.0
  0
LINE
  5
598
  8
0
 62
     7
 10
154.06700000000001
 20
143.43399999999991
 30
0.0
 11
154.0689999999999
 21
143.4379999999999
 31
0.0
  0
LINE
  5
599
  8
0
 62
     7
 10
154.0689999999999
 20
143.4379999999999
 30
0.0
 11
154.072
 21
143.4429999999999
 31
0.0
  0
LINE
  5
59A
  8
0
 62
     7
 10
154.072
 20
143.4429999999999
 30
0.0
 11
154.0739999999999
 21
143.44799999999989
 31
0.0
  0
LINE
  5
59B
  8
0
 62
     7
 10
154.0739999999999
 20
143.44799999999989
 30
0.0
 11
154.07599999999991
 21
143.452
 31
0.0
  0
LINE
  5
59C
  8
0
 62
     7
 10
154.07599999999991
 20
143.452
 30
0.0
 11
154.07900000000001
 21
143.45599999999999
 31
0.0
  0
LINE
  5
59D
  8
0
 62
     7
 10
154.07900000000001
 20
143.45599999999999
 30
0.0
 11
154.08000000000001
 21
143.46000000000001
 31
0.0
  0
LINE
  5
59E
  8
0
 62
     7
 10
154.08000000000001
 20
143.46000000000001
 30
0.0
 11
154.08299999999991
 21
143.46399999999991
 31
0.0
  0
LINE
  5
59F
  8
0
 62
     7
 10
154.08299999999991
 20
143.46399999999991
 30
0.0
 11
154.084
 21
143.46700000000001
 31
0.0
  0
LINE
  5
5A0
  8
0
 62
     7
 10
154.084
 20
143.46700000000001
 30
0.0
 11
154.08600000000001
 21
143.471
 31
0.0
  0
LINE
  5
5A1
  8
0
 62
     7
 10
154.08600000000001
 20
143.471
 30
0.0
 11
154.08799999999999
 21
143.4739999999999
 31
0.0
  0
LINE
  5
5A2
  8
0
 62
     7
 10
154.08799999999999
 20
143.4739999999999
 30
0.0
 11
154.09
 21
143.477
 31
0.0
  0
LINE
  5
5A3
  8
0
 62
     7
 10
154.09
 20
143.477
 30
0.0
 11
154.09200000000001
 21
143.4789999999999
 31
0.0
  0
LINE
  5
5A4
  8
0
 62
     7
 10
154.09200000000001
 20
143.4789999999999
 30
0.0
 11
154.09399999999991
 21
143.482
 31
0.0
  0
LINE
  5
5A5
  8
0
 62
     7
 10
154.09399999999991
 20
143.482
 30
0.0
 11
154.095
 21
143.48400000000001
 31
0.0
  0
LINE
  5
5A6
  8
0
 62
     7
 10
154.095
 20
143.48400000000001
 30
0.0
 11
154.09700000000001
 21
143.48699999999991
 31
0.0
  0
LINE
  5
5A7
  8
0
 62
     7
 10
154.09700000000001
 20
143.48699999999991
 30
0.0
 11
154.0979999999999
 21
143.489
 31
0.0
  0
LINE
  5
5A8
  8
0
 62
     7
 10
154.0979999999999
 20
143.489
 30
0.0
 11
154.0989999999999
 21
143.49100000000001
 31
0.0
  0
LINE
  5
5A9
  8
0
 62
     7
 10
154.0989999999999
 20
143.49100000000001
 30
0.0
 11
154.09999999999991
 21
143.49299999999999
 31
0.0
  0
LINE
  5
5AA
  8
0
 62
     7
 10
154.09999999999991
 20
143.49299999999999
 30
0.0
 11
154.102
 21
143.494
 31
0.0
  0
LINE
  5
5AB
  8
0
 62
     7
 10
154.102
 20
143.494
 30
0.0
 11
154.10299999999989
 21
143.49600000000001
 31
0.0
  0
LINE
  5
5AC
  8
0
 62
     7
 10
154.10299999999989
 20
143.49600000000001
 30
0.0
 11
154.1039999999999
 21
143.49799999999991
 31
0.0
  0
LINE
  5
5AD
  8
0
 62
     7
 10
154.1039999999999
 20
143.49799999999991
 30
0.0
 11
154.10499999999999
 21
143.49899999999991
 31
0.0
  0
LINE
  5
5AE
  8
0
 62
     7
 10
154.10499999999999
 20
143.49899999999991
 30
0.0
 11
154.10599999999991
 21
143.5
 31
0.0
  0
LINE
  5
5AF
  8
0
 62
     7
 10
154.10599999999991
 20
143.5
 30
0.0
 11
154.10599999999991
 21
143.501
 31
0.0
  0
LINE
  5
5B0
  8
0
 62
     7
 10
154.13800000000001
 20
141.75999999999999
 30
0.0
 11
154.13800000000001
 21
136.15000000000001
 31
0.0
  0
LINE
  5
5B1
  8
0
 62
     7
 10
154.13800000000001
 20
146.96899999999991
 30
0.0
 11
154.13800000000001
 21
143.5389999999999
 31
0.0
  0
LINE
  5
5B2
  8
0
 62
     7
 10
154.03700000000001
 20
143.00999999999991
 30
0.0
 11
154.03700000000001
 21
142.28999999999999
 31
0.0
  0
LINE
  5
5B3
  8
0
 62
     7
 10
153.922
 20
143.28999999999991
 30
0.0
 11
153.922
 21
143.49899999999991
 31
0.0
  0
LINE
  5
5B4
  8
0
 62
     7
 10
153.922
 20
141.79900000000001
 30
0.0
 11
153.922
 21
142.0089999999999
 31
0.0
  0
LINE
  5
5B5
  8
0
 62
     7
 10
153.83799999999999
 20
147.10900000000001
 30
0.0
 11
153.83799999999999
 21
177.15000000000001
 31
0.0
  0
LINE
  5
5B6
  8
0
 62
     7
 10
153.8179999999999
 20
142.4439999999999
 30
0.0
 11
153.8179999999999
 21
142.8549999999999
 31
0.0
  0
LINE
  5
5B7
  8
0
 62
     7
 10
152.43700000000001
 20
127.949
 30
0.0
 11
152.43700000000001
 21
139.74600000000001
 31
0.0
  0
LINE
  5
5B8
  8
0
 62
     7
 10
155.72099999999989
 20
123.607
 30
0.0
 11
155.72099999999989
 21
123.611
 31
0.0
  0
LINE
  5
5B9
  8
0
 62
     7
 10
155.72099999999989
 20
123.611
 30
0.0
 11
155.71899999999999
 21
123.62899999999991
 31
0.0
  0
LINE
  5
5BA
  8
0
 62
     7
 10
155.71899999999999
 20
123.62899999999991
 30
0.0
 11
155.71700000000001
 21
123.646
 31
0.0
  0
LINE
  5
5BB
  8
0
 62
     7
 10
155.71700000000001
 20
123.646
 30
0.0
 11
155.71600000000001
 21
123.66500000000001
 31
0.0
  0
LINE
  5
5BC
  8
0
 62
     7
 10
155.71600000000001
 20
123.66500000000001
 30
0.0
 11
155.71299999999991
 21
123.68299999999989
 31
0.0
  0
LINE
  5
5BD
  8
0
 62
     7
 10
155.69699999999989
 20
123.81399999999999
 30
0.0
 11
155.696
 21
123.822
 31
0.0
  0
LINE
  5
5BE
  8
0
 62
     7
 10
155.696
 20
123.822
 30
0.0
 11
155.6929999999999
 21
123.84
 31
0.0
  0
LINE
  5
5BF
  8
0
 62
     7
 10
155.6929999999999
 20
123.84
 30
0.0
 11
155.691
 21
123.858
 31
0.0
  0
LINE
  5
5C0
  8
0
 62
     7
 10
155.691
 20
123.858
 30
0.0
 11
155.6879999999999
 21
123.876
 31
0.0
  0
LINE
  5
5C1
  8
0
 62
     7
 10
155.6879999999999
 20
123.876
 30
0.0
 11
155.685
 21
123.8929999999999
 31
0.0
  0
LINE
  5
5C2
  8
0
 62
     7
 10
155.685
 20
123.8929999999999
 30
0.0
 11
155.68199999999999
 21
123.91
 31
0.0
  0
LINE
  5
5C3
  8
0
 62
     7
 10
109.339
 20
165.34899999999999
 30
0.0
 11
114.13799999999991
 21
165.34899999999999
 31
0.0
  0
LINE
  5
5C4
  8
0
 62
     7
 10
151.0379999999999
 20
139.74600000000001
 30
0.0
 11
151.0379999999999
 21
127.949
 31
0.0
  0
LINE
  5
5C5
  8
0
 62
     7
 10
149.63800000000001
 20
147.10900000000001
 30
0.0
 11
149.63800000000001
 21
177.15000000000001
 31
0.0
  0
LINE
  5
5C6
  8
0
 62
     7
 10
149.42500000000001
 20
146.97799999999989
 30
0.0
 11
149.42500000000001
 21
144.96100000000001
 31
0.0
  0
LINE
  5
5C7
  8
0
 62
     7
 10
149.33799999999991
 20
144.65000000000001
 30
0.0
 11
149.33799999999991
 21
136.15000000000001
 31
0.0
  0
LINE
  5
5C8
  8
0
 62
     7
 10
154.10599999999991
 20
141.798
 30
0.0
 11
154.10599999999991
 21
141.79900000000001
 31
0.0
  0
LINE
  5
5C9
  8
0
 62
     7
 10
154.10599999999991
 20
141.79900000000001
 30
0.0
 11
154.10499999999999
 21
141.80099999999999
 31
0.0
  0
LINE
  5
5CA
  8
0
 62
     7
 10
154.10499999999999
 20
141.80099999999999
 30
0.0
 11
154.1039999999999
 21
141.80199999999999
 31
0.0
  0
LINE
  5
5CB
  8
0
 62
     7
 10
154.1039999999999
 20
141.80199999999999
 30
0.0
 11
154.10299999999989
 21
141.80299999999991
 31
0.0
  0
LINE
  5
5CC
  8
0
 62
     7
 10
154.10299999999989
 20
141.80299999999991
 30
0.0
 11
154.10099999999991
 21
141.80500000000001
 31
0.0
  0
LINE
  5
5CD
  8
0
 62
     7
 10
154.10099999999991
 20
141.80500000000001
 30
0.0
 11
154.09999999999991
 21
141.80699999999999
 31
0.0
  0
LINE
  5
5CE
  8
0
 62
     7
 10
154.09999999999991
 20
141.80699999999999
 30
0.0
 11
154.0989999999999
 21
141.809
 31
0.0
  0
LINE
  5
5CF
  8
0
 62
     7
 10
154.0989999999999
 20
141.809
 30
0.0
 11
154.09700000000001
 21
141.81100000000001
 31
0.0
  0
LINE
  5
5D0
  8
0
 62
     7
 10
154.09700000000001
 20
141.81100000000001
 30
0.0
 11
154.096
 21
141.8129999999999
 31
0.0
  0
LINE
  5
5D1
  8
0
 62
     7
 10
154.096
 20
141.8129999999999
 30
0.0
 11
154.095
 21
141.81499999999991
 31
0.0
  0
LINE
  5
5D2
  8
0
 62
     7
 10
154.095
 20
141.81499999999991
 30
0.0
 11
154.0929999999999
 21
141.8179999999999
 31
0.0
  0
LINE
  5
5D3
  8
0
 62
     7
 10
154.0929999999999
 20
141.8179999999999
 30
0.0
 11
154.09100000000001
 21
141.81999999999991
 31
0.0
  0
LINE
  5
5D4
  8
0
 62
     7
 10
154.09100000000001
 20
141.81999999999991
 30
0.0
 11
154.089
 21
141.82299999999989
 31
0.0
  0
LINE
  5
5D5
  8
0
 62
     7
 10
154.089
 20
141.82299999999989
 30
0.0
 11
154.08799999999999
 21
141.82699999999991
 31
0.0
  0
LINE
  5
5D6
  8
0
 62
     7
 10
154.08799999999999
 20
141.82699999999991
 30
0.0
 11
154.08600000000001
 21
141.83000000000001
 31
0.0
  0
LINE
  5
5D7
  8
0
 62
     7
 10
154.08600000000001
 20
141.83000000000001
 30
0.0
 11
154.084
 21
141.833
 31
0.0
  0
LINE
  5
5D8
  8
0
 62
     7
 10
154.084
 20
141.833
 30
0.0
 11
154.08099999999999
 21
141.83699999999999
 31
0.0
  0
LINE
  5
5D9
  8
0
 62
     7
 10
154.08099999999999
 20
141.83699999999999
 30
0.0
 11
154.08000000000001
 21
141.84
 31
0.0
  0
LINE
  5
5DA
  8
0
 62
     7
 10
154.08000000000001
 20
141.84
 30
0.0
 11
154.07799999999989
 21
141.84399999999991
 31
0.0
  0
LINE
  5
5DB
  8
0
 62
     7
 10
154.07799999999989
 20
141.84399999999991
 30
0.0
 11
154.0749999999999
 21
141.8479999999999
 31
0.0
  0
LINE
  5
5DC
  8
0
 62
     7
 10
154.0749999999999
 20
141.8479999999999
 30
0.0
 11
154.07299999999989
 21
141.85299999999989
 31
0.0
  0
LINE
  5
5DD
  8
0
 62
     7
 10
154.07299999999989
 20
141.85299999999989
 30
0.0
 11
154.06999999999999
 21
141.857
 31
0.0
  0
LINE
  5
5DE
  8
0
 62
     7
 10
154.06999999999999
 20
141.857
 30
0.0
 11
154.0679999999999
 21
141.86199999999991
 31
0.0
  0
LINE
  5
5DF
  8
0
 62
     7
 10
154.0679999999999
 20
141.86199999999991
 30
0.0
 11
154.066
 21
141.86699999999999
 31
0.0
  0
LINE
  5
5E0
  8
0
 62
     7
 10
154.066
 20
141.86699999999999
 30
0.0
 11
154.06399999999991
 21
141.87200000000001
 31
0.0
  0
LINE
  5
5E1
  8
0
 62
     7
 10
154.06399999999991
 20
141.87200000000001
 30
0.0
 11
154.06100000000001
 21
141.8779999999999
 31
0.0
  0
LINE
  5
5E2
  8
0
 62
     7
 10
154.06100000000001
 20
141.8779999999999
 30
0.0
 11
154.05799999999999
 21
141.8829999999999
 31
0.0
  0
LINE
  5
5E3
  8
0
 62
     7
 10
154.05799999999999
 20
141.8829999999999
 30
0.0
 11
154.05500000000001
 21
141.88900000000001
 31
0.0
  0
LINE
  5
5E4
  8
0
 62
     7
 10
154.05500000000001
 20
141.88900000000001
 30
0.0
 11
154.05199999999999
 21
141.89500000000001
 31
0.0
  0
LINE
  5
5E5
  8
0
 62
     7
 10
154.05199999999999
 20
141.89500000000001
 30
0.0
 11
154.04900000000001
 21
141.90199999999999
 31
0.0
  0
LINE
  5
5E6
  8
0
 62
     7
 10
154.04900000000001
 20
141.90199999999999
 30
0.0
 11
154.047
 21
141.90899999999991
 31
0.0
  0
LINE
  5
5E7
  8
0
 62
     7
 10
154.047
 20
141.90899999999991
 30
0.0
 11
154.04300000000001
 21
141.91599999999991
 31
0.0
  0
LINE
  5
5E8
  8
0
 62
     7
 10
154.04300000000001
 20
141.91599999999991
 30
0.0
 11
154.03999999999991
 21
141.92299999999989
 31
0.0
  0
LINE
  5
5E9
  8
0
 62
     7
 10
154.03999999999991
 20
141.92299999999989
 30
0.0
 11
154.03599999999989
 21
141.93100000000001
 31
0.0
  0
LINE
  5
5EA
  8
0
 62
     7
 10
154.03599999999989
 20
141.93100000000001
 30
0.0
 11
154.0329999999999
 21
141.93899999999991
 31
0.0
  0
LINE
  5
5EB
  8
0
 62
     7
 10
154.0329999999999
 20
141.93899999999991
 30
0.0
 11
154.03
 21
141.947
 31
0.0
  0
LINE
  5
5EC
  8
0
 62
     7
 10
154.03
 20
141.947
 30
0.0
 11
154.02600000000001
 21
141.95599999999999
 31
0.0
  0
LINE
  5
5ED
  8
0
 62
     7
 10
154.02600000000001
 20
141.95599999999999
 30
0.0
 11
154.023
 21
141.965
 31
0.0
  0
LINE
  5
5EE
  8
0
 62
     7
 10
154.023
 20
141.965
 30
0.0
 11
154.01900000000001
 21
141.97499999999999
 31
0.0
  0
LINE
  5
5EF
  8
0
 62
     7
 10
154.01900000000001
 20
141.97499999999999
 30
0.0
 11
154.0149999999999
 21
141.98500000000001
 31
0.0
  0
LINE
  5
5F0
  8
0
 62
     7
 10
154.0149999999999
 20
141.98500000000001
 30
0.0
 11
154.011
 21
141.99600000000001
 31
0.0
  0
LINE
  5
5F1
  8
0
 62
     7
 10
154.011
 20
141.99600000000001
 30
0.0
 11
154.00700000000001
 21
142.006
 31
0.0
  0
LINE
  5
5F2
  8
0
 62
     7
 10
154.00700000000001
 20
142.006
 30
0.0
 11
154.00399999999991
 21
142.018
 31
0.0
  0
LINE
  5
5F3
  8
0
 62
     7
 10
154.00399999999991
 20
142.018
 30
0.0
 11
153.99899999999991
 21
142.03
 31
0.0
  0
LINE
  5
5F4
  8
0
 62
     7
 10
153.99899999999991
 20
142.03
 30
0.0
 11
153.995
 21
142.042
 31
0.0
  0
LINE
  5
5F5
  8
0
 62
     7
 10
153.995
 20
142.042
 30
0.0
 11
153.99100000000001
 21
142.05600000000001
 31
0.0
  0
LINE
  5
5F6
  8
0
 62
     7
 10
153.99100000000001
 20
142.05600000000001
 30
0.0
 11
153.98599999999999
 21
142.06999999999991
 31
0.0
  0
LINE
  5
5F7
  8
0
 62
     7
 10
153.98599999999999
 20
142.06999999999991
 30
0.0
 11
153.98199999999991
 21
142.08500000000001
 31
0.0
  0
LINE
  5
5F8
  8
0
 62
     7
 10
153.98199999999991
 20
142.08500000000001
 30
0.0
 11
153.98199999999991
 21
142.08500000000001
 31
0.0
  0
LINE
  5
5F9
  8
0
 62
     7
 10
147.33799999999991
 20
128.56100000000001
 30
0.0
 11
147.33799999999991
 21
100.0499999999999
 31
0.0
  0
LINE
  5
5FA
  8
0
 62
     7
 10
146.238
 20
99.949100000000001
 30
0.0
 11
146.238
 21
99.049199999999999
 31
0.0
  0
LINE
  5
5FB
  8
0
 62
     7
 10
147.73699999999999
 20
123.247
 30
0.0
 11
147.73799999999989
 21
123.1959999999999
 31
0.0
  0
LINE
  5
5FC
  8
0
 62
     7
 10
147.73799999999989
 20
123.1959999999999
 30
0.0
 11
147.73899999999989
 21
123.1429999999999
 31
0.0
  0
LINE
  5
5FD
  8
0
 62
     7
 10
147.73899999999989
 20
123.1429999999999
 30
0.0
 11
147.74000000000001
 21
123.089
 31
0.0
  0
LINE
  5
5FE
  8
0
 62
     7
 10
147.74000000000001
 20
123.089
 30
0.0
 11
147.74299999999999
 21
123.03399999999991
 31
0.0
  0
LINE
  5
5FF
  8
0
 62
     7
 10
147.74299999999999
 20
123.03399999999991
 30
0.0
 11
147.74700000000001
 21
122.98099999999999
 31
0.0
  0
LINE
  5
600
  8
0
 62
     7
 10
147.74700000000001
 20
122.98099999999999
 30
0.0
 11
147.751
 21
122.92700000000001
 31
0.0
  0
LINE
  5
601
  8
0
 62
     7
 10
147.751
 20
122.92700000000001
 30
0.0
 11
147.75499999999991
 21
122.8739999999999
 31
0.0
  0
LINE
  5
602
  8
0
 62
     7
 10
147.75499999999991
 20
122.8739999999999
 30
0.0
 11
147.75999999999991
 21
122.821
 31
0.0
  0
LINE
  5
603
  8
0
 62
     7
 10
147.75999999999991
 20
122.821
 30
0.0
 11
147.76599999999999
 21
122.7679999999999
 31
0.0
  0
LINE
  5
604
  8
0
 62
     7
 10
147.76599999999999
 20
122.7679999999999
 30
0.0
 11
147.773
 21
122.7149999999999
 31
0.0
  0
LINE
  5
605
  8
0
 62
     7
 10
147.773
 20
122.7149999999999
 30
0.0
 11
147.78
 21
122.6639999999999
 31
0.0
  0
LINE
  5
606
  8
0
 62
     7
 10
147.78
 20
122.6639999999999
 30
0.0
 11
147.7879999999999
 21
122.61199999999999
 31
0.0
  0
LINE
  5
607
  8
0
 62
     7
 10
147.7879999999999
 20
122.61199999999999
 30
0.0
 11
147.797
 21
122.56100000000001
 31
0.0
  0
LINE
  5
608
  8
0
 62
     7
 10
147.797
 20
122.56100000000001
 30
0.0
 11
147.80000000000001
 21
122.54599999999991
 31
0.0
  0
LINE
  5
609
  8
0
 62
     7
 10
113.839
 20
169.18899999999999
 30
0.0
 11
113.8179999999999
 21
169.209
 31
0.0
  0
LINE
  5
60A
  8
0
 62
     7
 10
108.392
 20
151.649
 30
0.0
 11
108.6389999999999
 21
151.649
 31
0.0
  0
LINE
  5
60B
  8
0
 62
     7
 10
108.392
 20
149.649
 30
0.0
 11
108.6389999999999
 21
149.649
 31
0.0
  0
LINE
  5
60C
  8
0
 62
     7
 10
109.65899999999991
 20
169.209
 30
0.0
 11
109.63799999999991
 21
169.22900000000001
 31
0.0
  0
LINE
  5
60D
  8
0
 62
     7
 10
149.63800000000001
 20
147.10900000000001
 30
0.0
 11
153.83799999999999
 21
147.10900000000001
 31
0.0
  0
LINE
  5
60E
  8
0
 62
     7
 10
108.26899999999991
 20
147.04900000000001
 30
0.0
 11
154.05699999999999
 21
147.04900000000001
 31
0.0
  0
LINE
  5
60F
  8
0
 62
     7
 10
148.9379999999999
 20
145.04900000000001
 30
0.0
 11
108.26899999999991
 21
145.04900000000001
 31
0.0
  0
LINE
  5
610
  8
0
 62
     7
 10
154.0979999999999
 20
143.49899999999991
 30
0.0
 11
151.578
 21
143.49899999999991
 31
0.0
  0
LINE
  5
611
  8
0
 62
     7
 10
151.578
 20
141.79900000000001
 30
0.0
 11
154.0979999999999
 21
141.79900000000001
 31
0.0
  0
LINE
  5
612
  8
0
 62
     7
 10
153.0979999999999
 20
127.0079999999999
 30
0.0
 11
153.08099999999999
 21
127.015
 31
0.0
  0
LINE
  5
613
  8
0
 62
     7
 10
153.08099999999999
 20
127.015
 30
0.0
 11
153.05999999999989
 21
127.0229999999999
 31
0.0
  0
LINE
  5
614
  8
0
 62
     7
 10
153.05999999999989
 20
127.0229999999999
 30
0.0
 11
153.0379999999999
 21
127.032
 31
0.0
  0
LINE
  5
615
  8
0
 62
     7
 10
153.0379999999999
 20
127.032
 30
0.0
 11
153.01599999999991
 21
127.042
 31
0.0
  0
LINE
  5
616
  8
0
 62
     7
 10
153.01599999999991
 20
127.042
 30
0.0
 11
152.995
 21
127.05200000000001
 31
0.0
  0
LINE
  5
617
  8
0
 62
     7
 10
152.995
 20
127.05200000000001
 30
0.0
 11
152.9739999999999
 21
127.0629999999999
 31
0.0
  0
LINE
  5
618
  8
0
 62
     7
 10
152.9739999999999
 20
127.0629999999999
 30
0.0
 11
152.953
 21
127.075
 31
0.0
  0
LINE
  5
619
  8
0
 62
     7
 10
152.953
 20
127.075
 30
0.0
 11
152.93100000000001
 21
127.087
 31
0.0
  0
LINE
  5
61A
  8
0
 62
     7
 10
152.93100000000001
 20
127.087
 30
0.0
 11
152.90999999999991
 21
127.0989999999999
 31
0.0
  0
LINE
  5
61B
  8
0
 62
     7
 10
152.90999999999991
 20
127.0989999999999
 30
0.0
 11
152.88900000000001
 21
127.113
 31
0.0
  0
LINE
  5
61C
  8
0
 62
     7
 10
152.88900000000001
 20
127.113
 30
0.0
 11
152.86799999999999
 21
127.127
 31
0.0
  0
LINE
  5
61D
  8
0
 62
     7
 10
152.86799999999999
 20
127.127
 30
0.0
 11
152.8479999999999
 21
127.14100000000001
 31
0.0
  0
LINE
  5
61E
  8
0
 62
     7
 10
152.8479999999999
 20
127.14100000000001
 30
0.0
 11
152.828
 21
127.157
 31
0.0
  0
LINE
  5
61F
  8
0
 62
     7
 10
152.828
 20
127.157
 30
0.0
 11
152.80899999999991
 21
127.172
 31
0.0
  0
LINE
  5
620
  8
0
 62
     7
 10
152.80899999999991
 20
127.172
 30
0.0
 11
152.78899999999999
 21
127.1879999999999
 31
0.0
  0
LINE
  5
621
  8
0
 62
     7
 10
152.78899999999999
 20
127.1879999999999
 30
0.0
 11
152.77099999999999
 21
127.20399999999999
 31
0.0
  0
LINE
  5
622
  8
0
 62
     7
 10
152.77099999999999
 20
127.20399999999999
 30
0.0
 11
152.7529999999999
 21
127.2199999999999
 31
0.0
  0
LINE
  5
623
  8
0
 62
     7
 10
152.7529999999999
 20
127.2199999999999
 30
0.0
 11
152.73500000000001
 21
127.238
 31
0.0
  0
LINE
  5
624
  8
0
 62
     7
 10
152.73500000000001
 20
127.238
 30
0.0
 11
152.71700000000001
 21
127.256
 31
0.0
  0
LINE
  5
625
  8
0
 62
     7
 10
152.71700000000001
 20
127.256
 30
0.0
 11
152.6999999999999
 21
127.2739999999999
 31
0.0
  0
LINE
  5
626
  8
0
 62
     7
 10
152.6999999999999
 20
127.2739999999999
 30
0.0
 11
152.68299999999991
 21
127.292
 31
0.0
  0
LINE
  5
627
  8
0
 62
     7
 10
152.68299999999991
 20
127.292
 30
0.0
 11
152.66799999999989
 21
127.31100000000001
 31
0.0
  0
LINE
  5
628
  8
0
 62
     7
 10
152.66799999999989
 20
127.31100000000001
 30
0.0
 11
152.65199999999999
 21
127.331
 31
0.0
  0
LINE
  5
629
  8
0
 62
     7
 10
152.65199999999999
 20
127.331
 30
0.0
 11
152.637
 21
127.34999999999999
 31
0.0
  0
LINE
  5
62A
  8
0
 62
     7
 10
152.637
 20
127.34999999999999
 30
0.0
 11
152.62200000000001
 21
127.37
 31
0.0
  0
LINE
  5
62B
  8
0
 62
     7
 10
152.62200000000001
 20
127.37
 30
0.0
 11
152.608
 21
127.39
 31
0.0
  0
LINE
  5
62C
  8
0
 62
     7
 10
152.608
 20
127.39
 30
0.0
 11
152.59499999999991
 21
127.41200000000001
 31
0.0
  0
LINE
  5
62D
  8
0
 62
     7
 10
152.59499999999991
 20
127.41200000000001
 30
0.0
 11
152.58099999999999
 21
127.432
 31
0.0
  0
LINE
  5
62E
  8
0
 62
     7
 10
152.58099999999999
 20
127.432
 30
0.0
 11
152.5689999999999
 21
127.45399999999999
 31
0.0
  0
LINE
  5
62F
  8
0
 62
     7
 10
152.5689999999999
 20
127.45399999999999
 30
0.0
 11
152.55699999999999
 21
127.476
 31
0.0
  0
LINE
  5
630
  8
0
 62
     7
 10
152.55699999999999
 20
127.476
 30
0.0
 11
152.54499999999999
 21
127.497
 31
0.0
  0
LINE
  5
631
  8
0
 62
     7
 10
152.54499999999999
 20
127.497
 30
0.0
 11
152.53399999999991
 21
127.5199999999999
 31
0.0
  0
LINE
  5
632
  8
0
 62
     7
 10
152.53399999999991
 20
127.5199999999999
 30
0.0
 11
152.524
 21
127.54299999999991
 31
0.0
  0
LINE
  5
633
  8
0
 62
     7
 10
152.524
 20
127.54299999999991
 30
0.0
 11
152.51400000000001
 21
127.5649999999999
 31
0.0
  0
LINE
  5
634
  8
0
 62
     7
 10
152.51400000000001
 20
127.5649999999999
 30
0.0
 11
152.505
 21
127.58799999999989
 31
0.0
  0
LINE
  5
635
  8
0
 62
     7
 10
152.505
 20
127.58799999999989
 30
0.0
 11
152.49600000000001
 21
127.61199999999999
 31
0.0
  0
LINE
  5
636
  8
0
 62
     7
 10
152.49600000000001
 20
127.61199999999999
 30
0.0
 11
152.488
 21
127.63500000000001
 31
0.0
  0
LINE
  5
637
  8
0
 62
     7
 10
152.488
 20
127.63500000000001
 30
0.0
 11
152.48099999999991
 21
127.65899999999991
 31
0.0
  0
LINE
  5
638
  8
0
 62
     7
 10
152.48099999999991
 20
127.65899999999991
 30
0.0
 11
152.4789999999999
 21
127.6659999999999
 31
0.0
  0
LINE
  5
639
  8
0
 62
     7
 10
114.839
 20
157.749
 30
0.0
 11
114.839
 21
147.04900000000001
 31
0.0
  0
LINE
  5
63A
  8
0
 62
     7
 10
148.73099999999991
 20
124.342
 30
0.0
 11
148.63599999999991
 21
124.37599999999991
 31
0.0
  0
LINE
  5
63B
  8
0
 62
     7
 10
154.83899999999991
 20
122.1189999999999
 30
0.0
 11
154.74499999999989
 21
122.15300000000001
 31
0.0
  0
LINE
  5
63C
  8
0
 62
     7
 10
114.13799999999991
 20
165.34899999999999
 30
0.0
 11
114.13799999999991
 21
162.12100000000001
 31
0.0
  0
LINE
  5
63D
  8
0
 62
     7
 10
113.839
 20
169.18899999999999
 30
0.0
 11
113.839
 21
165.34899999999999
 31
0.0
  0
LINE
  5
63E
  8
0
 62
     7
 10
113.839
 20
177.15000000000001
 30
0.0
 11
113.839
 21
169.22900000000001
 31
0.0
  0
LINE
  5
63F
  8
0
 62
     7
 10
109.63799999999991
 20
169.18899999999999
 30
0.0
 11
109.63799999999991
 21
165.34899999999999
 31
0.0
  0
LINE
  5
640
  8
0
 62
     7
 10
109.63799999999991
 20
177.15000000000001
 30
0.0
 11
109.63799999999991
 21
169.22900000000001
 31
0.0
  0
LINE
  5
641
  8
0
 62
     7
 10
109.339
 20
165.34899999999999
 30
0.0
 11
109.339
 21
162.12100000000001
 31
0.0
  0
LINE
  5
642
  8
0
 62
     7
 10
108.6389999999999
 20
149.649
 30
0.0
 11
108.6389999999999
 21
147.04900000000001
 31
0.0
  0
LINE
  5
643
  8
0
 62
     7
 10
108.6389999999999
 20
157.749
 30
0.0
 11
108.6389999999999
 21
151.649
 31
0.0
  0
LINE
  5
644
  8
0
 62
     7
 10
108.1879999999999
 20
145.12899999999999
 30
0.0
 11
108.1879999999999
 21
146.96899999999991
 31
0.0
  0
LINE
  5
645
  8
0
 62
     7
 10
113.8179999999999
 20
169.209
 30
0.0
 11
113.839
 21
169.22900000000001
 31
0.0
  0
LINE
  5
646
  8
0
 62
     7
 10
109.63799999999991
 20
169.18899999999999
 30
0.0
 11
109.65899999999991
 21
169.209
 31
0.0
  0
LINE
  5
647
  8
0
 62
     7
 10
157.13799999999989
 20
100.0499999999999
 30
0.0
 11
146.33799999999991
 21
100.0499999999999
 31
0.0
  0
LINE
  5
648
  8
0
 62
     7
 10
146.238
 20
99.049199999999999
 30
0.0
 11
157.238
 21
99.049199999999999
 31
0.0
  0
ARC
  5
649
  8
0
 62
     7
 10
52.365716999999989
 20
75.399653000000001
 30
0.0
 40
5.0239489999999991
 50
317.88007499999992
 51
335.13213300000001
  0
ARC
  5
64A
  8
0
 62
     7
 10
52.396977
 20
75.377914000000004
 30
0.0
 40
4.9864489999999986
 50
335.20770199999993
 51
0.06584
  0
ARC
  5
64B
  8
0
 62
     7
 10
52.348765999999991
 20
75.396482999999989
 30
0.0
 40
3.0347939999999989
 50
318.13189399999999
 51
359.75760400000001
  0
ARC
  5
64C
  8
0
  6
AIGENLINE002
 62
     7
 10
52.347371000000003
 20
75.396959999999993
 30
0.0
 40
4.0359590000000001
 50
318.08040299999999
 51
359.80119200000001
  0
ARC
  5
64D
  8
0
 62
     7
 10
52.752315000000003
 20
63.789490999999998
 30
0.0
 40
5.0521219999999989
 50
138.108475
 51
179.773875
  0
ARC
  5
64E
  8
0
 62
     7
 10
52.734889000000003
 20
63.796588999999997
 30
0.0
 40
3.0347939999999989
 50
138.13187400000001
 51
179.75758400000001
  0
ARC
  5
64F
  8
0
  6
AIGENLINE002
 62
     7
 10
52.736280999999998
 20
63.796115
 30
0.0
 40
4.0359559999999988
 50
138.080364
 51
179.8011909999999
  0
LINE
  5
650
  8
0
 62
     7
 10
55.383499999999998
 20
75.383600000000001
 30
0.0
 11
55.383499999999998
 21
81.049499999999995
 31
0.0
  0
LINE
  5
651
  8
0
 62
     7
 10
48.991500000000002
 20
67.162899999999993
 30
0.0
 11
54.608699999999992
 21
73.371000000000009
 31
0.0
  0
LINE
  5
652
  8
0
 62
     7
 10
56.092199999999998
 20
72.030199999999994
 30
0.0
 11
50.474899999999991
 21
65.822100000000006
 31
0.0
  0
LINE
  5
653
  8
0
  6
AIGENLINE002
 62
     7
 10
55.350499999999997
 20
72.700599999999994
 30
0.0
 11
49.733199999999997
 21
66.492500000000007
 31
0.0
  0
LINE
  5
654
  8
0
 62
     7
 10
47.700200000000002
 20
52.429200000000002
 30
0.0
 11
47.700200000000002
 21
62.33039999999999
 31
0.0
  0
LINE
  5
655
  8
0
 62
     7
 10
47.700200000000002
 20
63.505200000000002
 30
0.0
 11
47.700200000000002
 21
63.809399999999989
 31
0.0
  0
LINE
  5
656
  8
0
 62
     7
 10
49.700099999999999
 20
63.809399999999989
 30
0.0
 11
49.700099999999999
 21
62.970199999999991
 31
0.0
  0
LINE
  5
657
  8
0
 62
     7
 10
49.700099999999999
 20
61.756100000000004
 30
0.0
 11
49.700099999999999
 21
52.429200000000002
 31
0.0
  0
LINE
  5
658
  8
0
  6
AIGENLINE002
 62
     7
 10
48.700299999999991
 20
63.810099999999991
 30
0.0
 11
48.700299999999991
 21
44.999099999999991
 31
0.0
  0
LINE
  5
659
  8
0
 62
     7
 10
46.497500000000002
 20
48.52859999999999
 30
0.0
 11
46.497500000000002
 21
46.427799999999998
 31
0.0
  0
LINE
  5
65A
  8
0
 62
     7
 10
47.598300000000002
 20
48.52859999999999
 30
0.0
 11
47.598300000000002
 21
46.427799999999998
 31
0.0
  0
ARC
  5
65B
  8
0
 62
     7
 10
47.874324000000001
 20
49.59008
 30
0.0
 40
3.4490120000000002
 50
246.4729879999999
 51
252.590495
  0
ARC
  5
65C
  8
0
 62
     7
 10
47.069040999999999
 20
47.106313999999998
 30
0.0
 40
0.838465
 50
254.31632799999991
 51
269.226226
  0
ARC
  5
65D
  8
0
 62
     7
 10
47.036068
 20
47.189748000000002
 30
0.0
 40
0.9220769999999999
 50
271.34539499999988
 51
288.40738900000002
  0
ARC
  5
65E
  8
0
 62
     7
 10
46.71384299999999
 20
48.168621000000002
 30
0.0
 40
1.952618999999999
 50
288.30874899999998
 51
296.93228799999991
  0
ARC
  5
65F
  8
0
 62
     7
 10
47.004443999999999
 20
47.646039999999999
 30
0.0
 40
1.063741
 50
56.066493000000001
 51
87.129338000000004
  0
ARC
  5
660
  8
0
 62
     7
 10
47.058785999999998
 20
47.961247
 30
0.0
 40
0.7472
 50
90.081873000000016
 51
103.10146999999991
  0
ARC
  5
661
  8
0
 62
     7
 10
47.192205000000001
 20
47.390264999999999
 30
0.0
 40
1.3335619999999999
 50
103.12373599999989
 51
121.393163
  0
LINE
  5
662
  8
0
 62
     7
 10
50.898000000000003
 20
48.52859999999999
 30
0.0
 11
50.898000000000003
 21
46.427799999999998
 31
0.0
  0
LINE
  5
663
  8
0
 62
     7
 10
49.79829999999999
 20
48.52859999999999
 30
0.0
 11
49.79829999999999
 21
46.427799999999998
 31
0.0
  0
ARC
  5
664
  8
0
 62
     7
 10
51.196314999999998
 20
49.631301000000001
 30
0.0
 40
3.4952800000000002
 50
246.423722
 51
252.45596800000001
  0
ARC
  5
665
  8
0
 62
     7
 10
50.354126000000001
 20
47.007652999999998
 30
0.0
 40
0.7399
 50
253.396522
 51
268.76343999999989
  0
ARC
  5
666
  8
0
 62
     7
 10
50.313445999999999
 20
47.211117000000002
 30
0.0
 40
0.943515
 50
271.50089500000001
 51
288.41995800000001
  0
ARC
  5
667
  8
0
 62
     7
 10
49.570664999999998
 20
49.404369000000003
 30
0.0
 40
3.2591229999999989
 50
288.62569200000002
 51
294.03312099999999
  0
ARC
  5
668
  8
0
 62
     7
 10
50.210290000000001
 20
47.349084999999988
 30
0.0
 40
1.365362
 50
59.756483999999979
 51
84.626266999999984
  0
ARC
  5
669
  8
0
 62
     7
 10
50.340195999999999
 20
48.075480999999989
 30
0.0
 40
0.632968
 50
90.184426000000002
 51
104.39491099999999
  0
ARC
  5
66A
  8
0
 62
     7
 10
50.525112
 20
47.323665999999989
 30
0.0
 40
1.407171999999999
 50
104.07755
 51
121.09766999999999
  0
ARC
  5
66B
  8
0
 62
     7
 10
50.160647999999988
 20
58.449645999999987
 30
0.0
 40
12.291914
 50
257.96780099999989
 51
262.32233400000001
  0
LINE
  5
66C
  8
0
 62
     7
 10
48.5184
 20
46.26789999999999
 30
0.0
 11
48.877800000000001
 21
46.26789999999999
 31
0.0
  0
ARC
  5
66D
  8
0
 62
     7
 10
48.834397000000003
 20
48.423099999999998
 30
0.0
 40
2.1556109999999991
 50
271.15301599999998
 51
282.19683599999991
  0
ARC
  5
66E
  8
0
 62
     7
 10
53.792850000000001
 20
27.018443999999999
 30
0.0
 40
19.816120000000002
 50
101.629379
 51
103.134681
  0
ARC
  5
66F
  8
0
 62
     7
 10
48.700422000000003
 20
45.267262999999993
 30
0.0
 40
3.4411830000000001
 50
71.394901000000004
 51
90.041335000000004
  0
ARC
  5
670
  8
0
 62
     7
 10
48.615926000000002
 20
47.283239999999992
 30
0.0
 40
1.4275639999999989
 50
86.706579000000005
 51
95.891972999999993
  0
ARC
  5
671
  8
0
 62
     7
 10
48.822896
 20
44.680182999999992
 30
0.0
 40
4.038581999999999
 50
95.021764000000005
 51
107.65199799999991
  0
LINE
  5
672
  8
0
 62
     7
 10
47.697799999999987
 20
48.848999999999997
 30
0.0
 11
48.697899999999997
 21
48.848999999999997
 31
0.0
  0
LINE
  5
673
  8
0
 62
     7
 10
49.69809999999999
 20
48.848999999999997
 30
0.0
 11
48.697899999999997
 21
48.848999999999997
 31
0.0
  0
LINE
  5
674
  8
0
 62
     7
 10
50.538699999999992
 20
46.228000000000002
 30
0.0
 11
48.697899999999997
 21
46.228000000000002
 31
0.0
  0
LINE
  5
675
  8
0
 62
     7
 10
48.697899999999997
 20
46.228000000000002
 30
0.0
 11
46.857599999999998
 21
46.228000000000002
 31
0.0
  0
LINE
  5
676
  8
0
 62
     7
 10
46.617400000000004
 20
46.387799999999991
 30
0.0
 11
46.857599999999998
 21
46.247899999999987
 31
0.0
  0
LINE
  5
677
  8
0
 62
     7
 10
46.857599999999998
 20
46.247899999999987
 30
0.0
 11
46.857599999999998
 21
46.228000000000002
 31
0.0
  0
LINE
  5
678
  8
0
 62
     7
 10
46.497500000000002
 20
46.427799999999998
 30
0.0
 11
46.857599999999998
 21
46.247899999999987
 31
0.0
  0
LINE
  5
679
  8
0
 62
     7
 10
50.898000000000003
 20
46.427799999999998
 30
0.0
 11
50.538699999999992
 21
46.228000000000002
 31
0.0
  0
LINE
  5
67A
  8
0
 62
     7
 10
50.538699999999992
 20
48.728400000000001
 30
0.0
 11
46.857599999999998
 21
48.728400000000001
 31
0.0
  0
LINE
  5
67B
  8
0
 62
     7
 10
49.938200000000002
 20
48.828299999999999
 30
0.0
 11
47.457700000000003
 21
48.828299999999999
 31
0.0
  0
ARC
  5
67C
  8
0
 62
     7
 10
47.895896
 20
49.369424000000002
 30
0.0
 40
0.5568380000000001
 50
203.34903199999991
 51
249.16271999999989
  0
LINE
  5
67D
  8
0
 62
     7
 10
47.384700000000002
 20
49.148699999999998
 30
0.0
 11
47.358099999999993
 21
49.228700000000003
 31
0.0
  0
LINE
  5
67E
  8
0
 62
     7
 10
47.358099999999993
 20
49.228700000000003
 30
0.0
 11
47.358099999999993
 21
49.348500000000001
 31
0.0
  0
LINE
  5
67F
  8
0
 62
     7
 10
47.358099999999993
 20
49.348500000000001
 30
0.0
 11
47.397799999999989
 21
49.488399999999999
 31
0.0
  0
LINE
  5
680
  8
0
 62
     7
 10
50.01809999999999
 20
49.488399999999999
 30
0.0
 11
49.9985
 21
49.488399999999999
 31
0.0
  0
ARC
  5
681
  8
0
 62
     7
 10
46.263795000000002
 20
48.880727
 30
0.0
 40
3.8031760000000001
 50
7.0657420000000002
 51
9.1944600000000012
  0
LINE
  5
682
  8
0
 62
     7
 10
50.0381
 20
49.348500000000001
 30
0.0
 11
50.0381
 21
49.228700000000003
 31
0.0
  0
LINE
  5
683
  8
0
 62
     7
 10
50.0381
 20
49.228700000000003
 30
0.0
 11
50.012300000000003
 21
49.148699999999998
 31
0.0
  0
ARC
  5
684
  8
0
 62
     7
 10
49.38369999999999
 20
49.35740599999999
 30
0.0
 40
0.662285
 50
327.89675299999999
 51
341.63427000000001
  0
ARC
  5
685
  8
0
 62
     7
 10
49.680346
 20
49.198576000000003
 30
0.0
 40
0.327405
 50
298.61818
 51
323.84943599999991
  0
ARC
  5
686
  8
0
 62
     7
 10
48.343006000000003
 20
51.636890999999999
 30
0.0
 40
3.108385999999999
 50
296.24759999999992
 51
298.73020999999989
  0
LINE
  5
687
  8
0
 62
     7
 10
49.717700000000001
 20
48.848999999999997
 30
0.0
 11
49.69809999999999
 21
48.848999999999997
 31
0.0
  0
LINE
  5
688
  8
0
 62
     7
 10
49.858299999999993
 20
49.828800000000001
 30
0.0
 11
47.557600000000001
 21
49.828800000000001
 31
0.0
  0
LINE
  5
689
  8
0
 62
     7
 10
49.858299999999993
 20
51.428699999999999
 30
0.0
 11
48.697899999999997
 21
51.428699999999999
 31
0.0
  0
LINE
  5
68A
  8
0
 62
     7
 10
48.697899999999997
 20
51.428699999999999
 30
0.0
 11
47.557600000000001
 21
51.428699999999999
 31
0.0
  0
LINE
  5
68B
  8
0
 62
     7
 10
47.358099999999993
 20
51.869
 30
0.0
 11
47.358099999999993
 21
51.769100000000002
 31
0.0
  0
LINE
  5
68C
  8
0
 62
     7
 10
47.358099999999993
 20
51.769100000000002
 30
0.0
 11
47.417700000000004
 21
51.668500000000002
 31
0.0
  0
LINE
  5
68D
  8
0
 62
     7
 10
50.058100000000003
 20
51.869
 30
0.0
 11
50.0381
 21
51.769100000000002
 31
0.0
  0
LINE
  5
68E
  8
0
 62
     7
 10
50.0381
 20
51.769100000000002
 30
0.0
 11
49.9985
 21
51.668500000000002
 31
0.0
  0
LINE
  5
68F
  8
0
 62
     7
 10
50.058100000000003
 20
52.429200000000002
 30
0.0
 11
47.358099999999993
 21
52.429200000000002
 31
0.0
  0
LINE
  5
690
  8
0
 62
     7
 10
50.058100000000003
 20
52.429200000000002
 30
0.0
 11
50.058100000000003
 21
51.869
 31
0.0
  0
LINE
  5
691
  8
0
 62
     7
 10
47.358099999999993
 20
52.429200000000002
 30
0.0
 11
47.358099999999993
 21
51.869
 31
0.0
  0
LINE
  5
692
  8
0
 62
     7
 10
46.857599999999998
 20
48.728400000000001
 30
0.0
 11
46.497500000000002
 21
48.52859999999999
 31
0.0
  0
LINE
  5
693
  8
0
 62
     7
 10
50.538699999999992
 20
48.728400000000001
 30
0.0
 11
50.898000000000003
 21
48.52859999999999
 31
0.0
  0
LINE
  5
694
  8
0
 62
     7
 10
49.9985
 20
51.668500000000002
 30
0.0
 11
49.858299999999993
 21
51.428699999999999
 31
0.0
  0
LINE
  5
695
  8
0
 62
     7
 10
49.858299999999993
 20
49.828800000000001
 30
0.0
 11
49.9985
 21
49.488399999999999
 31
0.0
  0
LINE
  5
696
  8
0
 62
     7
 10
47.417700000000004
 20
51.668500000000002
 30
0.0
 11
47.557600000000001
 21
51.428699999999999
 31
0.0
  0
LINE
  5
697
  8
0
 62
     7
 10
47.557600000000001
 20
49.828800000000001
 30
0.0
 11
47.397799999999989
 21
49.488399999999999
 31
0.0
  0
LINE
  5
698
  8
0
 62
     7
 10
49.858299999999993
 20
51.428699999999999
 30
0.0
 11
49.858299999999993
 21
49.828800000000001
 31
0.0
  0
LINE
  5
699
  8
0
 62
     7
 10
47.557600000000001
 20
51.428699999999999
 30
0.0
 11
47.557600000000001
 21
49.828800000000001
 31
0.0
  0
LINE
  5
69A
  8
0
 62
     7
 10
49.938200000000002
 20
48.828299999999999
 30
0.0
 11
49.938200000000002
 21
48.728400000000001
 31
0.0
  0
LINE
  5
69B
  8
0
 62
     7
 10
47.457700000000003
 20
48.828299999999999
 30
0.0
 11
47.457700000000003
 21
48.728400000000001
 31
0.0
  0
LINE
  5
69C
  8
0
 62
     7
 10
50.898000000000003
 20
46.427799999999998
 30
0.0
 11
50.538699999999992
 21
46.228000000000002
 31
0.0
  0
LINE
  5
69D
  8
0
 62
     7
 10
46.497500000000002
 20
46.427799999999998
 30
0.0
 11
46.857599999999998
 21
46.228000000000002
 31
0.0
  0
LINE
  5
69E
  8
0
  6
AIGENLINE002
 62
     7
 10
56.383299999999991
 20
75.382999999999996
 30
0.0
 11
56.383299999999991
 21
100.56699999999999
 31
0.0
  0
ARC
  5
69F
  8
0
 62
     7
 10
63.997042000000008
 20
75.398025000000004
 30
0.0
 40
5.019633999999999
 50
204.87023999999991
 51
222.13943399999999
  0
ARC
  5
6A0
  8
0
 62
     7
 10
63.966415000000012
 20
75.376357999999996
 30
0.0
 40
4.9827399999999988
 50
179.91619
 51
204.792303
  0
ARC
  5
6A1
  8
0
 62
     7
 10
64.017993000000004
 20
75.396482999999989
 30
0.0
 40
3.0347939999999989
 50
180.24241599999991
 51
221.8681259999999
  0
ARC
  5
6A2
  8
0
  6
AIGENLINE002
 62
     7
 10
64.019384999999986
 20
75.396957999999998
 30
0.0
 40
4.0359559999999988
 50
180.19880900000001
 51
221.91963599999991
  0
ARC
  5
6A3
  8
0
 62
     7
 10
63.618136
 20
63.790913000000003
 30
0.0
 40
5.0484249999999991
 50
0.21014
 51
41.907470000000004
  0
ARC
  5
6A4
  8
0
 62
     7
 10
63.631869999999992
 20
63.796588999999997
 30
0.0
 40
3.0347939999999989
 50
0.242396
 51
41.868105999999997
  0
ARC
  5
6A5
  8
0
  6
AIGENLINE002
 62
     7
 10
63.629492999999997
 20
63.795217000000001
 30
0.0
 40
4.0372890000000003
 50
0.211467
 51
41.919755000000002
  0
LINE
  5
6A6
  8
0
 62
     7
 10
152.78899999999999
 20
52.429200000000002
 30
0.0
 11
152.78899999999999
 21
65.075199999999995
 31
0.0
  0
LINE
  5
6A7
  8
0
 62
     7
 10
152.78899999999999
 20
66.308499999999995
 30
0.0
 11
152.78899999999999
 21
81.049499999999995
 31
0.0
  0
LINE
  5
6A8
  8
0
 62
     7
 10
150.68899999999999
 20
81.049499999999995
 30
0.0
 11
150.68899999999999
 21
66.841800000000006
 31
0.0
  0
LINE
  5
6A9
  8
0
 62
     7
 10
150.68899999999999
 20
65.641900000000007
 30
0.0
 11
150.68899999999999
 21
52.429200000000002
 31
0.0
  0
LINE
  5
6AA
  8
0
 62
     7
 10
151.73899999999989
 20
46.427799999999998
 30
0.0
 11
151.73899999999989
 21
48.527900000000002
 31
0.0
  0
LINE
  5
6AB
  8
0
 62
     7
 10
149.83799999999999
 20
46.427799999999998
 30
0.0
 11
149.83799999999999
 21
48.527900000000002
 31
0.0
  0
ARC
  5
6AC
  8
0
 62
     7
 10
152.04496499999991
 20
55.089249000000002
 30
0.0
 40
8.9381000000000004
 50
255.70809700000001
 51
259.52421399999997
  0
ARC
  5
6AD
  8
0
 62
     7
 10
150.81538199999989
 20
48.708795000000002
 30
0.0
 40
2.440925
 50
260.67428899999999
 51
269.61509000000001
  0
ARC
  5
6AE
  8
0
 62
     7
 10
150.76541199999991
 20
48.787027999999999
 30
0.0
 40
2.5193270000000001
 50
270.76354900000001
 51
281.11540500000001
  0
ARC
  5
6AF
  8
0
 62
     7
 10
149.57152799999989
 20
54.686404000000003
 30
0.0
 40
8.5382669999999994
 50
281.344718
 51
284.70438200000001
  0
ARC
  5
6B0
  8
0
 62
     7
 10
150.62525600000001
 20
45.267315999999987
 30
0.0
 40
3.4455119999999999
 50
71.144029000000003
 51
87.109829000000019
  0
ARC
  5
6B1
  8
0
 62
     7
 10
150.80217799999991
 20
46.045968999999992
 30
0.0
 40
2.6624789999999998
 50
90.068728000000007
 51
111.22018799999989
  0
ARC
  5
6B2
  8
0
 62
     7
 10
153.94435699999991
 20
55.086911000000001
 30
0.0
 40
8.9356030000000004
 50
255.71020299999989
 51
259.52833099999992
  0
ARC
  5
6B3
  8
0
 62
     7
 10
152.71468200000001
 20
48.694519
 30
0.0
 40
2.4266469999999991
 50
260.64711399999999
 51
269.620812
  0
ARC
  5
6B4
  8
0
 62
     7
 10
152.66537199999991
 20
48.787481999999997
 30
0.0
 40
2.5197759999999989
 50
270.75607200000002
 51
281.113901
  0
ARC
  5
6B5
  8
0
 62
     7
 10
151.451832
 20
54.778153000000003
 30
0.0
 40
8.6320949999999996
 50
281.35298699999993
 51
284.67835200000002
  0
LINE
  5
6B6
  8
0
 62
     7
 10
153.63900000000001
 20
46.427799999999998
 30
0.0
 11
153.63900000000001
 21
48.527900000000002
 31
0.0
  0
ARC
  5
6B7
  8
0
 62
     7
 10
152.52587199999999
 20
45.268163000000001
 30
0.0
 40
3.444617
 50
71.144033999999991
 51
87.125375000000005
  0
ARC
  5
6B8
  8
0
 62
     7
 10
152.70184
 20
46.04951599999999
 30
0.0
 40
2.6589320000000001
 50
90.069348000000005
 51
111.23450200000001
  0
LINE
  5
6B9
  8
0
 62
     7
 10
153.63900000000001
 20
46.26789999999999
 30
0.0
 11
153.63900000000001
 21
46.427799999999998
 31
0.0
  0
LINE
  5
6BA
  8
0
 62
     7
 10
153.63900000000001
 20
48.527900000000002
 30
0.0
 11
153.63900000000001
 21
48.708399999999997
 31
0.0
  0
LINE
  5
6BB
  8
0
 62
     7
 10
149.83799999999999
 20
46.26789999999999
 30
0.0
 11
149.83799999999999
 21
46.427799999999998
 31
0.0
  0
LINE
  5
6BC
  8
0
 62
     7
 10
149.83799999999999
 20
48.527900000000002
 30
0.0
 11
149.83799999999999
 21
48.708399999999997
 31
0.0
  0
LINE
  5
6BD
  8
0
 62
     7
 10
152.739
 20
48.848300000000002
 30
0.0
 11
151.73899999999989
 21
48.848300000000002
 31
0.0
  0
LINE
  5
6BE
  8
0
 62
     7
 10
151.73899999999989
 20
48.848300000000002
 30
0.0
 11
150.739
 21
48.848300000000002
 31
0.0
  0
LINE
  5
6BF
  8
0
 62
     7
 10
153.63900000000001
 20
46.26789999999999
 30
0.0
 11
153.57900000000001
 21
46.228000000000002
 31
0.0
  0
LINE
  5
6C0
  8
0
 62
     7
 10
153.57900000000001
 20
46.228000000000002
 30
0.0
 11
149.89799999999991
 21
46.228000000000002
 31
0.0
  0
LINE
  5
6C1
  8
0
 62
     7
 10
149.89799999999991
 20
46.228000000000002
 30
0.0
 11
149.83799999999999
 21
46.26789999999999
 31
0.0
  0
ARC
  5
6C2
  8
0
 62
     7
 10
153.54237599999999
 20
48.361727000000002
 30
0.0
 40
0.359968
 50
74.406617999999995
 51
95.172223999999986
  0
ARC
  5
6C3
  8
0
 62
     7
 10
152.378165
 20
6.9123659999999996
 30
0.0
 40
41.823180000000001
 50
88.449342999999999
 51
90.417451999999983
  0
ARC
  5
6C4
  8
0
 62
     7
 10
151.55264999999989
 20
-156.44982999999991
 30
0.0
 40
205.18492599999999
 50
89.854565000000008
 51
90.461918999999995
  0
LINE
  5
6C5
  8
0
 62
     7
 10
149.89799999999991
 20
48.728400000000001
 30
0.0
 11
149.83799999999999
 21
48.708399999999997
 31
0.0
  0
LINE
  5
6C6
  8
0
 62
     7
 10
152.97900000000001
 20
48.728400000000001
 30
0.0
 11
152.97900000000001
 21
48.828299999999999
 31
0.0
  0
LINE
  5
6C7
  8
0
 62
     7
 10
152.97900000000001
 20
48.828299999999999
 30
0.0
 11
150.499
 21
48.828299999999999
 31
0.0
  0
LINE
  5
6C8
  8
0
 62
     7
 10
150.499
 20
48.728400000000001
 30
0.0
 11
150.499
 21
48.828299999999999
 31
0.0
  0
LINE
  5
6C9
  8
0
 62
     7
 10
150.739
 20
48.848300000000002
 30
0.0
 11
150.43899999999991
 21
49.088799999999992
 31
0.0
  0
LINE
  5
6CA
  8
0
 62
     7
 10
150.43899999999991
 20
49.088799999999992
 30
0.0
 11
150.4189999999999
 21
49.488399999999999
 31
0.0
  0
LINE
  5
6CB
  8
0
 62
     7
 10
153.05999999999989
 20
49.488399999999999
 30
0.0
 11
153.0389999999999
 21
49.088799999999992
 31
0.0
  0
LINE
  5
6CC
  8
0
 62
     7
 10
153.0389999999999
 20
49.088799999999992
 30
0.0
 11
152.739
 21
48.848300000000002
 31
0.0
  0
LINE
  5
6CD
  8
0
 62
     7
 10
152.899
 20
49.828800000000001
 30
0.0
 11
150.57900000000001
 21
49.828800000000001
 31
0.0
  0
LINE
  5
6CE
  8
0
 62
     7
 10
150.57900000000001
 20
49.828800000000001
 30
0.0
 11
150.4189999999999
 21
49.488399999999999
 31
0.0
  0
LINE
  5
6CF
  8
0
 62
     7
 10
153.05999999999989
 20
49.488399999999999
 30
0.0
 11
152.899
 21
49.828800000000001
 31
0.0
  0
LINE
  5
6D0
  8
0
 62
     7
 10
152.899
 20
51.428699999999999
 30
0.0
 11
150.57900000000001
 21
51.428699999999999
 31
0.0
  0
LINE
  5
6D1
  8
0
 62
     7
 10
150.57900000000001
 20
49.828800000000001
 30
0.0
 11
150.57900000000001
 21
51.428699999999999
 31
0.0
  0
LINE
  5
6D2
  8
0
 62
     7
 10
152.899
 20
49.828800000000001
 30
0.0
 11
152.899
 21
51.428699999999999
 31
0.0
  0
LINE
  5
6D3
  8
0
 62
     7
 10
150.57900000000001
 20
51.428699999999999
 30
0.0
 11
150.43899999999991
 21
51.669199999999996
 31
0.0
  0
LINE
  5
6D4
  8
0
 62
     7
 10
153.0389999999999
 20
51.669199999999996
 30
0.0
 11
152.899
 21
51.428699999999999
 31
0.0
  0
LINE
  5
6D5
  8
0
 62
     7
 10
150.43899999999991
 20
51.669199999999996
 30
0.0
 11
150.39899999999989
 21
51.769100000000002
 31
0.0
  0
LINE
  5
6D6
  8
0
 62
     7
 10
150.39899999999989
 20
51.769100000000002
 30
0.0
 11
150.39899999999989
 21
51.869
 31
0.0
  0
ARC
  5
6D7
  8
0
 62
     7
 10
152.54645500000001
 20
51.925843
 30
0.0
 40
0.5554060000000001
 50
332.4761049999999
 51
354.12540999999987
  0
LINE
  5
6D8
  8
0
 62
     7
 10
153.0989999999999
 20
51.869
 30
0.0
 11
153.0989999999999
 21
52.429200000000002
 31
0.0
  0
LINE
  5
6D9
  8
0
 62
     7
 10
153.0989999999999
 20
52.429200000000002
 30
0.0
 11
150.39899999999989
 21
52.429200000000002
 31
0.0
  0
LINE
  5
6DA
  8
0
 62
     7
 10
150.39899999999989
 20
51.869
 30
0.0
 11
150.39899999999989
 21
52.429200000000002
 31
0.0
  0
LINE
  5
6DB
  8
0
 62
     7
 10
58.983699999999992
 20
75.383600000000001
 30
0.0
 11
58.983699999999992
 21
81.049499999999995
 31
0.0
  0
LINE
  5
6DC
  8
0
 62
     7
 10
60.983199999999997
 20
75.383600000000001
 30
0.0
 11
60.983199999999997
 21
81.049499999999995
 31
0.0
  0
LINE
  5
6DD
  8
0
 62
     7
 10
67.375299999999996
 20
67.162899999999993
 30
0.0
 11
61.758000000000003
 21
73.371000000000009
 31
0.0
  0
LINE
  5
6DE
  8
0
 62
     7
 10
60.274900000000002
 20
72.030199999999994
 30
0.0
 11
65.891800000000003
 21
65.822100000000006
 31
0.0
  0
LINE
  5
6DF
  8
0
  6
AIGENLINE002
 62
     7
 10
61.016300000000001
 20
72.700599999999994
 30
0.0
 11
66.633600000000001
 21
66.492500000000007
 31
0.0
  0
LINE
  5
6E0
  8
0
 62
     7
 10
68.666499999999985
 20
52.429200000000002
 30
0.0
 11
68.666499999999985
 21
61.743000000000002
 31
0.0
  0
LINE
  5
6E1
  8
0
 62
     7
 10
68.666499999999985
 20
63.009500000000003
 30
0.0
 11
68.666499999999985
 21
63.809399999999989
 31
0.0
  0
LINE
  5
6E2
  8
0
 62
     7
 10
66.666600000000003
 20
63.809399999999989
 30
0.0
 11
66.666600000000003
 21
63.544800000000002
 31
0.0
  0
LINE
  5
6E3
  8
0
 62
     7
 10
66.666600000000003
 20
62.304600000000001
 30
0.0
 11
66.666600000000003
 21
52.429200000000002
 31
0.0
  0
LINE
  5
6E4
  8
0
  6
AIGENLINE002
 62
     7
 10
67.666799999999995
 20
63.810099999999991
 30
0.0
 11
67.666799999999995
 21
44.999099999999991
 31
0.0
  0
LINE
  5
6E5
  8
0
 62
     7
 10
69.869200000000006
 20
48.52859999999999
 30
0.0
 11
69.869200000000006
 21
46.427799999999998
 31
0.0
  0
LINE
  5
6E6
  8
0
 62
     7
 10
68.768799999999985
 20
48.52859999999999
 30
0.0
 11
68.768799999999985
 21
46.427799999999998
 31
0.0
  0
ARC
  5
6E7
  8
0
 62
     7
 10
68.416161000000002
 20
49.793734999999998
 30
0.0
 40
3.6662019999999989
 50
287.59587399999998
 51
293.34947499999993
  0
ARC
  5
6E8
  8
0
 62
     7
 10
69.297419999999988
 20
47.108834000000002
 30
0.0
 40
0.840994
 50
270.81526000000002
 51
285.66213299999993
  0
ARC
  5
6E9
  8
0
 62
     7
 10
69.310913999999997
 20
47.015529000000001
 30
0.0
 40
0.747605
 50
256.76238799999987
 51
269.88293399999992
  0
ARC
  5
6EA
  8
0
 62
     7
 10
69.494517999999999
 20
47.789011999999992
 30
0.0
 40
1.542581
 50
241.93803700000001
 51
256.70275400000003
  0
ARC
  5
6EB
  8
0
 62
     7
 10
69.362662
 20
47.646031999999991
 30
0.0
 40
1.0637490000000001
 50
92.870766000000003
 51
123.9333629999999
  0
ARC
  5
6EC
  8
0
 62
     7
 10
69.291081999999989
 20
47.811352999999997
 30
0.0
 40
0.8972799999999999
 50
71.389953000000006
 51
88.831121999999993
  0
ARC
  5
6ED
  8
0
 62
     7
 10
69.095365999999999
 20
47.218570999999997
 30
0.0
 40
1.5215299999999989
 50
59.429286999999988
 51
71.528866000000008
  0
LINE
  5
6EE
  8
0
 62
     7
 10
65.468800000000002
 20
48.52859999999999
 30
0.0
 11
65.468800000000002
 21
46.427799999999998
 31
0.0
  0
LINE
  5
6EF
  8
0
 62
     7
 10
66.5685
 20
48.52859999999999
 30
0.0
 11
66.5685
 21
46.427799999999998
 31
0.0
  0
ARC
  5
6F0
  8
0
 62
     7
 10
65.091397000000001
 20
49.840726000000011
 30
0.0
 40
3.718856999999999
 50
287.734871
 51
293.40197599999988
  0
ARC
  5
6F1
  8
0
 62
     7
 10
66.011880000000005
 20
47.013494000000001
 30
0.0
 40
0.7457570000000001
 50
271.28474499999999
 51
286.54180700000001
  0
ARC
  5
6F2
  8
0
 62
     7
 10
66.029708999999997
 20
47.003521999999997
 30
0.0
 40
0.735598
 50
256.87613999999991
 51
269.91370899999993
  0
ARC
  5
6F3
  8
0
 62
     7
 10
66.313845999999998
 20
48.172744999999992
 30
0.0
 40
1.9388299999999989
 50
244.15938199999991
 51
256.544105
  0
ARC
  5
6F4
  8
0
 62
     7
 10
66.153570999999999
 20
47.358105999999992
 30
0.0
 40
1.356109999999999
 50
95.287510999999995
 51
120.32969799999989
  0
ARC
  5
6F5
  8
0
 62
     7
 10
66.001525999999998
 20
47.873711
 30
0.0
 40
0.8351739999999999
 50
70.377178000000001
 51
88.142255000000006
  0
ARC
  5
6F6
  8
0
 62
     7
 10
65.756415000000004
 20
47.140594999999998
 30
0.0
 40
1.608101
 50
59.670949999999991
 51
70.923180000000002
  0
ARC
  5
6F7
  8
0
 62
     7
 10
65.341696999999996
 20
63.427599000000001
 30
0.0
 40
17.34183599999999
 50
278.3118879999999
 51
281.39801599999998
  0
LINE
  5
6F8
  8
0
 62
     7
 10
67.848699999999994
 20
46.26789999999999
 30
0.0
 11
67.48899999999999
 21
46.26789999999999
 31
0.0
  0
ARC
  5
6F9
  8
0
 62
     7
 10
67.490341000000001
 20
47.868178999999991
 30
0.0
 40
1.6002549999999991
 50
261.14770099999993
 51
269.95148599999987
  0
ARC
  5
6FA
  8
0
 62
     7
 10
68.603222000000002
 20
54.500694999999993
 30
0.0
 40
8.3253990000000009
 50
255.85332299999999
 51
260.60428799999988
  0
ARC
  5
6FB
  8
0
 62
     7
 10
67.672727000000009
 20
45.228166999999992
 30
0.0
 40
3.4802809999999988
 50
90.064299999999989
 51
108.49942399999991
  0
ARC
  5
6FC
  8
0
 62
     7
 10
67.701497000000003
 20
45.847144
 30
0.0
 40
2.8614879999999991
 50
80.039933000000005
 51
90.654276999999993
  0
ARC
  5
6FD
  8
0
 62
     7
 10
67.620737000000005
 20
44.993051999999999
 30
0.0
 40
3.7173019999999992
 50
72.009703000000002
 51
81.090900000000005
  0
LINE
  5
6FE
  8
0
 62
     7
 10
68.668899999999994
 20
48.848999999999997
 30
0.0
 11
67.668800000000005
 21
48.848999999999997
 31
0.0
  0
LINE
  5
6FF
  8
0
 62
     7
 10
66.668999999999997
 20
48.848999999999997
 30
0.0
 11
67.668800000000005
 21
48.848999999999997
 31
0.0
  0
LINE
  5
700
  8
0
 62
     7
 10
65.828400000000002
 20
46.228000000000002
 30
0.0
 11
67.668800000000005
 21
46.228000000000002
 31
0.0
  0
LINE
  5
701
  8
0
 62
     7
 10
67.668800000000005
 20
46.228000000000002
 30
0.0
 11
69.509200000000007
 21
46.228000000000002
 31
0.0
  0
LINE
  5
702
  8
0
 62
     7
 10
65.468800000000002
 20
46.427799999999998
 30
0.0
 11
65.828400000000002
 21
46.228000000000002
 31
0.0
  0
LINE
  5
703
  8
0
 62
     7
 10
65.828400000000002
 20
48.728400000000001
 30
0.0
 11
69.509200000000007
 21
48.728400000000001
 31
0.0
  0
LINE
  5
704
  8
0
 62
     7
 10
66.428600000000003
 20
48.828299999999999
 30
0.0
 11
68.909099999999995
 21
48.828299999999999
 31
0.0
  0
ARC
  5
705
  8
0
 62
     7
 10
68.472872999999993
 20
49.367322999999999
 30
0.0
 40
0.55416
 50
290.72028399999999
 51
336.76800299999991
  0
LINE
  5
706
  8
0
 62
     7
 10
68.982100000000003
 20
49.148699999999998
 30
0.0
 11
69.009
 21
49.228700000000003
 31
0.0
  0
LINE
  5
707
  8
0
 62
     7
 10
69.009
 20
49.228700000000003
 30
0.0
 11
69.009
 21
49.348500000000001
 31
0.0
  0
LINE
  5
708
  8
0
 62
     7
 10
69.009
 20
49.348500000000001
 30
0.0
 11
68.968999999999994
 21
49.488399999999999
 31
0.0
  0
LINE
  5
709
  8
0
 62
     7
 10
66.348699999999994
 20
49.488399999999999
 30
0.0
 11
66.368600000000001
 21
49.488399999999999
 31
0.0
  0
ARC
  5
70A
  8
0
 62
     7
 10
70.102964
 20
48.880727
 30
0.0
 40
3.8031760000000001
 50
170.80551999999989
 51
172.93423799999999
  0
LINE
  5
70B
  8
0
 62
     7
 10
66.328699999999998
 20
49.348500000000001
 30
0.0
 11
66.328699999999998
 21
49.228700000000003
 31
0.0
  0
LINE
  5
70C
  8
0
 62
     7
 10
66.328699999999998
 20
49.228700000000003
 30
0.0
 11
66.354900000000001
 21
49.148699999999998
 31
0.0
  0
ARC
  5
70D
  8
0
 62
     7
 10
66.980669999999989
 20
49.355173000000001
 30
0.0
 40
0.658987
 50
198.25642400000001
 51
212.05398500000001
  0
ARC
  5
70E
  8
0
 62
     7
 10
66.686056000000008
 20
49.197890999999998
 30
0.0
 40
0.32663
 50
216.10110800000001
 51
241.3801169999999
  0
ARC
  5
70F
  8
0
 62
     7
 10
68.022447
 20
51.634250999999999
 30
0.0
 40
3.105440999999999
 50
241.26761899999991
 51
243.75249600000001
  0
LINE
  5
710
  8
0
 62
     7
 10
66.649100000000004
 20
48.848999999999997
 30
0.0
 11
66.668999999999997
 21
48.848999999999997
 31
0.0
  0
LINE
  5
711
  8
0
 62
     7
 10
66.508899999999997
 20
49.828800000000001
 30
0.0
 11
68.809200000000004
 21
49.828800000000001
 31
0.0
  0
LINE
  5
712
  8
0
 62
     7
 10
66.508899999999997
 20
51.428699999999999
 30
0.0
 11
67.668800000000005
 21
51.428699999999999
 31
0.0
  0
LINE
  5
713
  8
0
 62
     7
 10
67.668800000000005
 20
51.428699999999999
 30
0.0
 11
68.809200000000004
 21
51.428699999999999
 31
0.0
  0
LINE
  5
714
  8
0
 62
     7
 10
69.009
 20
51.869
 30
0.0
 11
69.009
 21
51.769100000000002
 31
0.0
  0
LINE
  5
715
  8
0
 62
     7
 10
69.009
 20
51.769100000000002
 30
0.0
 11
68.948999999999984
 21
51.668500000000002
 31
0.0
  0
LINE
  5
716
  8
0
 62
     7
 10
66.308700000000002
 20
51.869
 30
0.0
 11
66.328699999999998
 21
51.769100000000002
 31
0.0
  0
LINE
  5
717
  8
0
 62
     7
 10
66.328699999999998
 20
51.769100000000002
 30
0.0
 11
66.368600000000001
 21
51.668500000000002
 31
0.0
  0
LINE
  5
718
  8
0
 62
     7
 10
66.308700000000002
 20
52.429200000000002
 30
0.0
 11
69.009
 21
52.429200000000002
 31
0.0
  0
LINE
  5
719
  8
0
 62
     7
 10
66.308700000000002
 20
52.429200000000002
 30
0.0
 11
66.308700000000002
 21
51.869
 31
0.0
  0
LINE
  5
71A
  8
0
 62
     7
 10
69.009
 20
52.429200000000002
 30
0.0
 11
69.009
 21
51.869
 31
0.0
  0
LINE
  5
71B
  8
0
 62
     7
 10
69.509200000000007
 20
48.728400000000001
 30
0.0
 11
69.869200000000006
 21
48.52859999999999
 31
0.0
  0
LINE
  5
71C
  8
0
 62
     7
 10
65.828400000000002
 20
48.728400000000001
 30
0.0
 11
65.468800000000002
 21
48.52859999999999
 31
0.0
  0
LINE
  5
71D
  8
0
 62
     7
 10
66.368600000000001
 20
51.668500000000002
 30
0.0
 11
66.508899999999997
 21
51.428699999999999
 31
0.0
  0
LINE
  5
71E
  8
0
 62
     7
 10
66.508899999999997
 20
49.828800000000001
 30
0.0
 11
66.368600000000001
 21
49.488399999999999
 31
0.0
  0
LINE
  5
71F
  8
0
 62
     7
 10
68.948999999999984
 20
51.668500000000002
 30
0.0
 11
68.809200000000004
 21
51.428699999999999
 31
0.0
  0
LINE
  5
720
  8
0
 62
     7
 10
68.809200000000004
 20
49.828800000000001
 30
0.0
 11
68.968999999999994
 21
49.488399999999999
 31
0.0
  0
LINE
  5
721
  8
0
 62
     7
 10
66.508899999999997
 20
51.428699999999999
 30
0.0
 11
66.508899999999997
 21
49.828800000000001
 31
0.0
  0
LINE
  5
722
  8
0
 62
     7
 10
68.809200000000004
 20
51.428699999999999
 30
0.0
 11
68.809200000000004
 21
49.828800000000001
 31
0.0
  0
LINE
  5
723
  8
0
 62
     7
 10
66.428600000000003
 20
48.828299999999999
 30
0.0
 11
66.428600000000003
 21
48.728400000000001
 31
0.0
  0
LINE
  5
724
  8
0
 62
     7
 10
68.909099999999995
 20
48.828299999999999
 30
0.0
 11
68.909099999999995
 21
48.728400000000001
 31
0.0
  0
LINE
  5
725
  8
0
 62
     7
 10
65.468800000000002
 20
46.427799999999998
 30
0.0
 11
65.828400000000002
 21
46.228000000000002
 31
0.0
  0
LINE
  5
726
  8
0
 62
     7
 10
69.869200000000006
 20
46.427799999999998
 30
0.0
 11
69.509200000000007
 21
46.228000000000002
 31
0.0
  0
LINE
  5
727
  8
0
 62
     7
 10
174.79599999999991
 20
46.228000000000002
 30
0.0
 11
154.42699999999999
 21
46.228000000000002
 31
0.0
  0
LINE
  5
728
  8
0
 62
     7
 10
58.383499999999998
 20
86.048999999999978
 30
0.0
 11
58.383499999999998
 21
90.049499999999995
 31
0.0
  0
LINE
  5
729
  8
0
 62
     7
 10
60.383800000000001
 20
86.048999999999978
 30
0.0
 11
60.383800000000001
 21
90.049499999999995
 31
0.0
  0
LINE
  5
72A
  8
0
 62
     7
 10
60.7834
 20
86.048999999999978
 30
0.0
 11
60.7834
 21
90.049499999999995
 31
0.0
  0
LINE
  5
72B
  8
0
 62
     7
 10
62.7836
 20
86.048999999999978
 30
0.0
 11
62.7836
 21
90.049499999999995
 31
0.0
  0
LINE
  5
72C
  8
0
 62
     7
 10
63.183599999999998
 20
86.448700000000002
 30
0.0
 11
66.7834
 21
90.049499999999995
 31
0.0
  0
LINE
  5
72D
  8
0
 62
     7
 10
63.183599999999998
 20
86.048999999999978
 30
0.0
 11
63.183599999999998
 21
90.049499999999995
 31
0.0
  0
LINE
  5
72E
  8
0
 62
     7
 10
67.183700000000002
 20
90.049499999999995
 30
0.0
 11
67.183700000000002
 21
91.049300000000017
 31
0.0
  0
LINE
  5
72F
  8
0
 62
     7
 10
57.983600000000003
 20
86.048999999999978
 30
0.0
 11
57.983600000000003
 21
90.049499999999995
 31
0.0
  0
LINE
  5
730
  8
0
 62
     7
 10
55.983699999999999
 20
86.048999999999978
 30
0.0
 11
55.983699999999999
 21
90.049499999999995
 31
0.0
  0
LINE
  5
731
  8
0
 62
     7
 10
55.5837
 20
86.048999999999978
 30
0.0
 11
55.5837
 21
90.049499999999995
 31
0.0
  0
LINE
  5
732
  8
0
 62
     7
 10
53.583500000000001
 20
86.048999999999978
 30
0.0
 11
53.583500000000001
 21
90.049499999999995
 31
0.0
  0
LINE
  5
733
  8
0
 62
     7
 10
53.183500000000002
 20
86.448700000000002
 30
0.0
 11
49.5837
 21
90.049499999999995
 31
0.0
  0
LINE
  5
734
  8
0
 62
     7
 10
53.183500000000002
 20
86.048999999999978
 30
0.0
 11
53.183500000000002
 21
90.049499999999995
 31
0.0
  0
LINE
  5
735
  8
0
 62
     7
 10
53.183500000000002
 20
86.048999999999978
 30
0.0
 11
63.183599999999998
 21
86.048999999999978
 31
0.0
  0
LINE
  5
736
  8
0
 62
     7
 10
49.183700000000002
 20
90.049499999999995
 30
0.0
 11
49.183700000000002
 21
91.049300000000017
 31
0.0
  0
LINE
  5
737
  8
0
 62
     7
 10
49.183700000000002
 20
90.049499999999995
 30
0.0
 11
67.183700000000002
 21
90.049499999999995
 31
0.0
  0
LINE
  5
738
  8
0
 62
     7
 10
49.183700000000002
 20
91.049300000000017
 30
0.0
 11
67.183700000000002
 21
91.049300000000017
 31
0.0
  0
LINE
  5
739
  8
0
 62
     7
 10
56.383299999999991
 20
83.718800000000002
 30
0.0
 11
55.983699999999999
 21
83.718800000000002
 31
0.0
  0
LINE
  5
73A
  8
0
 62
     7
 10
58.183399999999999
 20
84.849100000000007
 30
0.0
 11
54.183599999999991
 21
84.849100000000007
 31
0.0
  0
LINE
  5
73B
  8
0
 62
     7
 10
54.183599999999991
 20
84.849100000000007
 30
0.0
 11
54.183599999999991
 21
83.802800000000005
 31
0.0
  0
ARC
  5
73C
  8
0
 62
     7
 10
54.468350999999998
 20
83.860417999999996
 30
0.0
 40
0.290519
 50
191.43472499999999
 51
212.93236400000001
  0
ARC
  5
73D
  8
0
 62
     7
 10
54.633704999999999
 20
83.961544999999987
 30
0.0
 40
0.4843060000000001
 50
212.33885799999999
 51
255.48506900000001
  0
ARC
  5
73E
  8
0
 62
     7
 10
54.807473000000002
 20
84.471159999999983
 30
0.0
 40
1.0220100000000001
 50
253.2142069999999
 51
271.14164499999998
  0
LINE
  5
73F
  8
0
 62
     7
 10
54.827800000000003
 20
83.449399999999983
 30
0.0
 11
58.183399999999999
 21
83.449399999999983
 31
0.0
  0
LINE
  5
740
  8
0
 62
     7
 10
56.383299999999991
 20
84.849100000000007
 30
0.0
 11
56.383299999999991
 21
83.718800000000002
 31
0.0
  0
ARC
  5
741
  8
0
 62
     7
 10
56.762025000000001
 20
83.968040000000016
 30
0.0
 40
0.4533960000000001
 50
213.35360899999989
 51
230.449397
  0
ARC
  5
742
  8
0
 62
     7
 10
56.932820999999997
 20
84.156571999999997
 30
0.0
 40
0.7076180000000001
 50
229.50645099999991
 51
271.92360099999991
  0
LINE
  5
743
  8
0
 62
     7
 10
55.983699999999999
 20
84.849100000000007
 30
0.0
 11
55.983699999999999
 21
83.718800000000002
 31
0.0
  0
ARC
  5
744
  8
0
 62
     7
 10
54.875095999999999
 20
85.784295999999983
 30
0.0
 40
2.3442219999999998
 50
275.09950400000002
 51
298.22254199999992
  0
LINE
  5
745
  8
0
 62
     7
 10
59.983499999999999
 20
83.718800000000002
 30
0.0
 11
60.383400000000002
 21
83.718800000000002
 31
0.0
  0
LINE
  5
746
  8
0
 62
     7
 10
58.183399999999999
 20
84.849100000000007
 30
0.0
 11
62.183500000000002
 21
84.849100000000007
 31
0.0
  0
LINE
  5
747
  8
0
 62
     7
 10
62.183500000000002
 20
84.849100000000007
 30
0.0
 11
62.183500000000002
 21
83.802800000000005
 31
0.0
  0
ARC
  5
748
  8
0
 62
     7
 10
61.900491000000002
 20
83.857809999999986
 30
0.0
 40
0.288306
 50
327.39976999999999
 51
349.00483500000001
  0
ARC
  5
749
  8
0
 62
     7
 10
61.737129000000003
 20
83.956579000000005
 30
0.0
 40
0.47917
 50
284.51180799999997
 51
327.97457099999991
  0
ARC
  5
74A
  8
0
 62
     7
 10
61.562548999999997
 20
84.467671999999993
 30
0.0
 40
1.018526
 50
268.84533599999997
 51
286.81547699999987
  0
LINE
  5
74B
  8
0
 62
     7
 10
61.542000000000002
 20
83.449399999999983
 30
0.0
 11
58.183399999999999
 21
83.449399999999983
 31
0.0
  0
LINE
  5
74C
  8
0
 62
     7
 10
59.983499999999999
 20
84.849100000000007
 30
0.0
 11
59.983499999999999
 21
83.718800000000002
 31
0.0
  0
ARC
  5
74D
  8
0
 62
     7
 10
59.605285999999992
 20
83.967252000000002
 30
0.0
 40
0.452503
 50
309.57036599999998
 51
326.69142099999988
  0
ARC
  5
74E
  8
0
 62
     7
 10
59.434206999999986
 20
84.156081999999984
 30
0.0
 40
0.707137
 50
268.053313
 51
310.50911500000001
  0
LINE
  5
74F
  8
0
 62
     7
 10
60.383400000000002
 20
84.849100000000007
 30
0.0
 11
60.383400000000002
 21
83.718800000000002
 31
0.0
  0
ARC
  5
750
  8
0
 62
     7
 10
61.499192000000001
 20
85.808301999999983
 30
0.0
 40
2.3687770000000001
 50
241.89895000000001
 51
264.779044
  0
LINE
  5
751
  8
0
 62
     7
 10
61.2836
 20
83.449399999999983
 30
0.0
 11
61.2836
 21
81.049499999999995
 31
0.0
  0
LINE
  5
752
  8
0
 62
     7
 10
55.083500000000001
 20
83.449399999999983
 30
0.0
 11
55.083500000000001
 21
81.049499999999995
 31
0.0
  0
LINE
  5
753
  8
0
 62
     7
 10
61.483499999999999
 20
81.249300000000005
 30
0.0
 11
54.883600000000001
 21
81.249300000000005
 31
0.0
  0
LINE
  5
754
  8
0
 62
     7
 10
61.483499999999999
 20
81.249300000000005
 30
0.0
 11
61.2836
 21
81.049499999999995
 31
0.0
  0
LINE
  5
755
  8
0
 62
     7
 10
61.2836
 20
81.049499999999995
 30
0.0
 11
55.083500000000001
 21
81.049499999999995
 31
0.0
  0
LINE
  5
756
  8
0
 62
     7
 10
55.083500000000001
 20
81.049499999999995
 30
0.0
 11
54.883600000000001
 21
81.249300000000005
 31
0.0
  0
LINE
  5
757
  8
0
 62
     7
 10
54.883600000000001
 20
81.249300000000005
 30
0.0
 11
54.883600000000001
 21
83.449399999999983
 31
0.0
  0
LINE
  5
758
  8
0
 62
     7
 10
54.883600000000001
 20
83.449399999999983
 30
0.0
 11
61.483499999999999
 21
83.449399999999983
 31
0.0
  0
LINE
  5
759
  8
0
 62
     7
 10
61.483499999999999
 20
83.449399999999983
 30
0.0
 11
61.483499999999999
 21
81.249300000000005
 31
0.0
  0
LINE
  5
75A
  8
0
 62
     7
 10
61.2836
 20
99.049199999999999
 30
0.0
 11
61.2836
 21
91.049300000000017
 31
0.0
  0
LINE
  5
75B
  8
0
 62
     7
 10
55.083500000000001
 20
99.049199999999999
 30
0.0
 11
55.083500000000001
 21
91.049300000000017
 31
0.0
  0
LINE
  5
75C
  8
0
 62
     7
 10
61.483499999999999
 20
91.049300000000017
 30
0.0
 11
54.883600000000001
 21
91.049300000000017
 31
0.0
  0
LINE
  5
75D
  8
0
 62
     7
 10
54.883600000000001
 20
91.049300000000017
 30
0.0
 11
54.883600000000001
 21
99.049199999999999
 31
0.0
  0
LINE
  5
75E
  8
0
 62
     7
 10
54.883600000000001
 20
99.049199999999999
 30
0.0
 11
61.483499999999999
 21
99.049199999999999
 31
0.0
  0
LINE
  5
75F
  8
0
 62
     7
 10
61.483499999999999
 20
99.049199999999999
 30
0.0
 11
61.483499999999999
 21
91.049300000000017
 31
0.0
  0
LINE
  5
760
  8
0
 62
     7
 10
62.583500000000001
 20
84.849100000000007
 30
0.0
 11
53.783299999999997
 21
84.849100000000007
 31
0.0
  0
LINE
  5
761
  8
0
 62
     7
 10
53.783299999999997
 20
84.849100000000007
 30
0.0
 11
53.783299999999997
 21
85.349300000000014
 31
0.0
  0
LINE
  5
762
  8
0
 62
     7
 10
53.783299999999997
 20
85.349300000000014
 30
0.0
 11
62.583500000000001
 21
85.349300000000014
 31
0.0
  0
LINE
  5
763
  8
0
 62
     7
 10
62.583500000000001
 20
85.349300000000014
 30
0.0
 11
62.583500000000001
 21
84.849100000000007
 31
0.0
  0
LINE
  5
764
  8
0
 62
     7
 10
62.983499999999999
 20
85.349300000000014
 30
0.0
 11
53.383299999999998
 21
85.349300000000014
 31
0.0
  0
LINE
  5
765
  8
0
 62
     7
 10
53.383299999999998
 20
85.349300000000014
 30
0.0
 11
53.383299999999998
 21
85.649399999999986
 31
0.0
  0
LINE
  5
766
  8
0
 62
     7
 10
53.383299999999998
 20
85.649399999999986
 30
0.0
 11
62.983499999999999
 21
85.649399999999986
 31
0.0
  0
LINE
  5
767
  8
0
 62
     7
 10
62.983499999999999
 20
85.649399999999986
 30
0.0
 11
62.983499999999999
 21
85.349300000000014
 31
0.0
  0
LINE
  5
768
  8
0
 62
     7
 10
62.983499999999999
 20
85.649399999999986
 30
0.0
 11
53.383299999999998
 21
85.649399999999986
 31
0.0
  0
LINE
  5
769
  8
0
 62
     7
 10
53.383299999999998
 20
85.649399999999986
 30
0.0
 11
53.383299999999998
 21
86.048999999999978
 31
0.0
  0
LINE
  5
76A
  8
0
 62
     7
 10
53.383299999999998
 20
86.048999999999978
 30
0.0
 11
62.983499999999999
 21
86.048999999999978
 31
0.0
  0
LINE
  5
76B
  8
0
 62
     7
 10
62.983499999999999
 20
86.048999999999978
 30
0.0
 11
62.983499999999999
 21
85.649399999999986
 31
0.0
  0
LINE
  5
76C
  8
0
 62
     7
 10
151.93899999999999
 20
86.048999999999978
 30
0.0
 11
151.93899999999999
 21
90.049499999999995
 31
0.0
  0
LINE
  5
76D
  8
0
 62
     7
 10
153.93899999999999
 20
86.048999999999978
 30
0.0
 11
153.93899999999999
 21
90.049499999999995
 31
0.0
  0
LINE
  5
76E
  8
0
 62
     7
 10
154.33799999999991
 20
86.048999999999978
 30
0.0
 11
154.33799999999991
 21
90.049499999999995
 31
0.0
  0
LINE
  5
76F
  8
0
 62
     7
 10
156.339
 20
86.048999999999978
 30
0.0
 11
156.339
 21
90.049499999999995
 31
0.0
  0
LINE
  5
770
  8
0
 62
     7
 10
156.739
 20
86.448700000000002
 30
0.0
 11
160.339
 21
90.049499999999995
 31
0.0
  0
LINE
  5
771
  8
0
 62
     7
 10
156.739
 20
86.048999999999978
 30
0.0
 11
156.739
 21
90.049499999999995
 31
0.0
  0
LINE
  5
772
  8
0
 62
     7
 10
160.739
 20
90.049499999999995
 30
0.0
 11
160.739
 21
91.049300000000017
 31
0.0
  0
LINE
  5
773
  8
0
 62
     7
 10
151.53899999999999
 20
86.048999999999978
 30
0.0
 11
151.53899999999999
 21
90.049499999999995
 31
0.0
  0
LINE
  5
774
  8
0
 62
     7
 10
149.5389999999999
 20
86.048999999999978
 30
0.0
 11
149.5389999999999
 21
90.049499999999995
 31
0.0
  0
LINE
  5
775
  8
0
 62
     7
 10
149.13900000000001
 20
86.048999999999978
 30
0.0
 11
149.13900000000001
 21
90.049499999999995
 31
0.0
  0
LINE
  5
776
  8
0
 62
     7
 10
147.13900000000001
 20
86.048999999999978
 30
0.0
 11
147.13900000000001
 21
90.049499999999995
 31
0.0
  0
LINE
  5
777
  8
0
 62
     7
 10
146.73899999999989
 20
86.448700000000002
 30
0.0
 11
143.13900000000001
 21
90.049499999999995
 31
0.0
  0
LINE
  5
778
  8
0
 62
     7
 10
146.73899999999989
 20
86.048999999999978
 30
0.0
 11
146.73899999999989
 21
90.049499999999995
 31
0.0
  0
LINE
  5
779
  8
0
 62
     7
 10
146.73899999999989
 20
86.048999999999978
 30
0.0
 11
156.739
 21
86.048999999999978
 31
0.0
  0
LINE
  5
77A
  8
0
 62
     7
 10
142.739
 20
90.049499999999995
 30
0.0
 11
142.739
 21
91.049300000000017
 31
0.0
  0
LINE
  5
77B
  8
0
 62
     7
 10
142.739
 20
90.049499999999995
 30
0.0
 11
160.739
 21
90.049499999999995
 31
0.0
  0
LINE
  5
77C
  8
0
 62
     7
 10
142.739
 20
91.049300000000017
 30
0.0
 11
160.739
 21
91.049300000000017
 31
0.0
  0
LINE
  5
77D
  8
0
  6
AIGENLINE002
 62
     7
 10
59.983499999999999
 20
75.382999999999996
 30
0.0
 11
59.983499999999999
 21
100.56699999999999
 31
0.0
  0
LINE
  5
77E
  8
0
 62
     7
 10
174.67400000000001
 20
96.837100000000007
 30
0.0
 11
174.08199999999999
 21
99.049199999999999
 31
0.0
  0
LINE
  5
77F
  8
0
 62
     7
 10
174.08199999999999
 20
99.049199999999999
 30
0.0
 11
173.489
 21
96.837100000000007
 31
0.0
  0
LINE
  5
780
  8
0
 62
     7
 10
173.489
 20
96.837100000000007
 30
0.0
 11
174.67400000000001
 21
96.837100000000007
 31
0.0
  0
LINE
  5
781
  8
0
 62
     7
 10
173.50399999999999
 20
48.439700000000002
 30
0.0
 11
174.09599999999989
 21
46.228000000000002
 31
0.0
  0
LINE
  5
782
  8
0
 62
     7
 10
174.09599999999989
 20
46.228000000000002
 30
0.0
 11
174.68899999999999
 21
48.439700000000002
 31
0.0
  0
LINE
  5
783
  8
0
 62
     7
 10
174.68899999999999
 20
48.439700000000002
 30
0.0
 11
173.50399999999999
 21
48.439700000000002
 31
0.0
  0
LINE
  5
784
  8
0
 62
     7
 10
174.08199999999999
 20
99.0488
 30
0.0
 11
174.08199999999999
 21
46.228700000000003
 31
0.0
  0
LINE
  5
785
  8
0
 62
     7
 10
149.9379999999999
 20
83.718800000000002
 30
0.0
 11
149.5389999999999
 21
83.718800000000002
 31
0.0
  0
LINE
  5
786
  8
0
 62
     7
 10
151.73899999999989
 20
84.849100000000007
 30
0.0
 11
147.73899999999989
 21
84.849100000000007
 31
0.0
  0
LINE
  5
787
  8
0
 62
     7
 10
147.73899999999989
 20
84.849100000000007
 30
0.0
 11
147.73899999999989
 21
83.802800000000005
 31
0.0
  0
ARC
  5
788
  8
0
 62
     7
 10
148.02335299999999
 20
83.860229000000004
 30
0.0
 40
0.29006
 50
191.41508200000001
 51
212.9467369999999
  0
ARC
  5
789
  8
0
 62
     7
 10
148.18917899999991
 20
83.961611000000005
 30
0.0
 40
0.484382
 50
212.34238599999989
 51
255.48154099999999
  0
ARC
  5
78A
  8
0
 62
     7
 10
148.36290099999999
 20
84.471164000000002
 30
0.0
 40
1.0220139999999991
 50
253.21421900000001
 51
271.14189599999992
  0
LINE
  5
78B
  8
0
 62
     7
 10
148.3829999999999
 20
83.449399999999983
 30
0.0
 11
151.73899999999989
 21
83.449399999999983
 31
0.0
  0
LINE
  5
78C
  8
0
 62
     7
 10
149.9379999999999
 20
84.849100000000007
 30
0.0
 11
149.9379999999999
 21
83.718800000000002
 31
0.0
  0
ARC
  5
78D
  8
0
 62
     7
 10
150.31823899999989
 20
83.969363000000001
 30
0.0
 40
0.455065
 50
213.41465400000001
 51
230.45644300000001
  0
ARC
  5
78E
  8
0
 62
     7
 10
150.48815999999999
 20
84.156998999999985
 30
0.0
 40
0.708036
 50
229.5200089999999
 51
271.902084
  0
LINE
  5
78F
  8
0
 62
     7
 10
149.5389999999999
 20
84.849100000000007
 30
0.0
 11
149.5389999999999
 21
83.718800000000002
 31
0.0
  0
ARC
  5
790
  8
0
 62
     7
 10
148.430519
 20
85.782909000000004
 30
0.0
 40
2.3428409999999991
 50
275.10273899999987
 51
298.231357
  0
LINE
  5
791
  8
0
 62
     7
 10
153.5389999999999
 20
83.718800000000002
 30
0.0
 11
153.93899999999999
 21
83.718800000000002
 31
0.0
  0
LINE
  5
792
  8
0
 62
     7
 10
151.73899999999989
 20
84.849100000000007
 30
0.0
 11
155.739
 21
84.849100000000007
 31
0.0
  0
LINE
  5
793
  8
0
 62
     7
 10
155.739
 20
84.849100000000007
 30
0.0
 11
155.739
 21
83.802800000000005
 31
0.0
  0
ARC
  5
794
  8
0
 62
     7
 10
155.45565300000001
 20
83.857793000000015
 30
0.0
 40
0.28823
 50
327.39403599999991
 51
349.00527
  0
ARC
  5
795
  8
0
 62
     7
 10
155.29225400000001
 20
83.956518000000017
 30
0.0
 40
0.479101
 50
284.50932399999999
 51
327.97808300000003
  0
ARC
  5
796
  8
0
 62
     7
 10
155.117648
 20
84.467591999999996
 30
0.0
 40
1.018446999999999
 50
268.84463099999988
 51
286.81618099999997
  0
LINE
  5
797
  8
0
 62
     7
 10
155.09700000000001
 20
83.449399999999983
 30
0.0
 11
151.73899999999989
 21
83.449399999999983
 31
0.0
  0
LINE
  5
798
  8
0
 62
     7
 10
153.5389999999999
 20
84.849100000000007
 30
0.0
 11
153.5389999999999
 21
83.718800000000002
 31
0.0
  0
ARC
  5
799
  8
0
 62
     7
 10
153.16094499999991
 20
83.966724999999997
 30
0.0
 40
0.451736
 50
309.55765600000001
 51
326.70754099999988
  0
ARC
  5
79A
  8
0
 62
     7
 10
152.98927699999999
 20
84.156145999999993
 30
0.0
 40
0.707201
 50
268.05489899999998
 51
310.50713100000002
  0
LINE
  5
79B
  8
0
 62
     7
 10
153.93899999999999
 20
84.849100000000007
 30
0.0
 11
153.93899999999999
 21
83.718800000000002
 31
0.0
  0
ARC
  5
79C
  8
0
 62
     7
 10
155.054058
 20
85.806133000000017
 30
0.0
 40
2.3665970000000001
 50
241.88632100000001
 51
264.77962300000002
  0
LINE
  5
79D
  8
0
 62
     7
 10
154.83899999999991
 20
83.449399999999983
 30
0.0
 11
154.83899999999991
 21
81.049499999999995
 31
0.0
  0
LINE
  5
79E
  8
0
 62
     7
 10
148.63900000000001
 20
83.449399999999983
 30
0.0
 11
148.63900000000001
 21
81.049499999999995
 31
0.0
  0
LINE
  5
79F
  8
0
 62
     7
 10
155.0389999999999
 20
81.249300000000005
 30
0.0
 11
148.43899999999991
 21
81.249300000000005
 31
0.0
  0
LINE
  5
7A0
  8
0
 62
     7
 10
155.0389999999999
 20
81.249300000000005
 30
0.0
 11
154.83899999999991
 21
81.049499999999995
 31
0.0
  0
LINE
  5
7A1
  8
0
 62
     7
 10
154.83899999999991
 20
81.049499999999995
 30
0.0
 11
148.63900000000001
 21
81.049499999999995
 31
0.0
  0
LINE
  5
7A2
  8
0
 62
     7
 10
148.63900000000001
 20
81.049499999999995
 30
0.0
 11
148.43899999999991
 21
81.249300000000005
 31
0.0
  0
LINE
  5
7A3
  8
0
 62
     7
 10
148.43899999999991
 20
81.249300000000005
 30
0.0
 11
148.43899999999991
 21
83.449399999999983
 31
0.0
  0
LINE
  5
7A4
  8
0
 62
     7
 10
148.43899999999991
 20
83.449399999999983
 30
0.0
 11
155.0389999999999
 21
83.449399999999983
 31
0.0
  0
LINE
  5
7A5
  8
0
 62
     7
 10
155.0389999999999
 20
83.449399999999983
 30
0.0
 11
155.0389999999999
 21
81.249300000000005
 31
0.0
  0
LINE
  5
7A6
  8
0
 62
     7
 10
154.83899999999991
 20
99.049199999999999
 30
0.0
 11
154.83899999999991
 21
91.049300000000017
 31
0.0
  0
LINE
  5
7A7
  8
0
 62
     7
 10
148.63900000000001
 20
99.049199999999999
 30
0.0
 11
148.63900000000001
 21
91.049300000000017
 31
0.0
  0
LINE
  5
7A8
  8
0
 62
     7
 10
155.0389999999999
 20
91.049300000000017
 30
0.0
 11
148.43899999999991
 21
91.049300000000017
 31
0.0
  0
LINE
  5
7A9
  8
0
 62
     7
 10
148.43899999999991
 20
91.049300000000017
 30
0.0
 11
148.43899999999991
 21
99.049199999999999
 31
0.0
  0
LINE
  5
7AA
  8
0
 62
     7
 10
148.43899999999991
 20
99.049199999999999
 30
0.0
 11
155.0389999999999
 21
99.049199999999999
 31
0.0
  0
LINE
  5
7AB
  8
0
 62
     7
 10
155.0389999999999
 20
99.049199999999999
 30
0.0
 11
155.0389999999999
 21
91.049300000000017
 31
0.0
  0
LINE
  5
7AC
  8
0
 62
     7
 10
156.13900000000001
 20
84.849100000000007
 30
0.0
 11
147.339
 21
84.849100000000007
 31
0.0
  0
LINE
  5
7AD
  8
0
 62
     7
 10
147.339
 20
84.849100000000007
 30
0.0
 11
147.339
 21
85.349300000000014
 31
0.0
  0
LINE
  5
7AE
  8
0
 62
     7
 10
147.339
 20
85.349300000000014
 30
0.0
 11
156.13900000000001
 21
85.349300000000014
 31
0.0
  0
LINE
  5
7AF
  8
0
 62
     7
 10
156.13900000000001
 20
85.349300000000014
 30
0.0
 11
156.13900000000001
 21
84.849100000000007
 31
0.0
  0
LINE
  5
7B0
  8
0
 62
     7
 10
156.5389999999999
 20
85.349300000000014
 30
0.0
 11
146.9379999999999
 21
85.349300000000014
 31
0.0
  0
LINE
  5
7B1
  8
0
 62
     7
 10
146.9379999999999
 20
85.349300000000014
 30
0.0
 11
146.9379999999999
 21
85.649399999999986
 31
0.0
  0
LINE
  5
7B2
  8
0
 62
     7
 10
146.9379999999999
 20
85.649399999999986
 30
0.0
 11
156.5389999999999
 21
85.649399999999986
 31
0.0
  0
LINE
  5
7B3
  8
0
 62
     7
 10
156.5389999999999
 20
85.649399999999986
 30
0.0
 11
156.5389999999999
 21
85.349300000000014
 31
0.0
  0
LINE
  5
7B4
  8
0
 62
     7
 10
156.5389999999999
 20
85.649399999999986
 30
0.0
 11
146.9379999999999
 21
85.649399999999986
 31
0.0
  0
LINE
  5
7B5
  8
0
 62
     7
 10
146.9379999999999
 20
85.649399999999986
 30
0.0
 11
146.9379999999999
 21
86.048999999999978
 31
0.0
  0
LINE
  5
7B6
  8
0
 62
     7
 10
146.9379999999999
 20
86.048999999999978
 30
0.0
 11
156.5389999999999
 21
86.048999999999978
 31
0.0
  0
LINE
  5
7B7
  8
0
 62
     7
 10
156.5389999999999
 20
86.048999999999978
 30
0.0
 11
156.5389999999999
 21
85.649399999999986
 31
0.0
  0
LINE
  5
7B8
  8
0
 62
     7
 10
138.86600000000001
 20
96.837400000000002
 30
0.0
 11
138.273
 21
99.049199999999999
 31
0.0
  0
LINE
  5
7B9
  8
0
 62
     7
 10
138.273
 20
99.049199999999999
 30
0.0
 11
137.68100000000001
 21
96.837400000000002
 31
0.0
  0
LINE
  5
7BA
  8
0
 62
     7
 10
137.68100000000001
 20
96.837400000000002
 30
0.0
 11
138.86600000000001
 21
96.837400000000002
 31
0.0
  0
LINE
  5
7BB
  8
0
 62
     7
 10
137.69499999999991
 20
93.261000000000024
 30
0.0
 11
138.2879999999999
 21
91.049300000000017
 31
0.0
  0
LINE
  5
7BC
  8
0
 62
     7
 10
138.2879999999999
 20
91.049300000000017
 30
0.0
 11
138.88
 21
93.261000000000024
 31
0.0
  0
LINE
  5
7BD
  8
0
 62
     7
 10
138.88
 20
93.261000000000024
 30
0.0
 11
137.69499999999991
 21
93.261000000000024
 31
0.0
  0
LINE
  5
7BE
  8
0
 62
     7
 10
138.273
 20
99.0488
 30
0.0
 11
138.273
 21
91.049300000000017
 31
0.0
  0
LINE
  5
7BF
  8
0
 62
     7
 10
145.38900000000001
 20
99.049199999999999
 30
0.0
 11
137.71299999999991
 21
99.049199999999999
 31
0.0
  0
LINE
  5
7C0
  8
0
 62
     7
 10
141.91599999999991
 20
91.049300000000017
 30
0.0
 11
137.71299999999991
 21
91.049300000000017
 31
0.0
  0
LINE
  5
7C1
  8
0
 62
     7
 10
139.565
 20
242.63699999999989
 30
0.0
 11
145.626
 21
242.63699999999989
 31
0.0
  0
LINE
  5
7C2
  8
0
 62
     7
 10
148.11899999999989
 20
244.29199999999989
 30
0.0
 11
149.26300000000001
 21
246.274
 31
0.0
  0
LINE
  5
7C3
  8
0
 62
     7
 10
149.26300000000001
 20
246.274
 30
0.0
 11
147.28
 21
245.12999999999991
 31
0.0
  0
LINE
  5
7C4
  8
0
 62
     7
 10
147.28
 20
245.12999999999991
 30
0.0
 11
148.11899999999989
 21
244.29199999999989
 31
0.0
  0
LINE
  5
7C5
  8
0
 62
     7
 10
155.3589999999999
 20
253.20699999999999
 30
0.0
 11
154.21299999999999
 21
251.22399999999999
 31
0.0
  0
LINE
  5
7C6
  8
0
 62
     7
 10
154.21299999999999
 20
251.22399999999999
 30
0.0
 11
156.196
 21
252.369
 31
0.0
  0
LINE
  5
7C7
  8
0
 62
     7
 10
156.196
 20
252.369
 30
0.0
 11
155.3589999999999
 21
253.20699999999999
 31
0.0
  0
LINE
  5
7C8
  8
0
 62
     7
 10
157.125
 20
254.136
 30
0.0
 11
145.626
 21
242.63699999999989
 31
0.0
  0
LINE
  5
7C9
  8
0
  6
AIGENLINE002
 62
     7
 10
151.73799999999989
 20
255.06999999999991
 30
0.0
 11
151.73799999999989
 21
241.91800000000001
 31
0.0
  0
ARC
  5
7CA
  8
0
 62
     7
 10
151.604196
 20
248.614902
 30
0.0
 40
3.636995999999999
 50
2.118552999999999
 51
87.884256000000008
  0
ARC
  5
7CB
  8
0
 62
     7
 10
151.738382
 20
248.74926499999989
 30
0.0
 40
3.5001540000000002
 50
89.998589999999993
 51
179.99856
  0
ARC
  5
7CC
  8
0
 62
     7
 10
151.738381
 20
248.749438
 30
0.0
 40
3.500151999999999
 50
180.00141999999991
 51
270.00142999999991
  0
ARC
  5
7CD
  8
0
 62
     7
 10
151.60480799999999
 20
248.88319000000001
 30
0.0
 40
3.6363620000000001
 50
272.10646400000002
 51
357.89072599999992
  0
LINE
  5
7CE
  8
0
  6
AIGENLINE002
 62
     7
 10
144.80000000000001
 20
248.75
 30
0.0
 11
158.51599999999991
 21
248.75
 31
0.0
  0
TEXT
  5
7CF
  8
_________2
 62
     7
 10
24.586400000000001
 20
0.707627
 30
0.0
 40
3.9357000000000002
  1
（社）日本水道協会認証品
 41
0.5
  0
TEXT
  5
7D0
  8
_________2
 62
     7
 10
109.179
 20
24.226099999999999
 30
0.0
 40
3.9357000000000002
  1
シン キッチン用湯水混合栓
 41
0.5
  0
LINE
  5
7D1
  8
_________2
 62
     7
 10
205.30099999999999
 20
127.411
 30
0.0
 11
183.55099999999999
 21
127.411
 31
0.0
  0
LINE
  5
7D2
  8
_________2
 62
     7
 10
100.2999999999999
 20
-4.0910799999999998
 30
0.0
 11
100.2999999999999
 21
-21.070999999999991
 31
0.0
  0
LINE
  5
7D3
  8
_________2
 62
     7
 10
100.2999999999999
 20
275.93099999999993
 30
0.0
 11
100.2999999999999
 21
258.911
 31
0.0
  0
LINE
  5
7D4
  8
_________2
 62
     7
 10
17.049199999999988
 20
127.411
 30
0.0
 11
-4.7012099999999988
 21
127.411
 31
0.0
  0
LINE
  5
7D5
  8
_________2
 62
     7
 10
76.740700000000004
 20
29.8047
 30
0.0
 11
74.554400000000001
 21
29.8047
 31
0.0
  0
LINE
  5
7D6
  8
_________2
 62
     7
 10
77.2333
 20
29.8047
 30
0.0
 11
76.981099999999984
 21
29.8047
 31
0.0
  0
LINE
  5
7D7
  8
_________2
 62
     7
 10
77.725999999999999
 20
29.8047
 30
0.0
 11
80.650899999999993
 21
29.8047
 31
0.0
  0
LINE
  5
7D8
  8
_________2
 62
     7
 10
77.2333
 20
29.8047
 30
0.0
 11
77.485500000000002
 21
29.8047
 31
0.0
  0
LINE
  5
7D9
  8
_________2
 62
     7
 10
70.837100000000007
 20
29.8047
 30
0.0
 11
68.650199999999998
 21
29.8047
 31
0.0
  0
LINE
  5
7DA
  8
_________2
 62
     7
 10
71.329099999999997
 20
29.8047
 30
0.0
 11
71.077600000000004
 21
29.8047
 31
0.0
  0
LINE
  5
7DB
  8
_________2
 62
     7
 10
71.329099999999997
 20
30.2974
 30
0.0
 11
71.329099999999997
 21
32.484400000000001
 31
0.0
  0
LINE
  5
7DC
  8
_________2
 62
     7
 10
71.329099999999997
 20
29.8047
 30
0.0
 11
71.329099999999997
 21
30.057300000000001
 31
0.0
  0
LINE
  5
7DD
  8
_________2
 62
     7
 10
71.821700000000007
 20
29.8047
 30
0.0
 11
74.008700000000005
 21
29.8047
 31
0.0
  0
LINE
  5
7DE
  8
_________2
 62
     7
 10
71.329099999999997
 20
29.8047
 30
0.0
 11
71.581299999999985
 21
29.8047
 31
0.0
  0
LINE
  5
7DF
  8
_________2
 62
     7
 10
71.329099999999997
 20
29.312799999999999
 30
0.0
 11
71.329099999999997
 21
27.126200000000001
 31
0.0
  0
LINE
  5
7E0
  8
_________2
 62
     7
 10
71.329099999999997
 20
29.8047
 30
0.0
 11
71.329099999999997
 21
29.5532
 31
0.0
  0
LINE
  5
7E1
  8
_________2
 62
     7
 10
75.040199999999999
 20
28.5852
 30
0.0
 11
80.218199999999996
 21
27.720400000000001
 31
0.0
  0
LINE
  5
7E2
  8
_________2
 62
     7
 10
75.040199999999999
 20
31.024699999999999
 30
0.0
 11
80.218199999999996
 21
31.8901
 31
0.0
  0
LINE
  5
7E3
  8
_________2
 62
     7
 10
80.218199999999996
 20
27.720400000000001
 30
0.0
 11
80.218199999999996
 21
31.8901
 31
0.0
  0
LINE
  5
7E4
  8
_________2
 62
     7
 10
75.040199999999999
 20
28.5852
 30
0.0
 11
75.040199999999999
 21
31.024699999999999
 31
0.0
  0
ARC
  5
7E5
  8
_________2
 62
     7
 10
71.282501999999994
 20
29.757801000000001
 30
0.0
 40
1.267714
 50
2.1220840000000001
 51
87.894083999999992
  0
ARC
  5
7E6
  8
_________2
 62
     7
 10
71.375640000000004
 20
29.758545999999999
 30
0.0
 40
1.2669680000000001
 50
92.105782999999988
 51
177.91037
  0
ARC
  5
7E7
  8
_________2
 62
     7
 10
71.376013999999998
 20
29.851671
 30
0.0
 40
1.2673680000000001
 50
182.12203600000001
 51
267.877993
  0
ARC
  5
7E8
  8
_________2
 62
     7
 10
71.282195999999999
 20
29.852347999999999
 30
0.0
 40
1.2680439999999991
 50
272.11916400000001
 51
357.84848499999993
  0
ARC
  5
7E9
  8
_________2
 62
     7
 10
71.248716999999985
 20
29.724731999999989
 30
0.0
 40
2.1668310000000002
 50
2.1161439999999989
 51
87.874379000000005
  0
ARC
  5
7EA
  8
_________2
 62
     7
 10
71.408756000000011
 20
29.726146
 30
0.0
 40
2.165392999999999
 50
92.108508999999998
 51
177.91986499999999
  0
ARC
  5
7EB
  8
_________2
 62
     7
 10
71.409094999999994
 20
29.884751999999999
 30
0.0
 40
2.1657829999999998
 50
182.117133
 51
267.88289700000001
  0
ARC
  5
7EC
  8
_________2
 62
     7
 10
71.249115000000003
 20
29.885429999999989
 30
0.0
 40
2.1664590000000001
 50
272.11546800000002
 51
357.86560400000002
  0
TEXT
  5
7ED
  8
_________2
 62
     7
 10
104.605
 20
1.6794899999999999
 30
0.0
 40
3.0923400000000001
  1
図番
 41
0.5
  0
LINE
  5
7EE
  8
_________2
 62
     7
 10
103.55
 20
5.9087199999999989
 30
0.0
 11
183.55099999999999
 21
5.9087199999999989
 31
0.0
  0
TEXT
  5
7EF
  8
_________2
 62
     7
 10
104.605
 20
11.679299999999991
 30
0.0
 40
3.0923400000000001
  1
品番
 41
0.5
  0
TEXT
  5
7F0
  8
_________2
 62
     7
 10
104.605
 20
31.8184
 30
0.0
 40
3.0923400000000001
  1
名称
 41
0.5
  0
TEXT
  5
7F1
  8
_________2
 62
     7
 10
91.844758333333345
 20
26.822299999999998
 30
0.0
 40
3.6545800000000002
  1
mm
 41
0.5
 72
     1
 11
93.367500000000007
 21
26.822299999999998
 31
0.0
  0
TEXT
  5
7F2
  8
_________2
 62
     7
 10
85.642899999999983
 20
31.8184
 30
0.0
 40
3.0923400000000001
  1
単位
 41
0.5
  0
TEXT
  5
7F3
  8
_________2
 62
     7
 10
85.642899999999983
 20
19.410799999999991
 30
0.0
 40
3.0923400000000001
  1
尺度
 41
0.5
  0
TEXT
  5
7F4
  8
_________2
 62
     7
 10
90.548458666666676
 20
13.218199999999991
 30
0.0
 40
3.6545800000000002
  1
1 ： 5
 41
0.5
 72
     1
 11
93.959400000000016
 21
13.218199999999991
 31
0.0
  0
TEXT
  5
7F5
  8
_________2
 62
     7
 10
135.18663749999999
 20
9.1082000000000001
 30
0.0
 40
3.9357000000000002
  1
KW0261432
 41
0.5
 72
     1
 11
143.55000000000001
 21
9.1082000000000001
 31
0.0
  0
TEXT
  5
7F6
  8
_________2
 62
     7
 10
135.18663749999999
 20
-0.8926299999999999
 30
0.0
 40
3.9357000000000002
  1
KW0261432
 41
0.5
 72
     1
 11
143.55000000000001
 21
-0.8926299999999999
 31
0.0
  0
TEXT
  5
7F7
  8
_________2
 62
     7
 10
39.303181000000002
 20
13.603400000000001
 30
0.0
 40
3.6545800000000002
  1
田尻
 41
0.5
 72
     1
 11
41.313200000000002
 21
13.603400000000001
 31
0.0
  0
TEXT
  5
7F8
  8
_________2
 62
     7
 10
20.790090666666661
 20
13.603400000000001
 30
0.0
 40
3.6545800000000002
  1
麻生
 41
0.5
 72
     1
 11
22.73919999999999
 21
13.603400000000001
 31
0.0
  0
TEXT
  5
7F9
  8
_________2
 62
     7
 10
67.785399999999996
 20
13.218199999999991
 30
0.0
 40
3.6545800000000002
  1
11.12.12
 41
0.5
  0
TEXT
  5
7FA
  8
_________2
 62
     7
 10
66.592699999999994
 20
19.410799999999991
 30
0.0
 40
3.0923400000000001
  1
日付
 41
0.5
  0
TEXT
  5
7FB
  8
_________2
 62
     7
 10
29.638999999999999
 20
19.410799999999991
 30
0.0
 40
3.0923400000000001
  1
検図
 41
0.5
  0
TEXT
  5
7FC
  8
_________2
 62
     7
 10
18.020700000000001
 20
5.21143
 30
0.0
 40
3.0923400000000001
  1
備考
 41
0.5
  0
TEXT
  5
7FD
  8
_________2
 62
     7
 10
18.020700000000001
 20
19.410799999999991
 30
0.0
 40
3.0923400000000001
  1
製図
 41
0.5
  0
TEXT
  5
7FE
  8
_________2
 62
     7
 10
23.788165333333328
 20
27.936800000000002
 30
0.0
 40
4.4979399999999989
  1
セラトレーディング株式会社
 41
0.5
 72
     1
 11
41.180199999999999
 21
27.936800000000002
 31
0.0
  0
LINE
  5
7FF
  8
_________2
 62
     7
 10
183.55099999999999
 20
-4.0910799999999998
 30
0.0
 11
17.049199999999988
 21
-4.0910799999999998
 31
0.0
  0
LINE
  5
800
  8
_________2
 62
     7
 10
17.049199999999988
 20
-4.0910799999999998
 30
0.0
 11
17.049199999999988
 21
258.911
 31
0.0
  0
LINE
  5
801
  8
_________2
 62
     7
 10
17.049199999999988
 20
258.911
 30
0.0
 11
183.55099999999999
 21
258.911
 31
0.0
  0
LINE
  5
802
  8
_________2
 62
     7
 10
183.55099999999999
 20
258.911
 30
0.0
 11
183.55099999999999
 21
-4.0910799999999998
 31
0.0
  0
LINE
  5
803
  8
_________2
 62
     7
 10
65.549599999999998
 20
9.4092999999999982
 30
0.0
 11
65.549599999999998
 21
35.909100000000002
 31
0.0
  0
LINE
  5
804
  8
_________2
 62
     7
 10
84.549400000000006
 20
9.4092999999999982
 30
0.0
 11
84.549400000000006
 21
35.909100000000002
 31
0.0
  0
LINE
  5
805
  8
_________2
 62
     7
 10
103.55
 20
-4.0910799999999998
 30
0.0
 11
103.55
 21
35.909100000000002
 31
0.0
  0
LINE
  5
806
  8
_________2
 62
     7
 10
28.548999999999999
 20
9.4092999999999982
 30
0.0
 11
28.548999999999999
 21
23.409199999999998
 31
0.0
  0
LINE
  5
807
  8
_________2
 62
     7
 10
17.049199999999988
 20
9.4092999999999982
 30
0.0
 11
103.55
 21
9.4092999999999982
 31
0.0
  0
LINE
  5
808
  8
_________2
 62
     7
 10
17.049199999999988
 20
23.409199999999998
 30
0.0
 11
103.55
 21
23.409199999999998
 31
0.0
  0
LINE
  5
809
  8
_________2
 62
     7
 10
103.55
 20
15.9085
 30
0.0
 11
183.55099999999999
 21
15.9085
 31
0.0
  0
LINE
  5
80A
  8
_________2
 62
     7
 10
17.049199999999988
 20
35.909100000000002
 30
0.0
 11
183.55099999999999
 21
35.909100000000002
 31
0.0
  0
ENDSEC
  0
EOF
