  0
SECTION
  2
HEADER
  9
$ACADVER
  1
AC1009
  9
$INSBASE
 10
0.0
 20
0.0
 30
0.0
  9
$EXTMIN
 10
-4.70052
 20
-21.070699999999999
 30
0.0
  9
$EXTMAX
 10
205.30099999999999
 20
275.93099999999998
 30
0.0
  9
$LIMMIN
 10
0.0
 20
0.0
  9
$LIMMAX
 10
12.0
 20
9.0
  9
$ORTHOMODE
 70
     0
  9
$REGENMODE
 70
     1
  9
$FILLMODE
 70
     1
  9
$QTEXTMODE
 70
     0
  9
$MIRRTEXT
 70
     1
  9
$DRAGMODE
 70
     2
  9
$LTSCALE
 40
1.0
  9
$OSMODE
 70
    37
  9
$ATTMODE
 70
     1
  9
$TEXTSIZE
 40
0.0
  9
$TRACEWID
 40
0.05
  9
$TEXTSTYLE
  7
STANDARD
  9
$CLAYER
  8
0
  9
$CELTYPE
  6
CONTINUOUS
  9
$CECOLOR
 62
   256
  9
$DIMSCALE
 40
1.0
  9
$DIMASZ
 40
0.18
  9
$DIMEXO
 40
0.0625
  9
$DIMDLI
 40
0.38
  9
$DIMRND
 40
0.0
  9
$DIMDLE
 40
0.0
  9
$DIMEXE
 40
0.18
  9
$DIMTP
 40
0.0
  9
$DIMTM
 40
0.0
  9
$DIMTXT
 40
0.18
  9
$DIMCEN
 40
0.09
  9
$DIMTSZ
 40
0.0
  9
$DIMTOL
 70
     0
  9
$DIMLIM
 70
     0
  9
$DIMTIH
 70
     1
  9
$DIMTOH
 70
     1
  9
$DIMSE1
 70
     0
  9
$DIMSE2
 70
     0
  9
$DIMTAD
 70
     0
  9
$DIMZIN
 70
     0
  9
$DIMBLK
  1

  9
$DIMASO
 70
     1
  9
$DIMSHO
 70
     1
  9
$DIMPOST
  1

  9
$DIMAPOST
  1

  9
$DIMALT
 70
     0
  9
$DIMALTD
 70
     2
  9
$DIMALTF
 40
25.399999999999999
  9
$DIMLFAC
 40
1.0
  9
$DIMTOFL
 70
     0
  9
$DIMTVP
 40
0.0
  9
$DIMTIX
 70
     0
  9
$DIMSOXD
 70
     0
  9
$DIMSAH
 70
     0
  9
$DIMBLK1
  1

  9
$DIMBLK2
  1

  9
$DIMSTYLE
  2
STANDARD
  9
$DIMCLRD
 70
     0
  9
$DIMCLRE
 70
     0
  9
$DIMCLRT
 70
     0
  9
$DIMTFAC
 40
1.0
  9
$DIMGAP
 40
0.09
  9
$LUNITS
 70
     2
  9
$LUPREC
 70
     4
  9
$SKETCHINC
 40
0.1
  9
$FILLETRAD
 40
0.0
  9
$AUNITS
 70
     0
  9
$AUPREC
 70
     0
  9
$MENU
  1
.
  9
$ELEVATION
 40
0.0
  9
$PELEVATION
 40
0.0
  9
$THICKNESS
 40
0.0
  9
$LIMCHECK
 70
     0
  9
$BLIPMODE
 70
     0
  9
$CHAMFERA
 40
0.0
  9
$CHAMFERB
 40
0.0
  9
$SKPOLY
 70
     0
  9
$TDCREATE
 40
2444972.375
  9
$TDUPDATE
 40
2458646.2468821299
  9
$TDINDWG
 40
0.0000408218
  9
$TDUSRTIMER
 40
0.0000408218
  9
$USRTIMER
 70
     1
  9
$ANGBASE
 50
0.0
  9
$ANGDIR
 70
     0
  9
$PDMODE
 70
     0
  9
$PDSIZE
 40
0.0
  9
$PLINEWID
 40
0.0
  9
$COORDS
 70
     1
  9
$SPLFRAME
 70
     0
  9
$SPLINETYPE
 70
     6
  9
$SPLINESEGS
 70
     8
  9
$ATTDIA
 70
     1
  9
$ATTREQ
 70
     1
  9
$HANDLING
 70
     1
  9
$HANDSEED
  5
592
  9
$SURFTAB1
 70
     6
  9
$SURFTAB2
 70
     6
  9
$SURFTYPE
 70
     6
  9
$SURFU
 70
     6
  9
$SURFV
 70
     6
  9
$UCSNAME
  2

  9
$UCSORG
 10
0.0
 20
0.0
 30
0.0
  9
$UCSXDIR
 10
1.0
 20
0.0
 30
0.0
  9
$UCSYDIR
 10
0.0
 20
1.0
 30
0.0
  9
$PUCSNAME
  2

  9
$PUCSORG
 10
0.0
 20
0.0
 30
0.0
  9
$PUCSXDIR
 10
1.0
 20
0.0
 30
0.0
  9
$PUCSYDIR
 10
0.0
 20
1.0
 30
0.0
  9
$USERI1
 70
     0
  9
$USERI2
 70
     0
  9
$USERI3
 70
     0
  9
$USERI4
 70
     0
  9
$USERI5
 70
     0
  9
$USERR1
 40
0.0
  9
$USERR2
 40
0.0
  9
$USERR3
 40
0.0
  9
$USERR4
 40
0.0
  9
$USERR5
 40
0.0
  9
$WORLDVIEW
 70
     1
  9
$SHADEDGE
 70
     3
  9
$SHADEDIF
 70
    70
  9
$TILEMODE
 70
     1
  9
$MAXACTVP
 70
    48
  9
$PLIMCHECK
 70
     0
  9
$PEXTMIN
 10
1.0000000000000000E+020
 20
1.0000000000000000E+020
 30
1.0000000000000000E+020
  9
$PEXTMAX
 10
-1.0000000000000000E+020
 20
-1.0000000000000000E+020
 30
-1.0000000000000000E+020
  9
$PLIMMIN
 10
0.0
 20
0.0
  9
$PLIMMAX
 10
12.0
 20
9.0
  9
$UNITMODE
 70
     0
  9
$VISRETAIN
 70
     1
  9
$PLINEGEN
 70
     0
  9
$PSLTSCALE
 70
     1
  0
ENDSEC
  0
SECTION
  2
TABLES
  0
TABLE
  2
VPORT
 70
     1
  0
VPORT
  2
*ACTIVE
 70
     0
 10
0.0
 20
0.0
 11
1.0
 21
1.0
 12
192.06946692922821
 22
127.4301499999999
 13
0.0
 23
0.0
 14
1.0
 24
1.0
 15
0.0
 25
0.0
 16
0.0
 26
0.0
 36
1.0
 17
0.0
 27
0.0
 37
0.0
 40
285.31627573047712
 41
2.2716468590831909
 42
50.0
 43
0.0
 44
0.0
 50
0.0
 51
0.0
 71
     0
 72
   100
 73
     1
 74
     1
 75
     0
 76
     0
 77
     0
 78
     0
  0
ENDTAB
  0
TABLE
  2
LTYPE
 70
     4
  0
LTYPE
  2
CONTINUOUS
 70
     0
  3
Solid line
 72
    65
 73
     0
 40
0.0
  0
LTYPE
  2
AIGENLINE001
 70
     0
  3
generate AI->DXF Converter
 72
    65
 73
     4
 40
5.8561449999999988
 49
3.5278
 49
-0.776115
 49
0.776115
 49
-0.776115
  0
LTYPE
  2
AIGENLINE002
 70
     0
  3
generate AI->DXF Converter
 72
    65
 73
     6
 40
7.4083750000000004
 49
3.5278
 49
-0.776115
 49
0.776115
 49
-0.776115
 49
0.776115
 49
-0.776115
  0
LTYPE
  2
AIGENLINE003
 70
     0
  3
generate AI->DXF Converter
 72
    65
 73
     2
 40
1.5522299999999991
 49
0.776115
 49
-0.776115
  0
ENDTAB
  0
TABLE
  2
LAYER
 70
     4
  0
LAYER
  2
0
 70
     0
 62
     7
  6
CONTINUOUS
  0
LAYER
  2
____
 70
     0
 62
     7
  6
CONTINUOUS
  0
LAYER
  2
_________1
 70
     0
 62
     7
  6
CONTINUOUS
  0
LAYER
  2
_________2
 70
     0
 62
     7
  6
CONTINUOUS
  0
ENDTAB
  0
TABLE
  2
STYLE
 70
     1
  0
STYLE
  2
STANDARD
 70
     0
 40
0.0
 41
0.0
 50
0.0
 71
     0
 42
0.0
  3
TXT
  4
EXTFONT.SHX
  0
ENDTAB
  0
TABLE
  2
VIEW
 70
     0
  0
ENDTAB
  0
TABLE
  2
UCS
 70
     0
  0
ENDTAB
  0
TABLE
  2
APPID
 70
     3
  0
APPID
  2
ACAD
 70
     0
  0
APPID
  2
ACAD_NAV_VCDISPLAY
 70
     0
  0
APPID
  2
ACAD_MLEADERVER
 70
     0
  0
ENDTAB
  0
TABLE
  2
DIMSTYLE
 70
     1
  0
DIMSTYLE
  2
STANDARD
 70
     0
  3

  4

  5

  6

  7

 40
1.0
 41
0.18
 42
0.0625
 43
0.38
 44
0.18
 45
0.0
 46
0.0
 47
0.0
 48
0.0
140
0.18
141
0.09
142
0.0
143
25.399999999999999
144
1.0
145
0.0
146
1.0
147
0.09
 71
     0
 72
     0
 73
     1
 74
     1
 75
     0
 76
     0
 77
     0
 78
     0
170
     0
171
     2
172
     0
173
     0
174
     0
175
     0
176
     0
177
     0
178
     0
  0
ENDTAB
  0
ENDSEC
  0
SECTION
  2
BLOCKS
  0
BLOCK
  8
0
  2
$MODEL_SPACE
 70
     0
 10
0.0
 20
0.0
 30
0.0
  3
$MODEL_SPACE
  1

  0
ENDBLK
  5
1A
  8
0
  0
BLOCK
 67
     1
  8
0
  2
$PAPER_SPACE
 70
     0
 10
0.0
 20
0.0
 30
0.0
  3
$PAPER_SPACE
  1

  0
ENDBLK
  5
17
 67
     1
  8
0
  0
BLOCK
  8
_________1
  2
AIGNBL02010002
 70
     0
 10
0.0
 20
0.0
 30
0.0
  3
AIGNBL02010002
  1

  0
LINE
  5
28
  8
_________1
 62
     7
 10
91.855400000000003
 20
85.918800000000005
 30
0.0
 11
92.447999999999993
 21
83.707400000000007
 31
0.0
  0
LINE
  5
29
  8
_________1
 62
     7
 10
92.447999999999993
 20
83.707400000000007
 30
0.0
 11
93.040599999999984
 21
85.918800000000005
 31
0.0
  0
LINE
  5
2A
  8
_________1
 62
     7
 10
93.040599999999984
 20
85.918800000000005
 30
0.0
 11
91.855400000000003
 21
85.918800000000005
 31
0.0
  0
LINE
  5
2B
  8
_________1
 62
     7
 10
93.040599999999984
 20
74.495800000000003
 30
0.0
 11
92.447999999999993
 21
76.707599999999999
 31
0.0
  0
LINE
  5
2C
  8
_________1
 62
     7
 10
92.447999999999993
 20
76.707599999999999
 30
0.0
 11
91.855400000000003
 21
74.495800000000003
 31
0.0
  0
LINE
  5
2D
  8
_________1
 62
     7
 10
91.855400000000003
 20
74.495800000000003
 30
0.0
 11
93.040599999999984
 21
74.495800000000003
 31
0.0
  0
LINE
  5
2E
  8
_________1
 62
     7
 10
92.447999999999993
 20
66.910700000000006
 30
0.0
 11
92.447999999999993
 21
87.819500000000005
 31
0.0
  0
ENDBLK
  5
2F
  8
_________1
  0
BLOCK
  8
_________1
  2
AIGNBL02010003
 70
     0
 10
0.0
 20
0.0
 30
0.0
  3
AIGNBL02010003
  1

  0
ARC
  5
32
  8
_________1
 62
     7
 10
129.301322
 20
88.968370999999991
 30
0.0
 40
0.094682
 50
269.662105
 51
339.08567599999998
  0
ARC
  5
33
  8
_________1
 62
     7
 10
129.26496399999999
 20
88.982373999999993
 30
0.0
 40
0.133643
 50
339.04168900000002
 51
0.3731559999999999
  0
ARC
  5
34
  8
_________1
 62
     7
 10
123.574894
 20
89.294364000000002
 30
0.0
 40
0.3431760000000001
 50
181.55742900000001
 51
258.257563
  0
ARC
  5
35
  8
_________1
 62
     7
 10
123.58983499999999
 20
89.332548000000003
 30
0.0
 40
0.383662
 50
257.23343199999999
 51
266.80216899999999
  0
LINE
  5
36
  8
_________1
 62
     7
 10
129.30099999999999
 20
88.873699999999999
 30
0.0
 11
123.568
 21
88.949499999999986
 31
0.0
  0
ENDBLK
  5
37
  8
_________1
  0
BLOCK
  8
_________1
  2
AIGNBL02010004
 70
     0
 10
0.0
 20
0.0
 30
0.0
  3
AIGNBL02010004
  1

  0
ARC
  5
3A
  8
_________1
 62
     7
 10
129.30116699999999
 20
104.445751
 30
0.0
 40
0.094611
 50
20.536532000000008
 51
90.244873999999996
  0
ARC
  5
3B
  8
_________1
 62
     7
 10
129.26335499999999
 20
104.43084399999999
 30
0.0
 40
0.135252
 50
359.69210099999998
 51
20.830857000000002
  0
ARC
  5
3C
  8
_________1
 62
     7
 10
123.581362
 20
104.115037
 30
0.0
 40
0.34977
 50
92.118487000000016
 51
177.82280800000001
  0
LINE
  5
3D
  8
_________1
 62
     7
 10
129.30099999999999
 20
104.54000000000001
 30
0.0
 11
123.568
 21
104.465
 31
0.0
  0
LINE
  5
3E
  8
_________1
 62
     7
 10
123.232
 20
89.284999999999997
 30
0.0
 11
123.232
 21
104.128
 31
0.0
  0
LINE
  5
3F
  8
_________1
 62
     7
 10
129.399
 20
88.983199999999997
 30
0.0
 11
129.399
 21
104.43000000000001
 31
0.0
  0
ENDBLK
  5
40
  8
_________1
  0
BLOCK
  8
_________1
  2
AIGNBL02010005
 70
     0
 10
0.0
 20
0.0
 30
0.0
  3
AIGNBL02010005
  1

  0
LINE
  5
43
  8
_________1
  6
AIGENLINE001
 62
     7
 10
58.561000000000007
 20
93.540400000000005
 30
0.0
 11
47.66729999999999
 21
87.238600000000005
 31
0.0
  0
ARC
  5
44
  8
_________1
  6
AIGENLINE002
 62
     7
 10
54.970461
 20
89.123492999999996
 30
0.0
 40
1.0256299999999989
 50
53.363735999999989
 51
119.114227
  0
LINE
  5
45
  8
_________1
  6
AIGENLINE002
 62
     7
 10
54.471400000000003
 20
90.019499999999994
 30
0.0
 11
49.828600000000002
 21
87.333699999999979
 31
0.0
  0
ARC
  5
46
  8
_________1
  6
AIGENLINE002
 62
     7
 10
49.666452
 20
87.639075000000005
 30
0.0
 40
0.345746
 50
212.03470899999999
 51
297.9729890000001
  0
LINE
  5
47
  8
_________1
  6
AIGENLINE002
 62
     7
 10
49.37339999999999
 20
87.455699999999979
 30
0.0
 11
48.7057
 21
88.609800000000007
 31
0.0
  0
ARC
  5
48
  8
_________1
  6
AIGENLINE002
 62
     7
 10
49.011369999999999
 20
88.772199999999984
 30
0.0
 40
0.346144
 50
122.15839
 51
207.98147599999999
  0
LINE
  5
49
  8
_________1
  6
AIGENLINE002
 62
     7
 10
48.827100000000002
 20
89.065200000000004
 30
0.0
 11
53.469900000000003
 21
91.751099999999994
 31
0.0
  0
ARC
  5
4A
  8
_________1
  6
AIGENLINE002
 62
     7
 10
52.942883999999999
 20
92.629493999999994
 30
0.0
 40
1.0244269999999991
 50
300.963435
 51
6.763153
  0
ENDBLK
  5
4B
  8
_________1
  0
BLOCK
  8
_________1
  2
AIGNBL02010006
 70
     0
 10
0.0
 20
0.0
 30
0.0
  3
AIGNBL02010006
  1

  0
LINE
  5
4E
  8
_________1
  6
AIGENLINE001
 62
     7
 10
111.97499999999999
 20
196.82400000000001
 30
0.0
 11
111.97499999999999
 21
200.07900000000001
 31
0.0
  0
LINE
  5
4F
  8
_________1
  6
AIGENLINE001
 62
     7
 10
152.642
 20
196.82400000000001
 30
0.0
 11
152.642
 21
200.07900000000001
 31
0.0
  0
ENDBLK
  5
50
  8
_________1
  0
BLOCK
  8
_________1
  2
AIGNBL02010007
 70
     0
 10
0.0
 20
0.0
 30
0.0
  3
AIGNBL02010007
  1

  0
LINE
  5
53
  8
_________1
 62
     7
 10
150.43000000000001
 20
188.786
 30
0.0
 11
152.642
 21
189.3779999999999
 31
0.0
  0
LINE
  5
54
  8
_________1
 62
     7
 10
152.642
 20
189.3779999999999
 30
0.0
 11
150.43000000000001
 21
189.97099999999989
 31
0.0
  0
LINE
  5
55
  8
_________1
 62
     7
 10
150.43000000000001
 20
189.97099999999989
 30
0.0
 11
150.43000000000001
 21
188.786
 31
0.0
  0
LINE
  5
56
  8
_________1
 62
     7
 10
114.187
 20
189.97099999999989
 30
0.0
 11
111.97499999999999
 21
189.3779999999999
 31
0.0
  0
LINE
  5
57
  8
_________1
 62
     7
 10
111.97499999999999
 20
189.3779999999999
 30
0.0
 11
114.187
 21
188.786
 31
0.0
  0
LINE
  5
58
  8
_________1
 62
     7
 10
114.187
 20
188.786
 30
0.0
 11
114.187
 21
189.97099999999989
 31
0.0
  0
LINE
  5
59
  8
_________1
 62
     7
 10
152.642
 20
189.3779999999999
 30
0.0
 11
111.97499999999999
 21
189.3779999999999
 31
0.0
  0
ENDBLK
  5
5A
  8
_________1
  0
BLOCK
  8
_________1
  2
AIGNBL02010008
 70
     0
 10
0.0
 20
0.0
 30
0.0
  3
AIGNBL02010008
  1

  0
LINE
  5
5D
  8
_________1
 62
     7
 10
165.22800000000001
 20
237.036
 30
0.0
 11
164.636
 21
239.24799999999999
 31
0.0
  0
LINE
  5
5E
  8
_________1
 62
     7
 10
164.636
 20
239.24799999999999
 30
0.0
 11
164.04300000000001
 21
237.036
 31
0.0
  0
LINE
  5
5F
  8
_________1
 62
     7
 10
164.04300000000001
 20
237.036
 30
0.0
 11
165.22800000000001
 21
237.036
 31
0.0
  0
LINE
  5
60
  8
_________1
 62
     7
 10
164.04300000000001
 20
200.791
 30
0.0
 11
164.636
 21
198.57900000000001
 31
0.0
  0
LINE
  5
61
  8
_________1
 62
     7
 10
164.636
 20
198.57900000000001
 30
0.0
 11
165.22800000000001
 21
200.791
 31
0.0
  0
LINE
  5
62
  8
_________1
 62
     7
 10
165.22800000000001
 20
200.791
 30
0.0
 11
164.04300000000001
 21
200.791
 31
0.0
  0
LINE
  5
63
  8
_________1
 62
     7
 10
164.636
 20
239.24799999999999
 30
0.0
 11
164.636
 21
198.57900000000001
 31
0.0
  0
ENDBLK
  5
64
  8
_________1
  0
BLOCK
  8
_________1
  2
AIGNBL02010009
 70
     0
 10
0.0
 20
0.0
 30
0.0
  3
AIGNBL02010009
  1

  0
LINE
  5
67
  8
_________1
 62
     7
 10
164.07499999999999
 20
248.24199999999999
 30
0.0
 11
163.483
 21
250.453
 31
0.0
  0
LINE
  5
68
  8
_________1
 62
     7
 10
163.483
 20
250.453
 30
0.0
 11
162.8899999999999
 21
248.24199999999999
 31
0.0
  0
LINE
  5
69
  8
_________1
 62
     7
 10
162.8899999999999
 20
248.24199999999999
 30
0.0
 11
164.07499999999999
 21
248.24199999999999
 31
0.0
  0
LINE
  5
6A
  8
_________1
 62
     7
 10
162.8899999999999
 20
255.33099999999999
 30
0.0
 11
163.483
 21
253.12
 31
0.0
  0
LINE
  5
6B
  8
_________1
 62
     7
 10
163.483
 20
253.12
 30
0.0
 11
164.07499999999999
 21
255.33099999999999
 31
0.0
  0
LINE
  5
6C
  8
_________1
 62
     7
 10
164.07499999999999
 20
255.33099999999999
 30
0.0
 11
162.8899999999999
 21
255.33099999999999
 31
0.0
  0
ENDBLK
  5
6D
  8
_________1
  0
BLOCK
  8
_________1
  2
AIGNBL0201000A
 70
     0
 10
0.0
 20
0.0
 30
0.0
  3
AIGNBL0201000A
  1

  0
LINE
  5
70
  8
_________1
 62
     7
 10
170.405
 20
150.03399999999999
 30
0.0
 11
169.81200000000001
 21
152.24600000000001
 31
0.0
  0
LINE
  5
71
  8
_________1
 62
     7
 10
169.81200000000001
 20
152.24600000000001
 30
0.0
 11
169.22
 21
150.03399999999999
 31
0.0
  0
LINE
  5
72
  8
_________1
 62
     7
 10
169.22
 20
150.03399999999999
 30
0.0
 11
170.405
 21
150.03399999999999
 31
0.0
  0
LINE
  5
73
  8
_________1
 62
     7
 10
169.22
 20
158.124
 30
0.0
 11
169.81200000000001
 21
155.91300000000001
 31
0.0
  0
LINE
  5
74
  8
_________1
 62
     7
 10
169.81200000000001
 20
155.91300000000001
 30
0.0
 11
170.405
 21
158.124
 31
0.0
  0
LINE
  5
75
  8
_________1
 62
     7
 10
170.405
 20
158.124
 30
0.0
 11
169.22
 21
158.124
 31
0.0
  0
LINE
  5
76
  8
_________1
 62
     7
 10
169.81200000000001
 20
158.428
 30
0.0
 11
169.81200000000001
 21
145.822
 31
0.0
  0
ENDBLK
  5
77
  8
_________1
  0
BLOCK
  8
_________1
  2
AIGNBL0201000B
 70
     0
 10
0.0
 20
0.0
 30
0.0
  3
AIGNBL0201000B
  1

  0
LINE
  5
7A
  8
_________1
 62
     7
 10
177.09
 20
156.70099999999999
 30
0.0
 11
176.49700000000001
 21
158.91300000000001
 31
0.0
  0
LINE
  5
7B
  8
_________1
 62
     7
 10
176.49700000000001
 20
158.91300000000001
 30
0.0
 11
175.905
 21
156.70099999999999
 31
0.0
  0
LINE
  5
7C
  8
_________1
 62
     7
 10
175.905
 20
156.70099999999999
 30
0.0
 11
177.09
 21
156.70099999999999
 31
0.0
  0
LINE
  5
7D
  8
_________1
 62
     7
 10
175.905
 20
154.458
 30
0.0
 11
176.49700000000001
 21
152.24600000000001
 31
0.0
  0
LINE
  5
7E
  8
_________1
 62
     7
 10
176.49700000000001
 20
152.24600000000001
 30
0.0
 11
177.09
 21
154.458
 31
0.0
  0
LINE
  5
7F
  8
_________1
 62
     7
 10
177.09
 20
154.458
 30
0.0
 11
175.905
 21
154.458
 31
0.0
  0
LINE
  5
80
  8
_________1
 62
     7
 10
176.49700000000001
 20
158.91300000000001
 30
0.0
 11
176.49700000000001
 21
152.24600000000001
 31
0.0
  0
ENDBLK
  5
81
  8
_________1
  0
BLOCK
  8
_________1
  2
AIGNBL0201000C
 70
     0
 10
0.0
 20
0.0
 30
0.0
  3
AIGNBL0201000C
  1

  0
LINE
  5
84
  8
_________1
 62
     7
 10
153.02099999999999
 20
143.61600000000001
 30
0.0
 11
155.233
 21
144.208
 31
0.0
  0
LINE
  5
85
  8
_________1
 62
     7
 10
155.233
 20
144.208
 30
0.0
 11
153.02099999999999
 21
144.80099999999999
 31
0.0
  0
LINE
  5
86
  8
_________1
 62
     7
 10
153.02099999999999
 20
144.80099999999999
 30
0.0
 11
153.02099999999999
 21
143.61600000000001
 31
0.0
  0
LINE
  5
87
  8
_________1
 62
     7
 10
164.44399999999999
 20
144.80099999999999
 30
0.0
 11
162.232
 21
144.208
 31
0.0
  0
LINE
  5
88
  8
_________1
 62
     7
 10
162.232
 20
144.208
 30
0.0
 11
164.44399999999999
 21
143.61600000000001
 31
0.0
  0
LINE
  5
89
  8
_________1
 62
     7
 10
164.44399999999999
 20
143.61600000000001
 30
0.0
 11
164.44399999999999
 21
144.80099999999999
 31
0.0
  0
LINE
  5
8A
  8
_________1
 62
     7
 10
166.41999999999999
 20
144.208
 30
0.0
 11
143.947
 21
144.208
 31
0.0
  0
ENDBLK
  5
8B
  8
_________1
  0
BLOCK
  8
_________1
  2
AIGNBL0201000D
 70
     0
 10
0.0
 20
0.0
 30
0.0
  3
AIGNBL0201000D
  1

  0
LINE
  5
8E
  8
_________1
 62
     7
 10
111.157
 20
194.96600000000001
 30
0.0
 11
110.97499999999999
 21
197.24799999999999
 31
0.0
  0
LINE
  5
8F
  8
_________1
 62
     7
 10
110.97499999999999
 20
197.24799999999999
 30
0.0
 11
109.992
 21
195.18100000000001
 31
0.0
  0
LINE
  5
90
  8
_________1
 62
     7
 10
109.992
 20
195.18100000000001
 30
0.0
 11
111.157
 21
194.96600000000001
 31
0.0
  0
LINE
  5
91
  8
_________1
 62
     7
 10
103.047
 20
154.17099999999999
 30
0.0
 11
110.97499999999999
 21
197.24799999999999
 31
0.0
  0
ENDBLK
  5
92
  8
_________1
  0
BLOCK
  8
_________1
  2
AIGNBL0201000E
 70
     0
 10
0.0
 20
0.0
 30
0.0
  3
AIGNBL0201000E
  1

  0
LINE
  5
95
  8
_________1
 62
     7
 10
136.303
 20
102.783
 30
0.0
 11
137.566
 21
100.874
 31
0.0
  0
LINE
  5
96
  8
_________1
 62
     7
 10
137.566
 20
100.874
 30
0.0
 11
137.42699999999999
 21
103.15900000000001
 31
0.0
  0
LINE
  5
97
  8
_________1
 62
     7
 10
137.42699999999999
 20
103.15900000000001
 30
0.0
 11
136.303
 21
102.783
 31
0.0
  0
LINE
  5
98
  8
_________1
 62
     7
 10
119.73999999999999
 20
154.17099999999999
 30
0.0
 11
137.566
 21
100.874
 31
0.0
  0
ENDBLK
  5
99
  8
_________1
  0
BLOCK
  8
_________1
  2
AIGNBL0201000F
 70
     0
 10
0.0
 20
0.0
 30
0.0
  3
AIGNBL0201000F
  1

  0
LINE
  5
9C
  8
_________1
 62
     7
 10
152.392
 20
166.39500000000001
 30
0.0
 11
154.232
 21
167.75599999999989
 31
0.0
  0
LINE
  5
9D
  8
_________1
 62
     7
 10
154.232
 20
167.75599999999989
 30
0.0
 11
151.958
 21
167.49700000000001
 31
0.0
  0
LINE
  5
9E
  8
_________1
 62
     7
 10
151.958
 20
167.49700000000001
 30
0.0
 11
152.392
 21
166.39500000000001
 31
0.0
  0
LINE
  5
9F
  8
_________1
 62
     7
 10
119.73999999999999
 20
154.17099999999999
 30
0.0
 11
154.232
 21
167.75599999999989
 31
0.0
  0
ENDBLK
  5
A0
  8
_________1
  0
BLOCK
  8
_________1
  2
AIGNBL02010010
 70
     0
 10
0.0
 20
0.0
 30
0.0
  3
AIGNBL02010010
  1

  0
LINE
  5
A3
  8
_________1
 62
     7
 10
77.0321
 20
196.90299999999999
 30
0.0
 11
79.243899999999996
 21
197.495
 31
0.0
  0
LINE
  5
A4
  8
_________1
 62
     7
 10
79.243899999999996
 20
197.495
 30
0.0
 11
77.0321
 21
198.08799999999999
 31
0.0
  0
LINE
  5
A5
  8
_________1
 62
     7
 10
77.0321
 20
198.08799999999999
 30
0.0
 11
77.0321
 21
196.90299999999999
 31
0.0
  0
LINE
  5
A6
  8
_________1
 62
     7
 10
40.345799999999997
 20
198.08799999999999
 30
0.0
 11
38.134
 21
197.495
 31
0.0
  0
LINE
  5
A7
  8
_________1
 62
     7
 10
38.134
 20
197.495
 30
0.0
 11
40.345799999999997
 21
196.90299999999999
 31
0.0
  0
LINE
  5
A8
  8
_________1
 62
     7
 10
40.345799999999997
 20
196.90299999999999
 30
0.0
 11
40.345799999999997
 21
198.08799999999999
 31
0.0
  0
LINE
  5
A9
  8
_________1
 62
     7
 10
79.243899999999996
 20
197.495
 30
0.0
 11
38.134
 21
197.495
 31
0.0
  0
ENDBLK
  5
AA
  8
_________1
  0
BLOCK
  8
_________1
  2
AIGNBL02010011
 70
     0
 10
0.0
 20
0.0
 30
0.0
  3
AIGNBL02010011
  1

  0
LINE
  5
AD
  8
_________1
 62
     7
 10
83.699100000000001
 20
234.38
 30
0.0
 11
85.910899999999984
 21
234.97300000000001
 31
0.0
  0
LINE
  5
AE
  8
_________1
 62
     7
 10
85.910899999999984
 20
234.97300000000001
 30
0.0
 11
83.699100000000001
 21
235.565
 31
0.0
  0
LINE
  5
AF
  8
_________1
 62
     7
 10
83.699100000000001
 20
235.565
 30
0.0
 11
83.699100000000001
 21
234.38
 31
0.0
  0
LINE
  5
B0
  8
_________1
 62
     7
 10
33.455500000000001
 20
235.565
 30
0.0
 11
31.2438
 21
234.97300000000001
 31
0.0
  0
LINE
  5
B1
  8
_________1
 62
     7
 10
31.2438
 20
234.97300000000001
 30
0.0
 11
33.455500000000001
 21
234.38
 31
0.0
  0
LINE
  5
B2
  8
_________1
 62
     7
 10
33.455500000000001
 20
234.38
 30
0.0
 11
33.455500000000001
 21
235.565
 31
0.0
  0
LINE
  5
B3
  8
_________1
 62
     7
 10
85.910899999999984
 20
234.97300000000001
 30
0.0
 11
31.2438
 21
234.97300000000001
 31
0.0
  0
ENDBLK
  5
B4
  8
_________1
  0
BLOCK
  8
_________1
  2
AIGNBL02010012
 70
     0
 10
0.0
 20
0.0
 30
0.0
  3
AIGNBL02010012
  1

  0
LINE
  5
B7
  8
_________1
 62
     7
 10
74.251199999999983
 20
205.49600000000001
 30
0.0
 11
72.043599999999998
 21
206.10300000000001
 31
0.0
  0
LINE
  5
B8
  8
_________1
 62
     7
 10
72.043599999999998
 20
206.10300000000001
 30
0.0
 11
73.651799999999994
 21
204.47300000000001
 31
0.0
  0
LINE
  5
B9
  8
_________1
 62
     7
 10
73.651799999999994
 20
204.47300000000001
 30
0.0
 11
74.251199999999983
 21
205.49600000000001
 31
0.0
  0
LINE
  5
BA
  8
_________1
 62
     7
 10
82.476799999999997
 20
199.988
 30
0.0
 11
72.043599999999998
 21
206.10300000000001
 31
0.0
  0
ENDBLK
  5
BB
  8
_________1
  0
BLOCK
  8
_________1
  2
AIGNBL02010013
 70
     0
 10
0.0
 20
0.0
 30
0.0
  3
AIGNBL02010013
  1

  0
LINE
  5
BE
  8
_________1
 62
     7
 10
35.788699999999999
 20
120.56999999999999
 30
0.0
 11
33.577100000000002
 21
119.97799999999999
 31
0.0
  0
LINE
  5
BF
  8
_________1
 62
     7
 10
33.577100000000002
 20
119.97799999999999
 30
0.0
 11
35.788699999999999
 21
119.38500000000001
 31
0.0
  0
LINE
  5
C0
  8
_________1
 62
     7
 10
35.788699999999999
 20
119.38500000000001
 30
0.0
 11
35.788699999999999
 21
120.56999999999999
 31
0.0
  0
LINE
  5
C1
  8
_________1
 62
     7
 10
81.365899999999996
 20
119.38500000000001
 30
0.0
 11
83.577500000000015
 21
119.97799999999999
 31
0.0
  0
LINE
  5
C2
  8
_________1
 62
     7
 10
83.577500000000015
 20
119.97799999999999
 30
0.0
 11
81.365899999999996
 21
120.56999999999999
 31
0.0
  0
LINE
  5
C3
  8
_________1
 62
     7
 10
81.365899999999996
 20
120.56999999999999
 30
0.0
 11
81.365899999999996
 21
119.38500000000001
 31
0.0
  0
LINE
  5
C4
  8
_________1
 62
     7
 10
33.577100000000002
 20
119.97799999999999
 30
0.0
 11
83.577500000000015
 21
119.97799999999999
 31
0.0
  0
ENDBLK
  5
C5
  8
_________1
  0
BLOCK
  8
_________1
  2
AIGNBL02010014
 70
     0
 10
0.0
 20
0.0
 30
0.0
  3
AIGNBL02010014
  1

  0
LINE
  5
C8
  8
_________1
 62
     7
 10
24.961600000000001
 20
85.918800000000005
 30
0.0
 11
25.554200000000002
 21
83.707400000000007
 31
0.0
  0
LINE
  5
C9
  8
_________1
 62
     7
 10
25.554200000000002
 20
83.707400000000007
 30
0.0
 11
26.146699999999999
 21
85.918800000000005
 31
0.0
  0
LINE
  5
CA
  8
_________1
 62
     7
 10
26.146699999999999
 20
85.918800000000005
 30
0.0
 11
24.961600000000001
 21
85.918800000000005
 31
0.0
  0
LINE
  5
CB
  8
_________1
 62
     7
 10
26.146699999999999
 20
74.495800000000003
 30
0.0
 11
25.554200000000002
 21
76.707599999999999
 31
0.0
  0
LINE
  5
CC
  8
_________1
 62
     7
 10
25.554200000000002
 20
76.707599999999999
 30
0.0
 11
24.961600000000001
 21
74.495800000000003
 31
0.0
  0
LINE
  5
CD
  8
_________1
 62
     7
 10
24.961600000000001
 20
74.495800000000003
 30
0.0
 11
26.146699999999999
 21
74.495800000000003
 31
0.0
  0
LINE
  5
CE
  8
_________1
 62
     7
 10
25.554200000000002
 20
66.910700000000006
 30
0.0
 11
25.554200000000002
 21
87.819500000000005
 31
0.0
  0
ENDBLK
  5
CF
  8
_________1
  0
BLOCK
  8
_________1
  2
AIGNBL02010015
 70
     0
 10
0.0
 20
0.0
 30
0.0
  3
AIGNBL02010015
  1

  0
LINE
  5
D2
  8
_________1
 62
     7
 10
64.288499999999999
 20
43.543500000000002
 30
0.0
 11
62.076900000000002
 21
42.951000000000001
 31
0.0
  0
LINE
  5
D3
  8
_________1
 62
     7
 10
62.076900000000002
 20
42.951000000000001
 30
0.0
 11
64.288499999999999
 21
42.358400000000003
 31
0.0
  0
LINE
  5
D4
  8
_________1
 62
     7
 10
64.288499999999999
 20
42.358400000000003
 30
0.0
 11
64.288499999999999
 21
43.543500000000002
 31
0.0
  0
LINE
  5
D5
  8
_________1
 62
     7
 10
52.865499999999997
 20
42.358400000000003
 30
0.0
 11
55.077100000000002
 21
42.951000000000001
 31
0.0
  0
LINE
  5
D6
  8
_________1
 62
     7
 10
55.077100000000002
 20
42.951000000000001
 30
0.0
 11
52.865499999999997
 21
43.543500000000002
 31
0.0
  0
LINE
  5
D7
  8
_________1
 62
     7
 10
52.865499999999997
 20
43.543500000000002
 30
0.0
 11
52.865499999999997
 21
42.358400000000003
 31
0.0
  0
LINE
  5
D8
  8
_________1
 62
     7
 10
45.280399999999993
 20
42.951000000000001
 30
0.0
 11
66.188999999999993
 21
42.951000000000001
 31
0.0
  0
ENDBLK
  5
D9
  8
_________1
  0
BLOCK
  8
_________1
  2
AIGNBL02010016
 70
     0
 10
0.0
 20
0.0
 30
0.0
  3
AIGNBL02010016
  1

  0
LINE
  5
DC
  8
_________1
 62
     7
 10
64.288799999999995
 20
113.82299999999999
 30
0.0
 11
62.077199999999998
 21
113.23
 31
0.0
  0
LINE
  5
DD
  8
_________1
 62
     7
 10
62.077199999999998
 20
113.23
 30
0.0
 11
64.288799999999995
 21
112.63800000000001
 31
0.0
  0
LINE
  5
DE
  8
_________1
 62
     7
 10
64.288799999999995
 20
112.63800000000001
 30
0.0
 11
64.288799999999995
 21
113.82299999999999
 31
0.0
  0
LINE
  5
DF
  8
_________1
 62
     7
 10
52.8658
 20
112.63800000000001
 30
0.0
 11
55.077399999999997
 21
113.23
 31
0.0
  0
LINE
  5
E0
  8
_________1
 62
     7
 10
55.077399999999997
 20
113.23
 30
0.0
 11
52.8658
 21
113.82299999999999
 31
0.0
  0
LINE
  5
E1
  8
_________1
 62
     7
 10
52.8658
 20
113.82299999999999
 30
0.0
 11
52.8658
 21
112.63800000000001
 31
0.0
  0
LINE
  5
E2
  8
_________1
 62
     7
 10
45.280700000000003
 20
113.23
 30
0.0
 11
66.189300000000003
 21
113.23
 31
0.0
  0
ENDBLK
  5
E3
  8
_________1
  0
BLOCK
  8
_________1
  2
AIGNBL02010017
 70
     0
 10
0.0
 20
0.0
 30
0.0
  3
AIGNBL02010017
  1

  0
LINE
  5
E6
  8
_________1
 62
     7
 10
100.10299999999999
 20
102.996
 30
0.0
 11
99.510499999999993
 21
105.208
 31
0.0
  0
LINE
  5
E7
  8
_________1
 62
     7
 10
99.510499999999993
 20
105.208
 30
0.0
 11
98.917900000000003
 21
102.996
 31
0.0
  0
LINE
  5
E8
  8
_________1
 62
     7
 10
98.917900000000003
 20
102.996
 30
0.0
 11
100.10299999999999
 21
102.996
 31
0.0
  0
LINE
  5
E9
  8
_________1
 62
     7
 10
98.917900000000003
 20
57.418700000000001
 30
0.0
 11
99.510499999999993
 21
55.207299999999996
 31
0.0
  0
LINE
  5
EA
  8
_________1
 62
     7
 10
99.510499999999993
 20
55.207299999999996
 30
0.0
 11
100.10299999999999
 21
57.418700000000001
 31
0.0
  0
LINE
  5
EB
  8
_________1
 62
     7
 10
100.10299999999999
 20
57.418700000000001
 30
0.0
 11
98.917900000000003
 21
57.418700000000001
 31
0.0
  0
LINE
  5
EC
  8
_________1
 62
     7
 10
99.510499999999993
 20
105.208
 30
0.0
 11
99.510499999999993
 21
55.207299999999996
 31
0.0
  0
ENDBLK
  5
ED
  8
_________1
  0
BLOCK
  8
_________1
  2
AIGNBL02010018
 70
     0
 10
0.0
 20
0.0
 30
0.0
  3
AIGNBL02010018
  1

  0
LINE
  5
F0
  8
_________1
 62
     7
 10
124.383
 20
105.752
 30
0.0
 11
126.3
 21
104.501
 31
0.0
  0
LINE
  5
F1
  8
_________1
 62
     7
 10
126.3
 20
104.501
 30
0.0
 11
125.265
 21
106.54300000000001
 31
0.0
  0
LINE
  5
F2
  8
_________1
 62
     7
 10
125.265
 20
106.54300000000001
 30
0.0
 11
124.383
 21
105.752
 31
0.0
  0
LINE
  5
F3
  8
_________1
 62
     7
 10
121.447
 20
109.917
 30
0.0
 11
126.3
 21
104.501
 31
0.0
  0
ENDBLK
  5
F4
  8
_________1
  0
BLOCK
  8
_________1
  2
AIGNBL02010019
 70
     0
 10
0.0
 20
0.0
 30
0.0
  3
AIGNBL02010019
  1

  0
LINE
  5
F7
  8
_________1
 62
     7
 10
141.85400000000001
 20
41.229799999999997
 30
0.0
 11
144.065
 21
41.822299999999991
 31
0.0
  0
LINE
  5
F8
  8
_________1
 62
     7
 10
144.065
 20
41.822299999999991
 30
0.0
 11
141.85400000000001
 21
42.414900000000003
 31
0.0
  0
LINE
  5
F9
  8
_________1
 62
     7
 10
141.85400000000001
 20
42.414900000000003
 30
0.0
 11
141.85400000000001
 21
41.229799999999997
 31
0.0
  0
LINE
  5
FA
  8
_________1
 62
     7
 10
108.61
 20
42.414900000000003
 30
0.0
 11
106.399
 21
41.822299999999991
 31
0.0
  0
LINE
  5
FB
  8
_________1
 62
     7
 10
106.399
 20
41.822299999999991
 30
0.0
 11
108.61
 21
41.229799999999997
 31
0.0
  0
LINE
  5
FC
  8
_________1
 62
     7
 10
108.61
 20
41.229799999999997
 30
0.0
 11
108.61
 21
42.414900000000003
 31
0.0
  0
LINE
  5
FD
  8
_________1
 62
     7
 10
144.065
 20
41.822299999999991
 30
0.0
 11
106.399
 21
41.822299999999991
 31
0.0
  0
ENDBLK
  5
FE
  8
_________1
  0
BLOCK
  8
_________1
  2
AIGNBL0201001A
 70
     0
 10
0.0
 20
0.0
 30
0.0
  3
AIGNBL0201001A
  1

  0
LINE
  5
101
  8
_________1
 62
     7
 10
166.85400000000001
 20
126.05200000000001
 30
0.0
 11
169.066
 21
126.64400000000001
 31
0.0
  0
LINE
  5
102
  8
_________1
 62
     7
 10
169.066
 20
126.64400000000001
 30
0.0
 11
166.85400000000001
 21
127.23699999999999
 31
0.0
  0
LINE
  5
103
  8
_________1
 62
     7
 10
166.85400000000001
 20
127.23699999999999
 30
0.0
 11
166.85400000000001
 21
126.05200000000001
 31
0.0
  0
LINE
  5
104
  8
_________1
 62
     7
 10
136.27699999999999
 20
127.23699999999999
 30
0.0
 11
134.065
 21
126.64400000000001
 31
0.0
  0
LINE
  5
105
  8
_________1
 62
     7
 10
134.065
 20
126.64400000000001
 30
0.0
 11
136.27699999999999
 21
126.05200000000001
 31
0.0
  0
LINE
  5
106
  8
_________1
 62
     7
 10
136.27699999999999
 20
126.05200000000001
 30
0.0
 11
136.27699999999999
 21
127.23699999999999
 31
0.0
  0
LINE
  5
107
  8
_________1
 62
     7
 10
169.066
 20
126.64400000000001
 30
0.0
 11
134.065
 21
126.64400000000001
 31
0.0
  0
ENDBLK
  5
108
  8
_________1
  0
BLOCK
  8
_________1
  2
AIGNBL0201001B
 70
     0
 10
0.0
 20
0.0
 30
0.0
  3
AIGNBL0201001B
  1

  0
LINE
  5
10B
  8
_________1
 62
     7
 10
166.85400000000001
 20
120.81100000000001
 30
0.0
 11
169.065
 21
121.40300000000001
 31
0.0
  0
LINE
  5
10C
  8
_________1
 62
     7
 10
169.065
 20
121.40300000000001
 30
0.0
 11
166.85400000000001
 21
121.996
 31
0.0
  0
LINE
  5
10D
  8
_________1
 62
     7
 10
166.85400000000001
 20
121.996
 30
0.0
 11
166.85400000000001
 21
120.81100000000001
 31
0.0
  0
LINE
  5
10E
  8
_________1
 62
     7
 10
146.27699999999999
 20
121.996
 30
0.0
 11
144.065
 21
121.40300000000001
 31
0.0
  0
LINE
  5
10F
  8
_________1
 62
     7
 10
144.065
 20
121.40300000000001
 30
0.0
 11
146.27699999999999
 21
120.81100000000001
 31
0.0
  0
LINE
  5
110
  8
_________1
 62
     7
 10
146.27699999999999
 20
120.81100000000001
 30
0.0
 11
146.27699999999999
 21
121.996
 31
0.0
  0
LINE
  5
111
  8
_________1
 62
     7
 10
169.065
 20
121.40300000000001
 30
0.0
 11
144.065
 21
121.40300000000001
 31
0.0
  0
ENDBLK
  5
112
  8
_________1
  0
BLOCK
  8
_________1
  2
AIGNBL0201001C
 70
     0
 10
0.0
 20
0.0
 30
0.0
  3
AIGNBL0201001C
  1

  0
LINE
  5
115
  8
_________1
 62
     7
 10
166.85400000000001
 20
115.569
 30
0.0
 11
169.065
 21
116.16200000000001
 31
0.0
  0
LINE
  5
116
  8
_________1
 62
     7
 10
169.065
 20
116.16200000000001
 30
0.0
 11
166.85400000000001
 21
116.754
 31
0.0
  0
LINE
  5
117
  8
_________1
 62
     7
 10
166.85400000000001
 20
116.754
 30
0.0
 11
166.85400000000001
 21
115.569
 31
0.0
  0
LINE
  5
118
  8
_________1
 62
     7
 10
160.94300000000001
 20
116.754
 30
0.0
 11
158.732
 21
116.16200000000001
 31
0.0
  0
LINE
  5
119
  8
_________1
 62
     7
 10
158.732
 20
116.16200000000001
 30
0.0
 11
160.94300000000001
 21
115.569
 31
0.0
  0
LINE
  5
11A
  8
_________1
 62
     7
 10
160.94300000000001
 20
115.569
 30
0.0
 11
160.94300000000001
 21
116.754
 31
0.0
  0
LINE
  5
11B
  8
_________1
 62
     7
 10
169.065
 20
116.16200000000001
 30
0.0
 11
158.732
 21
116.16200000000001
 31
0.0
  0
ENDBLK
  5
11C
  8
_________1
  0
BLOCK
  8
_________1
  2
AIGNBL0201001D
 70
     0
 10
0.0
 20
0.0
 30
0.0
  3
AIGNBL0201001D
  1

  0
LINE
  5
11F
  8
_________1
 62
     7
 10
131.85400000000001
 20
47.959499999999998
 30
0.0
 11
134.065
 21
48.551999999999992
 31
0.0
  0
LINE
  5
120
  8
_________1
 62
     7
 10
134.065
 20
48.551999999999992
 30
0.0
 11
131.85400000000001
 21
49.144599999999997
 31
0.0
  0
LINE
  5
121
  8
_________1
 62
     7
 10
131.85400000000001
 20
49.144599999999997
 30
0.0
 11
131.85400000000001
 21
47.959499999999998
 31
0.0
  0
LINE
  5
122
  8
_________1
 62
     7
 10
108.61
 20
49.144599999999997
 30
0.0
 11
106.399
 21
48.551999999999992
 31
0.0
  0
LINE
  5
123
  8
_________1
 62
     7
 10
106.399
 20
48.551999999999992
 30
0.0
 11
108.61
 21
47.959499999999998
 31
0.0
  0
LINE
  5
124
  8
_________1
 62
     7
 10
108.61
 20
47.959499999999998
 30
0.0
 11
108.61
 21
49.144599999999997
 31
0.0
  0
LINE
  5
125
  8
_________1
 62
     7
 10
134.065
 20
48.551999999999992
 30
0.0
 11
106.399
 21
48.551999999999992
 31
0.0
  0
ENDBLK
  5
126
  8
_________1
  0
BLOCK
  8
_________1
  2
AIGNBL0201001E
 70
     0
 10
0.0
 20
0.0
 30
0.0
  3
AIGNBL0201001E
  1

  0
LINE
  5
129
  8
_________1
 62
     7
 10
56.661499999999997
 20
56.189900000000002
 30
0.0
 11
57.743999999999993
 21
58.207299999999996
 31
0.0
  0
LINE
  5
12A
  8
_________1
 62
     7
 10
57.743999999999993
 20
58.207299999999996
 30
0.0
 11
55.797600000000003
 21
57.001199999999997
 31
0.0
  0
LINE
  5
12B
  8
_________1
 62
     7
 10
55.797600000000003
 20
57.001199999999997
 30
0.0
 11
56.661499999999997
 21
56.189900000000002
 31
0.0
  0
LINE
  5
12C
  8
_________1
 62
     7
 10
48.67329999999999
 20
48.551999999999992
 30
0.0
 11
57.743999999999993
 21
58.207299999999996
 31
0.0
  0
ENDBLK
  5
12D
  8
_________1
  0
BLOCK
  8
_________1
  2
AIGNBL0201001F
 70
     0
 10
0.0
 20
0.0
 30
0.0
  3
AIGNBL0201001F
  1

  0
LINE
  5
130
  8
_________1
 62
     7
 10
62.409799999999997
 20
167.30199999999999
 30
0.0
 11
60.244100000000003
 21
168.04499999999999
 31
0.0
  0
LINE
  5
131
  8
_________1
 62
     7
 10
60.244100000000003
 20
168.04499999999999
 30
0.0
 11
61.748199999999997
 21
166.31800000000001
 31
0.0
  0
LINE
  5
132
  8
_________1
 62
     7
 10
61.748199999999997
 20
166.31800000000001
 30
0.0
 11
62.409799999999997
 21
167.30199999999999
 31
0.0
  0
LINE
  5
133
  8
_________1
 62
     7
 10
71.144400000000005
 20
160.71199999999999
 30
0.0
 11
60.244100000000003
 21
168.04499999999999
 31
0.0
  0
ENDBLK
  5
134
  8
_________1
  0
BLOCK
  8
_________1
  2
AIGNBL02010020
 70
     0
 10
0.0
 20
0.0
 30
0.0
  3
AIGNBL02010020
  1

  0
LINE
  5
137
  8
_________1
 62
     7
 10
65.253299999999996
 20
182.738
 30
0.0
 11
63.2027
 21
183.75700000000001
 31
0.0
  0
LINE
  5
138
  8
_________1
 62
     7
 10
63.2027
 20
183.75700000000001
 30
0.0
 11
64.469200000000001
 21
181.84999999999999
 31
0.0
  0
LINE
  5
139
  8
_________1
 62
     7
 10
64.469200000000001
 20
181.84999999999999
 30
0.0
 11
65.253299999999996
 21
182.738
 31
0.0
  0
LINE
  5
13A
  8
_________1
 62
     7
 10
70.936300000000003
 20
176.93599999999989
 30
0.0
 11
63.2027
 21
183.75700000000001
 31
0.0
  0
ENDBLK
  5
13B
  8
_________1
  0
BLOCK
  8
_________1
  2
AIGNBL02010021
 70
     0
 10
0.0
 20
0.0
 30
0.0
  3
AIGNBL02010021
  1

  0
LINE
  5
13E
  8
_________1
 62
     7
 10
61.792700000000004
 20
59.199199999999998
 30
0.0
 11
59.827199999999998
 21
60.373600000000003
 31
0.0
  0
LINE
  5
13F
  8
_________1
 62
     7
 10
59.827199999999998
 20
60.373600000000003
 30
0.0
 11
60.942100000000003
 21
58.373699999999992
 31
0.0
  0
LINE
  5
140
  8
_________1
 62
     7
 10
60.942100000000003
 20
58.373699999999992
 30
0.0
 11
61.792700000000004
 21
59.199199999999998
 31
0.0
  0
LINE
  5
141
  8
_________1
 62
     7
 10
71.3001
 20
48.551999999999992
 30
0.0
 11
59.827199999999998
 21
60.373600000000003
 31
0.0
  0
ENDBLK
  5
142
  8
_________1
  0
BLOCK
  8
_________1
  2
AIGNBL02010022
 70
     0
 10
0.0
 20
0.0
 30
0.0
  3
AIGNBL02010022
  1

  0
ARC
  5
145
  8
_________1
  6
AIGENLINE002
 62
     7
 10
143.88603800000001
 20
55.387168000000003
 30
0.0
 40
0.179948
 50
271.85671000000002
 51
354.501103
  0
ARC
  5
146
  8
_________1
  6
AIGENLINE002
 62
     7
 10
140.24990099999999
 20
55.81709
 30
0.0
 40
0.5183449999999999
 50
182.05560800000001
 51
266.62365599999998
  0
LINE
  5
147
  8
_________1
  6
AIGENLINE002
 62
     7
 10
143.892
 20
55.207299999999996
 30
0.0
 11
140.21899999999999
 21
55.299599999999991
 31
0.0
  0
ENDBLK
  5
148
  8
_________1
  0
BLOCK
  8
_________1
  2
AIGNBL02010023
 70
     0
 10
0.0
 20
0.0
 30
0.0
  3
AIGNBL02010023
  1

  0
ARC
  5
14B
  8
_________1
 62
     7
 10
133.88624100000001
 20
55.387168000000003
 30
0.0
 40
0.179948
 50
271.85671000000002
 51
354.501103
  0
ARC
  5
14C
  8
_________1
 62
     7
 10
130.25010399999999
 20
55.81709
 30
0.0
 40
0.5183449999999999
 50
182.05560800000001
 51
266.62365599999998
  0
LINE
  5
14D
  8
_________1
 62
     7
 10
133.892
 20
55.207299999999996
 30
0.0
 11
130.22
 21
55.299599999999991
 31
0.0
  0
ENDBLK
  5
14E
  8
_________1
  0
BLOCK
  8
_________1
  2
AIGNBL02010024
 70
     0
 10
0.0
 20
0.0
 30
0.0
  3
AIGNBL02010024
  1

  0
ARC
  5
151
  8
_________1
 62
     7
 10
133.88624100000001
 20
105.027827
 30
0.0
 40
0.179948
 50
5.4988970000000004
 51
88.143289999999993
  0
ARC
  5
152
  8
_________1
 62
     7
 10
130.24938499999999
 20
104.597894
 30
0.0
 40
0.5176270000000001
 50
93.301315000000002
 51
177.94024899999999
  0
LINE
  5
153
  8
_________1
 62
     7
 10
133.892
 20
105.208
 30
0.0
 11
130.22
 21
105.11499999999999
 31
0.0
  0
LINE
  5
154
  8
_________1
 62
     7
 10
115.565
 20
61.040599999999998
 30
0.0
 11
115.565
 21
59.874099999999999
 31
0.0
  0
LINE
  5
155
  8
_________1
 62
     7
 10
108.065
 20
61.040599999999998
 30
0.0
 11
108.065
 21
59.874099999999999
 31
0.0
  0
LINE
  5
156
  8
_________1
 62
     7
 10
106.399
 20
81.040899999999993
 30
0.0
 11
106.399
 21
61.374099999999999
 31
0.0
  0
LINE
  5
157
  8
_________1
 62
     7
 10
129.732
 20
104.616
 30
0.0
 11
129.732
 21
55.798499999999997
 31
0.0
  0
LINE
  5
158
  8
_________1
 62
     7
 10
134.065
 20
105.045
 30
0.0
 11
134.065
 21
55.369900000000001
 31
0.0
  0
ENDBLK
  5
159
  8
_________1
  0
BLOCK
  8
_________2
  2
AIGNBL03010002
 70
     0
 10
0.0
 20
0.0
 30
0.0
  3
AIGNBL03010002
  1

  0
LINE
  5
15C
  8
_________2
 62
     7
 10
76.741399999999999
 20
29.805099999999999
 30
0.0
 11
74.554699999999997
 21
29.805099999999999
 31
0.0
  0
LINE
  5
15D
  8
_________2
 62
     7
 10
77.233999999999995
 20
29.805099999999999
 30
0.0
 11
76.981800000000007
 21
29.805099999999999
 31
0.0
  0
LINE
  5
15E
  8
_________2
 62
     7
 10
77.726299999999995
 20
29.805099999999999
 30
0.0
 11
80.651600000000002
 21
29.805099999999999
 31
0.0
  0
LINE
  5
15F
  8
_________2
 62
     7
 10
77.233999999999995
 20
29.805099999999999
 30
0.0
 11
77.485900000000001
 21
29.805099999999999
 31
0.0
  0
LINE
  5
160
  8
_________2
 62
     7
 10
70.837500000000006
 20
29.805099999999999
 30
0.0
 11
68.650499999999994
 21
29.805099999999999
 31
0.0
  0
LINE
  5
161
  8
_________2
 62
     7
 10
71.329800000000006
 20
29.805099999999999
 30
0.0
 11
71.0779
 21
29.805099999999999
 31
0.0
  0
LINE
  5
162
  8
_________2
 62
     7
 10
71.329800000000006
 20
30.2974
 30
0.0
 11
71.329800000000006
 21
32.484400000000001
 31
0.0
  0
LINE
  5
163
  8
_________2
 62
     7
 10
71.329800000000006
 20
29.805099999999999
 30
0.0
 11
71.329800000000006
 21
30.057600000000001
 31
0.0
  0
LINE
  5
164
  8
_________2
 62
     7
 10
71.822400000000002
 20
29.805099999999999
 30
0.0
 11
74.009
 21
29.805099999999999
 31
0.0
  0
LINE
  5
165
  8
_________2
 62
     7
 10
71.329800000000006
 20
29.805099999999999
 30
0.0
 11
71.581999999999994
 21
29.805099999999999
 31
0.0
  0
LINE
  5
166
  8
_________2
 62
     7
 10
71.329800000000006
 20
29.312799999999999
 30
0.0
 11
71.329800000000006
 21
27.126200000000001
 31
0.0
  0
LINE
  5
167
  8
_________2
 62
     7
 10
71.329800000000006
 20
29.805099999999999
 30
0.0
 11
71.329800000000006
 21
29.5532
 31
0.0
  0
LINE
  5
168
  8
_________2
 62
     7
 10
75.040899999999993
 20
28.585899999999999
 30
0.0
 11
80.218500000000006
 21
27.720400000000001
 31
0.0
  0
LINE
  5
169
  8
_________2
 62
     7
 10
75.040899999999993
 20
31.024699999999999
 30
0.0
 11
80.218500000000006
 21
31.8901
 31
0.0
  0
LINE
  5
16A
  8
_________2
 62
     7
 10
80.218500000000006
 20
27.720400000000001
 30
0.0
 11
80.218500000000006
 21
31.8901
 31
0.0
  0
LINE
  5
16B
  8
_________2
 62
     7
 10
75.040899999999993
 20
28.585899999999999
 30
0.0
 11
75.040899999999993
 21
31.024699999999999
 31
0.0
  0
ARC
  5
16C
  8
_________2
 62
     7
 10
71.283201000000005
 20
29.758156
 30
0.0
 40
1.2673589999999999
 50
2.122214
 51
87.893958999999995
  0
ARC
  5
16D
  8
_________2
 62
     7
 10
71.376300000000001
 20
29.758562000000001
 30
0.0
 40
1.2669509999999991
 50
92.104485999999994
 51
177.89548500000001
  0
ARC
  5
16E
  8
_________2
 62
     7
 10
71.376343999999989
 20
29.852014
 30
0.0
 40
1.2670099999999991
 50
182.12258499999999
 51
267.89363300000002
  0
ARC
  5
16F
  8
_________2
 62
     7
 10
71.282900999999995
 20
29.852677000000011
 30
0.0
 40
1.267684
 50
272.11907200000002
 51
357.848567
  0
ARC
  5
170
  8
_________2
 62
     7
 10
71.249426999999997
 20
29.725097000000002
 30
0.0
 40
2.1664659999999989
 50
2.1159629999999998
 51
87.874558999999991
  0
ARC
  5
171
  8
_________2
 62
     7
 10
71.409410999999992
 20
29.725809000000002
 30
0.0
 40
2.1657280000000001
 50
92.107296999999988
 51
177.902142
  0
ARC
  5
172
  8
_________2
 62
     7
 10
71.409789000000004
 20
29.885100999999999
 30
0.0
 40
2.1661329999999999
 50
182.116929
 51
267.88310000000001
  0
ARC
  5
173
  8
_________2
 62
     7
 10
71.249769999999998
 20
29.885092
 30
0.0
 40
2.1661229999999989
 50
272.11667999999997
 51
357.88333
  0
ENDBLK
  5
174
  8
_________2
  0
ENDSEC
  0
SECTION
  2
ENTITIES
  0
TEXT
  5
175
  8
____
 62
     7
 10
91.74799999999999
 20
66.910700000000006
 30
0.0
 40
3.0923400000000001
  1
PF 1/2
 50
90.0
 41
0.5
  0
TEXT
  5
176
  8
____
 62
     7
 10
122.67696878571429
 20
178.375
 30
0.0
 40
3.0923400000000001
  1
※壁裏固定時に使用ください。
 41
0.5
 72
     1
 11
135.131
 21
178.375
 31
0.0
  0
TEXT
  5
177
  8
____
 62
     7
 10
126.472448
 20
183.07499999999999
 30
0.0
 40
3.0923400000000001
  1
取付プレート\U+00D71個入
 41
0.5
 72
     1
 11
135.131
 21
183.07499999999999
 31
0.0
  0
TEXT
  5
178
  8
____
 62
     7
 10
130.505135
 20
190.078
 30
0.0
 40
3.0923400000000001
  1
122
 41
0.5
 72
     1
 11
132.309
 21
190.078
 31
0.0
  0
TEXT
  5
179
  8
____
 62
     7
 10
162.78299999999999
 20
245.798
 30
0.0
 40
3.0923400000000001
  1
8
 50
90.0
 41
0.5
  0
TEXT
  5
17A
  8
____
 62
     7
 10
163.93600000000001
 20
217.11013500000001
 30
0.0
 40
3.0923400000000001
  1
122
 50
90.0
 41
0.5
 72
     1
 11
163.93600000000001
 21
218.91399999999999
 31
0.0
  0
TEXT
  5
17B
  8
____
 62
     7
 10
148.78497300000001
 20
136.98400000000001
 30
0.0
 40
3.0923400000000001
  1
プラグPF 1/2\U+00D71個入
 41
0.5
 72
     1
 11
158.732
 21
136.98400000000001
 31
0.0
  0
TEXT
  5
17C
  8
____
 62
     7
 10
169.11199999999999
 20
145.822
 30
0.0
 40
3.0923400000000001
  1
11
 50
90.0
 41
0.5
  0
TEXT
  5
17D
  8
____
 62
     7
 10
175.797
 20
154.51137249999999
 30
0.0
 40
3.0923400000000001
  1
20
 50
90.0
 41
0.5
 72
     1
 11
175.797
 21
155.67099999999999
 31
0.0
  0
TEXT
  5
17E
  8
____
 62
     7
 10
108.149646
 20
150.334
 30
0.0
 40
3.0923400000000001
  1
（埋込部）
 41
0.5
 72
     1
 11
112.58199999999999
 21
150.334
 31
0.0
  0
TEXT
  5
17F
  8
____
 62
     7
 10
105.88193
 20
154.87100000000001
 30
0.0
 40
3.0923400000000001
  1
KW9999900
 41
0.5
 72
     1
 11
112.58199999999999
 21
154.87100000000001
 31
0.0
  0
TEXT
  5
180
  8
____
 62
     7
 10
143.947
 20
144.90899999999999
 30
0.0
 40
3.0923400000000001
  1
PF 1/2
 41
0.5
  0
TEXT
  5
181
  8
____
 62
     7
 10
50.033450000000002
 20
198.196
 30
0.0
 40
3.0923400000000001
  1
%%c124
 41
0.5
 72
     1
 11
52.610399999999998
 21
198.196
 31
0.0
  0
TEXT
  5
182
  8
____
 62
     7
 10
56.773434999999999
 20
235.673
 30
0.0
 40
3.0923400000000001
  1
164
 41
0.5
 72
     1
 11
58.577300000000001
 21
235.673
 31
0.0
  0
TEXT
  5
183
  8
____
 62
     7
 10
88.896022000000002
 20
200.68799999999999
 30
0.0
 40
3.0923400000000001
  1
取付プレート
 41
0.5
 72
     2
 11
99.306899999999999
 21
200.68799999999999
 31
0.0
  0
TEXT
  5
184
  8
____
 62
     7
 10
98.810400000000001
 20
78.532182500000005
 30
0.0
 40
3.0923400000000001
  1
150
 50
90.0
 41
0.5
 72
     1
 11
98.810400000000001
 21
80.2072
 31
0.0
  0
TEXT
  5
185
  8
____
 62
     7
 10
24.854099999999999
 20
66.910700000000006
 30
0.0
 40
3.0923400000000001
  1
PF 1/2
 50
90.0
 41
0.5
  0
TEXT
  5
186
  8
____
 62
     7
 10
45.280399999999993
 20
43.651000000000003
 30
0.0
 40
3.0923400000000001
  1
PF 1/2
 41
0.5
  0
TEXT
  5
187
  8
____
 62
     7
 10
45.280700000000003
 20
113.93000000000001
 30
0.0
 40
3.0923400000000001
  1
PF 1/2
 41
0.5
  0
TEXT
  5
188
  8
____
 62
     7
 10
81.927035999999987
 20
161.41200000000001
 30
0.0
 40
3.0923400000000001
  1
温度調整ハンドル
 41
0.5
 72
     2
 11
96.151799999999994
 21
161.41200000000001
 31
0.0
  0
TEXT
  5
189
  8
____
 62
     7
 10
78.621544
 20
177.636
 30
0.0
 40
3.0923400000000001
  1
開閉ハンドル
 41
0.5
 72
     2
 11
89.135499999999979
 21
177.636
 31
0.0
  0
TEXT
  5
18A
  8
____
 62
     7
 10
75.175647999999995
 20
49.252099999999992
 30
0.0
 40
3.0923400000000001
  1
安全ボタン
 41
0.5
 72
     2
 11
83.834199999999996
 21
49.252099999999992
 31
0.0
  0
TEXT
  5
18B
  8
____
 62
     7
 10
108.56100000000001
 20
110.617
 30
0.0
 40
3.0923400000000001
  1
KW1004801
 41
0.5
  0
TEXT
  5
18C
  8
____
 62
     7
 10
33.785400000000003
 20
49.252099999999992
 30
0.0
 40
3.0923400000000001
  1
メーカーロゴ
 41
0.5
  0
TEXT
  5
18D
  8
____
 62
     7
 10
117.140377
 20
42.52239999999999
 30
0.0
 40
3.0923400000000001
  1
max.92（仕上面）
 41
0.5
 72
     1
 11
125.232
 21
42.52239999999999
 31
0.0
  0
TEXT
  5
18E
  8
____
 62
     7
 10
143.08783450000001
 20
127.345
 30
0.0
 40
3.0923400000000001
  1
max.105（仕上面）
 41
0.5
 72
     1
 11
151.566
 21
127.345
 31
0.0
  0
TEXT
  5
18F
  8
____
 62
     7
 10
148.988767
 20
122.10299999999999
 30
0.0
 40
3.0923400000000001
  1
min.75（仕上面）
 41
0.5
 72
     1
 11
156.565
 21
122.10299999999999
 31
0.0
  0
TEXT
  5
190
  8
____
 62
     7
 10
162.86822000000001
 20
116.86199999999999
 30
0.0
 40
3.0923400000000001
  1
31
 41
0.5
 72
     1
 11
163.899
 21
116.86199999999999
 31
0.0
  0
TEXT
  5
191
  8
____
 62
     7
 10
112.655767
 20
49.252099999999992
 30
0.0
 40
3.0923400000000001
  1
min.62（仕上面）
 41
0.5
 72
     1
 11
120.232
 21
49.252099999999992
 31
0.0
  0
TEXT
  5
192
  8
____
 62
     7
 10
60.773899999999998
 20
101.102
 30
0.0
 40
3.0923400000000001
  1
閉
 41
0.5
  0
TEXT
  5
193
  8
____
 62
     7
 10
48.270254000000001
 20
83.140699999999995
 30
0.0
 40
3.0923400000000001
  1
開
 41
0.5
 72
     1
 11
48.991799999999998
 21
83.140699999999995
 31
0.0
  0
TEXT
  5
194
  8
____
 62
     7
 10
56.902282499999998
 20
120.678
 30
0.0
 40
3.0923400000000001
  1
150
 41
0.5
 72
     1
 11
58.577300000000001
 21
120.678
 31
0.0
  0
INSERT
  5
195
  8
_________1
 62
     7
  2
AIGNBL02010002
 10
0.0
 20
0.0
 30
0.0
  0
ARC
  5
196
  8
_________1
 62
     7
 10
59.433202999999999
 20
187.002746
 30
0.0
 40
0.144244
 50
0.045183
 51
29.751021999999999
  0
ARC
  5
197
  8
_________1
 62
     7
 10
59.507707999999987
 20
187.04410300000001
 30
0.0
 40
0.059046
 50
30.786092
 51
83.491742999999985
  0
ARC
  5
198
  8
_________1
 62
     7
 10
59.203136999999998
 20
181.15482600000001
 30
0.0
 40
0.21882
 50
270.270037
 51
310.31935299999998
  0
ARC
  5
199
  8
_________1
 62
     7
 10
59.115552999999998
 20
181.27423899999999
 30
0.0
 40
0.366687
 50
308.680341
 51
330.81891000000002
  0
ARC
  5
19A
  8
_________1
 62
     7
 10
58.882117000000001
 20
181.41400300000001
 30
0.0
 40
0.638694
 50
330.08248800000001
 51
1.9797189999999989
  0
LINE
  5
19B
  8
_________1
 62
     7
 10
59.577399999999997
 20
187.00299999999999
 30
0.0
 11
59.520400000000002
 21
181.43599999999989
 31
0.0
  0
ARC
  5
19C
  8
_________1
 62
     7
 10
57.721798999999997
 20
187.002746
 30
0.0
 40
0.144244
 50
150.24893900000001
 51
179.95481699999999
  0
ARC
  5
19D
  8
_________1
 62
     7
 10
57.647294000000002
 20
187.04410300000001
 30
0.0
 40
0.059046
 50
96.508236999999994
 51
149.213888
  0
ARC
  5
19E
  8
_________1
 62
     7
 10
57.951690999999997
 20
181.154526
 30
0.0
 40
0.21852
 50
229.65179900000001
 51
269.730277
  0
ARC
  5
19F
  8
_________1
 62
     7
 10
58.039619999999992
 20
181.27431000000001
 30
0.0
 40
0.36689
 50
209.17615499999999
 51
231.29787899999999
  0
ARC
  5
1A0
  8
_________1
 62
     7
 10
58.27330400000001
 20
181.414072
 30
0.0
 40
0.6391100000000001
 50
178.02776399999999
 51
209.90320700000001
  0
LINE
  5
1A1
  8
_________1
 62
     7
 10
62.744199999999999
 20
187.43600000000001
 30
0.0
 11
62.744199999999999
 21
187.10300000000001
 31
0.0
  0
LINE
  5
1A2
  8
_________1
 62
     7
 10
54.410800000000002
 20
187.43600000000001
 30
0.0
 11
54.410800000000002
 21
187.10300000000001
 31
0.0
  0
ARC
  5
1A3
  8
_________1
 62
     7
 10
63.142380000000003
 20
187.0009
 30
0.0
 40
0.101956
 50
2.263558999999999
 51
92.379491999999999
  0
ARC
  5
1A4
  8
_________1
 62
     7
 10
62.843872999999988
 20
181.24944199999999
 30
0.0
 40
0.313446
 50
270.51494400000001
 51
327.62566800000008
  0
ARC
  5
1A5
  8
_________1
 62
     7
 10
62.789780000000007
 20
181.29155700000001
 30
0.0
 40
0.381739
 50
326.634299
 51
357.15301599999998
  0
LINE
  5
1A6
  8
_________1
 62
     7
 10
63.244300000000003
 20
187.005
 30
0.0
 11
63.170999999999999
 21
181.273
 31
0.0
  0
ARC
  5
1A7
  8
_________1
 62
     7
 10
54.012622
 20
187.0009
 30
0.0
 40
0.101956
 50
87.620470999999995
 51
177.73643799999999
  0
ARC
  5
1A8
  8
_________1
 62
     7
 10
54.311129000000001
 20
181.24944199999999
 30
0.0
 40
0.313446
 50
212.37435199999999
 51
269.48507599999999
  0
ARC
  5
1A9
  8
_________1
 62
     7
 10
54.365221999999989
 20
181.29155700000001
 30
0.0
 40
0.381739
 50
182.847003
 51
213.36572100000001
  0
LINE
  5
1AA
  8
_________1
 62
     7
 10
53.910699999999999
 20
187.005
 30
0.0
 11
53.983999999999988
 21
181.273
 31
0.0
  0
LINE
  5
1AB
  8
_________1
 62
     7
 10
54.308300000000003
 20
180.93600000000001
 30
0.0
 11
62.846699999999998
 21
180.93600000000001
 31
0.0
  0
LINE
  5
1AC
  8
_________1
 62
     7
 10
54.0169
 20
187.10300000000001
 30
0.0
 11
63.138100000000001
 21
187.10300000000001
 31
0.0
  0
LINE
  5
1AD
  8
_________1
 62
     7
 10
57.577599999999997
 20
187.00299999999999
 30
0.0
 11
57.634599999999999
 21
181.43599999999989
 31
0.0
  0
LINE
  5
1AE
  8
_________1
  6
AIGENLINE003
 62
     7
 10
58.494
 20
104.45699999999999
 30
0.0
 11
58.494
 21
102.624
 31
0.0
  0
LINE
  5
1AF
  8
_________1
  6
AIGENLINE003
 62
     7
 10
58.660699999999999
 20
104.45699999999999
 30
0.0
 11
58.660699999999999
 21
102.624
 31
0.0
  0
ARC
  5
1B0
  8
_________1
  6
AIGENLINE003
 62
     7
 10
58.574206000000011
 20
102.627309
 30
0.0
 40
0.086551
 50
272.06744900000001
 51
357.93256000000002
  0
ARC
  5
1B1
  8
_________1
  6
AIGENLINE003
 62
     7
 10
58.580583999999988
 20
102.627441
 30
0.0
 40
0.086688
 50
182.15176
 51
267.84827000000001
  0
LINE
  5
1B2
  8
_________1
 62
     7
 10
129.732
 20
97.707700000000003
 30
0.0
 11
129.399
 21
97.707700000000003
 31
0.0
  0
LINE
  5
1B3
  8
_________1
 62
     7
 10
129.732
 20
89.373900000000006
 30
0.0
 11
129.399
 21
89.373900000000006
 31
0.0
  0
INSERT
  5
1B4
  8
_________1
 62
     7
  2
AIGNBL02010003
 10
0.0
 20
0.0
 30
0.0
  0
INSERT
  5
1B5
  8
_________1
 62
     7
  2
AIGNBL02010004
 10
0.0
 20
0.0
 30
0.0
  0
LINE
  5
1B6
  8
_________1
  6
AIGENLINE001
 62
     7
 10
131.81700000000001
 20
93.540400000000005
 30
0.0
 11
121.34699999999999
 21
93.540400000000005
 31
0.0
  0
LINE
  5
1B7
  8
_________1
 62
     7
 10
128.39699999999999
 20
98.323600000000013
 30
0.0
 11
124.318
 21
98.323600000000013
 31
0.0
  0
ARC
  5
1B8
  8
_________1
 62
     7
 10
58.577323
 20
93.540893000000011
 30
0.0
 40
12.191231
 50
180.0021219999999
 51
210.00339500000001
  0
ARC
  5
1B9
  8
_________1
 62
     7
 10
58.561053000000001
 20
93.540530000000004
 30
0.0
 40
12.17496
 50
90.000405000000001
 51
180.000415
  0
INSERT
  5
1BA
  8
_________1
 62
     7
  2
AIGNBL02010005
 10
0.0
 20
0.0
 30
0.0
  0
ARC
  5
1BB
  8
_________1
 62
     7
 10
58.438293999999992
 20
93.456272999999996
 30
0.0
 40
4.7899940000000001
 50
1.006891999999999
 51
68.863429000000011
  0
ARC
  5
1BC
  8
_________1
 62
     7
 10
58.560878000000002
 20
93.540361000000004
 30
0.0
 40
4.666671
 50
270.00107700000001
 51
0.001048
  0
ARC
  5
1BD
  8
_________1
 62
     7
 10
58.560963999999998
 20
93.540444999999977
 30
0.0
 40
4.6667550000000002
 50
179.99996999999999
 51
270.00002000000001
  0
ARC
  5
1BE
  8
_________1
 62
     7
 10
58.684852999999997
 20
93.455895999999996
 30
0.0
 40
4.7913899999999989
 50
111.34903799999999
 51
178.98887500000001
  0
ARC
  5
1BF
  8
_________1
 62
     7
 10
56.535931999999988
 20
98.860083000000003
 30
0.0
 40
1.0250440000000001
 50
293.280979
 51
359.09311500000001
  0
ARC
  5
1C0
  8
_________1
 62
     7
 10
60.585824999999993
 20
98.860083000000003
 30
0.0
 40
1.025042999999999
 50
180.90688599999999
 51
246.71905899999999
  0
ARC
  5
1C1
  8
_________1
 62
     7
 10
57.907085000000002
 20
104.194474
 30
0.0
 40
0.346472
 50
92.137490999999983
 51
177.89208199999999
  0
ARC
  5
1C2
  8
_________1
 62
     7
 10
59.214447
 20
104.194249
 30
0.0
 40
0.346705
 50
2.143683999999999
 51
87.826703000000009
  0
LINE
  5
1C3
  8
_________1
 62
     7
 10
57.5608
 20
104.20699999999999
 30
0.0
 11
57.5608
 21
98.843900000000005
 31
0.0
  0
LINE
  5
1C4
  8
_________1
 62
     7
 10
59.56089999999999
 20
104.20699999999999
 30
0.0
 11
59.56089999999999
 21
98.843900000000005
 31
0.0
  0
LINE
  5
1C5
  8
_________1
 62
     7
 10
57.894199999999991
 20
104.541
 30
0.0
 11
59.227600000000002
 21
104.541
 31
0.0
  0
LINE
  5
1C6
  8
_________1
 62
     7
 10
48.579900000000002
 20
87.767099999999985
 30
0.0
 11
49.465299999999999
 21
88.279100000000014
 31
0.0
  0
LINE
  5
1C7
  8
_________1
 62
     7
 10
56.304900000000004
 20
106.10599999999999
 30
0.0
 11
58.561000000000007
 21
105.715
 31
0.0
  0
LINE
  5
1C8
  8
_________1
 62
     7
 10
58.561000000000007
 20
105.715
 30
0.0
 11
56.411900000000003
 21
104.926
 31
0.0
  0
LINE
  5
1C9
  8
_________1
 62
     7
 10
56.411900000000003
 20
104.926
 30
0.0
 11
56.304900000000004
 21
106.10599999999999
 31
0.0
  0
LINE
  5
1CA
  8
_________1
 62
     7
 10
47.616900000000001
 20
89.698499999999996
 30
0.0
 11
48.019799999999996
 21
87.444699999999983
 31
0.0
  0
LINE
  5
1CB
  8
_________1
 62
     7
 10
48.019799999999996
 20
87.444699999999983
 30
0.0
 11
46.543900000000001
 21
89.194800000000001
 31
0.0
  0
LINE
  5
1CC
  8
_________1
 62
     7
 10
46.543900000000001
 20
89.194800000000001
 30
0.0
 11
47.616900000000001
 21
89.698499999999996
 31
0.0
  0
LINE
  5
1CD
  8
_________1
 62
     7
 10
143.13900000000001
 20
253.12
 30
0.0
 11
143.13900000000001
 21
250.453
 31
0.0
  0
LINE
  5
1CE
  8
_________1
 62
     7
 10
145.86500000000001
 20
253.12
 30
0.0
 11
145.86500000000001
 21
250.453
 31
0.0
  0
LINE
  5
1CF
  8
_________1
 62
     7
 10
148.75299999999999
 20
253.12
 30
0.0
 11
148.75299999999999
 21
250.453
 31
0.0
  0
LINE
  5
1D0
  8
_________1
 62
     7
 10
151.684
 20
253.12
 30
0.0
 11
151.684
 21
250.453
 31
0.0
  0
LINE
  5
1D1
  8
_________1
 62
     7
 10
154.309
 20
253.12
 30
0.0
 11
154.309
 21
250.453
 31
0.0
  0
LINE
  5
1D2
  8
_________1
 62
     7
 10
155.309
 20
253.12
 30
0.0
 11
155.309
 21
250.453
 31
0.0
  0
LINE
  5
1D3
  8
_________1
 62
     7
 10
121.479
 20
250.453
 30
0.0
 11
121.479
 21
253.12
 31
0.0
  0
LINE
  5
1D4
  8
_________1
 62
     7
 10
118.753
 20
250.453
 30
0.0
 11
118.753
 21
253.12
 31
0.0
  0
LINE
  5
1D5
  8
_________1
 62
     7
 10
115.864
 20
250.453
 30
0.0
 11
115.864
 21
253.12
 31
0.0
  0
LINE
  5
1D6
  8
_________1
 62
     7
 10
112.934
 20
250.453
 30
0.0
 11
112.934
 21
253.12
 31
0.0
  0
LINE
  5
1D7
  8
_________1
 62
     7
 10
110.309
 20
250.453
 30
0.0
 11
110.309
 21
253.12
 31
0.0
  0
LINE
  5
1D8
  8
_________1
 62
     7
 10
109.30800000000001
 20
250.453
 30
0.0
 11
109.30800000000001
 21
253.12
 31
0.0
  0
LINE
  5
1D9
  8
_________1
 62
     7
 10
155.642
 20
250.453
 30
0.0
 11
108.976
 21
250.453
 31
0.0
  0
LINE
  5
1DA
  8
_________1
 62
     7
 10
108.976
 20
250.453
 30
0.0
 11
108.976
 21
253.12
 31
0.0
  0
LINE
  5
1DB
  8
_________1
 62
     7
 10
108.976
 20
253.12
 30
0.0
 11
155.642
 21
253.12
 31
0.0
  0
LINE
  5
1DC
  8
_________1
 62
     7
 10
155.642
 20
253.12
 30
0.0
 11
155.642
 21
250.453
 31
0.0
  0
ARC
  5
1DD
  8
_________1
 62
     7
 10
122.797144
 20
198.64037300000001
 30
0.0
 40
2.2195
 50
249.129088
 51
312.45577200000002
  0
ARC
  5
1DE
  8
_________1
 62
     7
 10
119.799933
 20
197.62198900000001
 30
0.0
 40
1.7038029999999991
 50
250.14972700000001
 51
312.49210399999998
  0
ARC
  5
1DF
  8
_________1
 62
     7
 10
117.308999
 20
197.301456
 30
0.0
 40
1.7120589999999991
 50
235.27262300000001
 51
304.727397
  0
ARC
  5
1E0
  8
_________1
 62
     7
 10
114.825491
 20
197.63501400000001
 30
0.0
 40
1.7133409999999989
 50
217.449163
 51
289.44712700000002
  0
ARC
  5
1E1
  8
_________1
 62
     7
 10
112.003531
 20
209.40119200000001
 30
0.0
 40
2.194926999999999
 50
136.966926
 51
179.70065
  0
ARC
  5
1E2
  8
_________1
 62
     7
 10
111.987172
 20
209.41429500000001
 30
0.0
 40
2.1785389999999989
 50
180.04304500000001
 51
201.647706
  0
ARC
  5
1E3
  8
_________1
 62
     7
 10
110.99370399999999
 20
206.40480700000001
 30
0.0
 40
1.6853189999999989
 50
136.968041
 51
179.73333700000001
  0
ARC
  5
1E4
  8
_________1
 62
     7
 10
110.98883499999999
 20
206.414951
 30
0.0
 40
1.6804339999999991
 50
180.07846699999999
 51
200.53718000000001
  0
ARC
  5
1E5
  8
_________1
 62
     7
 10
110.652017
 20
203.90978000000001
 30
0.0
 40
1.676413999999999
 50
144.30817999999999
 51
179.90600900000001
  0
ARC
  5
1E6
  8
_________1
 62
     7
 10
110.65738
 20
203.91701
 30
0.0
 40
1.681781
 50
180.15267600000001
 51
215.63313500000001
  0
ARC
  5
1E7
  8
_________1
 62
     7
 10
110.99724000000001
 20
201.40875
 30
0.0
 40
1.688841
 50
159.51429099999999
 51
179.87006199999999
  0
ARC
  5
1E8
  8
_________1
 62
     7
 10
111.002017
 20
201.42624699999999
 30
0.0
 40
1.693668999999999
 50
180.46239399999999
 51
233.271344
  0
ARC
  5
1E9
  8
_________1
 62
     7
 10
111.953822
 20
198.58148
 30
0.0
 40
1.6449579999999999
 50
165.032048
 51
180.081434
  0
ARC
  5
1EA
  8
_________1
 62
     7
 10
111.975526
 20
198.579229
 30
0.0
 40
1.6666609999999991
 50
180.002971
 51
270.00298099999998
  0
ARC
  5
1EB
  8
_________1
 62
     7
 10
111.976994
 20
198.56979000000001
 30
0.0
 40
1.657222999999999
 50
269.95227799999998
 51
284.88882699999999
  0
ARC
  5
1EC
  8
_________1
 62
     7
 10
107.907664
 20
213.20267100000001
 30
0.0
 40
3.393351
 50
317.241285
 51
12.723617000000001
  0
ARC
  5
1ED
  8
_________1
 62
     7
 10
109.00767500000001
 20
208.245127
 30
0.0
 40
1.0221929999999999
 50
317.53862900000013
 51
20.951215000000001
  0
ARC
  5
1EE
  8
_________1
 62
     7
 10
108.45918899999999
 20
205.475506
 30
0.0
 40
1.0180409999999991
 50
324.742681
 51
20.10389
  0
ARC
  5
1EF
  8
_________1
 62
     7
 10
108.45975900000001
 20
202.349628
 30
0.0
 40
1.017531999999999
 50
339.88106499999998
 51
35.272365000000001
  0
ARC
  5
1F0
  8
_________1
 62
     7
 10
109.369187
 20
199.252093
 30
0.0
 40
1.025374999999999
 50
346.13272699999999
 51
52.797863999999997
  0
ARC
  5
1F1
  8
_________1
 62
     7
 10
112.647856
 20
195.96986000000001
 30
0.0
 40
1.027979999999999
 50
37.328085999999999
 51
103.7908569999999
  0
ARC
  5
1F2
  8
_________1
 62
     7
 10
115.745206
 20
195.06005999999999
 30
0.0
 40
1.020966
 50
54.802571999999998
 51
110.0053649999999
  0
ARC
  5
1F3
  8
_________1
 62
     7
 10
118.872074
 20
195.06351799999999
 30
0.0
 40
1.0177259999999999
 50
69.926457999999997
 51
125.27660400000001
  0
ARC
  5
1F4
  8
_________1
 62
     7
 10
121.64093800000001
 20
195.61302699999999
 30
0.0
 40
1.021123999999999
 50
69.02764599999999
 51
132.518585
  0
ARC
  5
1F5
  8
_________1
 62
     7
 10
126.599451
 20
194.511617
 30
0.0
 40
3.3935040000000001
 50
77.285314999999997
 51
132.763454
  0
ARC
  5
1F6
  8
_________1
 62
     7
 10
141.820549
 20
198.63959500000001
 30
0.0
 40
2.2186650000000001
 50
227.53804600000001
 51
290.87078700000001
  0
ARC
  5
1F7
  8
_________1
 62
     7
 10
144.81745699999999
 20
197.62198900000001
 30
0.0
 40
1.7038029999999991
 50
227.50791599999999
 51
289.85029300000002
  0
ARC
  5
1F8
  8
_________1
 62
     7
 10
147.30907999999999
 20
197.301456
 30
0.0
 40
1.7120589999999991
 50
235.27262300000001
 51
304.727397
  0
ARC
  5
1F9
  8
_________1
 62
     7
 10
149.791842
 20
197.63752299999999
 30
0.0
 40
1.7154590000000001
 50
250.60427999999999
 51
322.49946899999998
  0
ARC
  5
1FA
  8
_________1
 62
     7
 10
152.61638500000001
 20
209.40293800000001
 30
0.0
 40
2.192393
 50
0.254039
 51
43.032459000000003
  0
ARC
  5
1FB
  8
_________1
 62
     7
 10
152.63021800000001
 20
209.41429500000001
 30
0.0
 40
2.1785389999999989
 50
338.35231399999998
 51
359.956975
  0
ARC
  5
1FC
  8
_________1
 62
     7
 10
153.62620899999999
 20
206.40655100000001
 30
0.0
 40
1.682788999999999
 50
0.20769
 51
43.031162000000002
  0
ARC
  5
1FD
  8
_________1
 62
     7
 10
153.62855500000001
 20
206.414951
 30
0.0
 40
1.6804339999999991
 50
339.46284000000003
 51
359.9215529999999
  0
ARC
  5
1FE
  8
_________1
 62
     7
 10
153.96791099999999
 20
203.90941599999999
 30
0.0
 40
1.674566999999999
 50
0.106511
 51
35.752557000000003
  0
ARC
  5
1FF
  8
_________1
 62
     7
 10
153.963651
 20
203.91702000000001
 30
0.0
 40
1.6788299999999989
 50
324.29421500000001
 51
359.84671700000001
  0
ARC
  5
200
  8
_________1
 62
     7
 10
153.65962400000001
 20
201.41592900000001
 30
0.0
 40
1.649365999999999
 50
359.88363399999997
 51
20.731973
  0
ARC
  5
201
  8
_________1
 62
     7
 10
153.61537200000001
 20
201.42624799999999
 30
0.0
 40
1.69367
 50
306.72869500000002
 51
359.53760699999998
  0
ARC
  5
202
  8
_________1
 62
     7
 10
152.664253
 20
198.58148
 30
0.0
 40
1.6449619999999989
 50
359.91860600000001
 51
14.967912
  0
ARC
  5
203
  8
_________1
 62
     7
 10
152.64255199999999
 20
198.579229
 30
0.0
 40
1.666661999999999
 50
269.99705899999998
 51
359.997029
  0
ARC
  5
204
  8
_________1
 62
     7
 10
152.641086
 20
198.56979000000001
 30
0.0
 40
1.657222999999999
 50
255.11119299999999
 51
270.04774200000003
  0
ARC
  5
205
  8
_________1
 62
     7
 10
156.711479
 20
213.20370399999999
 30
0.0
 40
3.3948330000000002
 50
167.29988599999999
 51
222.75935100000001
  0
ARC
  5
206
  8
_________1
 62
     7
 10
155.61126400000001
 20
208.24542099999999
 30
0.0
 40
1.0235350000000001
 50
159.09515200000001
 51
222.41500400000001
  0
ARC
  5
207
  8
_________1
 62
     7
 10
156.162835
 20
205.476122
 30
0.0
 40
1.0221839999999991
 50
160.01781800000001
 51
215.13561100000001
  0
ARC
  5
208
  8
_________1
 62
     7
 10
156.16028800000001
 20
202.34927500000001
 30
0.0
 40
1.0199059999999991
 50
144.797585
 51
200.04898600000001
  0
ARC
  5
209
  8
_________1
 62
     7
 10
155.249484
 20
199.252286
 30
0.0
 40
1.025995999999999
 50
127.26562199999999
 51
193.86986200000001
  0
ARC
  5
20A
  8
_________1
 62
     7
 10
151.969707
 20
195.97132099999999
 30
0.0
 40
1.0266850000000001
 50
76.161753000000004
 51
142.71926400000001
  0
ARC
  5
20B
  8
_________1
 62
     7
 10
148.872435
 20
195.063343
 30
0.0
 40
1.018032
 50
69.908247000000003
 51
125.283776
  0
ARC
  5
20C
  8
_________1
 62
     7
 10
145.745634
 20
195.062657
 30
0.0
 40
1.018645
 50
54.734293000000022
 51
110.073645
  0
ARC
  5
20D
  8
_________1
 62
     7
 10
142.97616099999999
 20
195.61150000000001
 30
0.0
 40
1.022446999999999
 50
47.527233000000003
 51
110.926496
  0
ARC
  5
20E
  8
_________1
 62
     7
 10
138.01862800000001
 20
194.511617
 30
0.0
 40
3.3935040000000001
 50
47.236525999999998
 51
102.71466599999999
  0
ARC
  5
20F
  8
_________1
 62
     7
 10
122.797144
 20
239.18511000000001
 30
0.0
 40
2.2195
 50
47.544228000000011
 51
110.870912
  0
ARC
  5
210
  8
_________1
 62
     7
 10
119.799933
 20
240.20349400000001
 30
0.0
 40
1.7038029999999991
 50
47.507896000000002
 51
109.850273
  0
ARC
  5
211
  8
_________1
 62
     7
 10
117.308999
 20
240.52385599999999
 30
0.0
 40
1.7120589999999991
 50
55.272602999999997
 51
124.727377
  0
ARC
  5
212
  8
_________1
 62
     7
 10
114.825672
 20
240.19017500000001
 30
0.0
 40
1.7135590000000001
 50
70.561855000000008
 51
142.55124900000001
  0
ARC
  5
213
  8
_________1
 62
     7
 10
112.003531
 20
228.42429200000001
 30
0.0
 40
2.194926999999999
 50
180.29935
 51
223.033074
  0
ARC
  5
214
  8
_________1
 62
     7
 10
111.987172
 20
228.41118900000001
 30
0.0
 40
2.1785389999999989
 50
158.352294
 51
179.95695499999999
  0
ARC
  5
215
  8
_________1
 62
     7
 10
110.993709
 20
231.42050499999999
 30
0.0
 40
1.685324
 50
180.26084
 51
223.031857
  0
ARC
  5
216
  8
_________1
 62
     7
 10
110.98787400000001
 20
231.41053400000001
 30
0.0
 40
1.6794720000000001
 50
159.45687899999999
 51
179.92155500000001
  0
ARC
  5
217
  8
_________1
 62
     7
 10
110.652017
 20
233.91553200000001
 30
0.0
 40
1.676413999999999
 50
180.09399099999999
 51
215.69182000000001
  0
ARC
  5
218
  8
_________1
 62
     7
 10
110.65738
 20
233.90830199999999
 30
0.0
 40
1.681781
 50
144.36686499999999
 51
179.84732399999999
  0
ARC
  5
219
  8
_________1
 62
     7
 10
110.997242
 20
236.41673499999999
 30
0.0
 40
1.6888439999999989
 50
180.13583399999999
 51
200.48573200000001
  0
ARC
  5
21A
  8
_________1
 62
     7
 10
111.002319
 20
236.39908500000001
 30
0.0
 40
1.69397
 50
126.733783
 51
179.53840099999999
  0
ARC
  5
21B
  8
_________1
 62
     7
 10
111.953822
 20
239.243831
 30
0.0
 40
1.6449579999999999
 50
179.918566
 51
194.967952
  0
ARC
  5
21C
  8
_________1
 62
     7
 10
111.975613
 20
239.24616800000001
 30
0.0
 40
1.666747999999999
 50
90.0
 51
179.99996999999999
  0
ARC
  5
21D
  8
_________1
 62
     7
 10
111.976992
 20
239.26062200000001
 30
0.0
 40
1.6522950000000001
 50
75.065663000000001
 51
90.047798999999998
  0
ARC
  5
21E
  8
_________1
 62
     7
 10
107.907664
 20
224.62264099999999
 30
0.0
 40
3.393351
 50
347.27638300000001
 51
42.758715000000002
  0
ARC
  5
21F
  8
_________1
 62
     7
 10
109.00767500000001
 20
229.58035699999999
 30
0.0
 40
1.0221929999999999
 50
339.04878500000001
 51
42.461371
  0
ARC
  5
220
  8
_________1
 62
     7
 10
108.45918899999999
 20
232.349806
 30
0.0
 40
1.0180409999999991
 50
339.89611000000002
 51
35.257319000000003
  0
ARC
  5
221
  8
_________1
 62
     7
 10
108.45975900000001
 20
235.475683
 30
0.0
 40
1.017531999999999
 50
324.72763500000002
 51
20.118935
  0
ARC
  5
222
  8
_________1
 62
     7
 10
109.369187
 20
238.57321899999999
 30
0.0
 40
1.025374999999999
 50
307.202136
 51
13.867273000000001
  0
ARC
  5
223
  8
_________1
 62
     7
 10
112.647856
 20
241.85545099999999
 30
0.0
 40
1.027979999999999
 50
256.2091430000001
 51
322.67191400000002
  0
ARC
  5
224
  8
_________1
 62
     7
 10
115.74542099999999
 20
242.76496299999999
 30
0.0
 40
1.020605999999999
 50
249.97446400000001
 51
305.19691599999999
  0
ARC
  5
225
  8
_________1
 62
     7
 10
118.871959
 20
242.76225199999999
 30
0.0
 40
1.018035
 50
234.74356700000001
 51
290.07406700000001
  0
ARC
  5
226
  8
_________1
 62
     7
 10
121.64093800000001
 20
242.212456
 30
0.0
 40
1.021123999999999
 50
227.481415
 51
290.972354
  0
ARC
  5
227
  8
_________1
 62
     7
 10
126.599451
 20
243.31386699999999
 30
0.0
 40
3.3935040000000001
 50
227.236546
 51
282.71468499999997
  0
ARC
  5
228
  8
_________1
 62
     7
 10
141.820549
 20
239.18588800000001
 30
0.0
 40
2.2186650000000001
 50
69.129212999999993
 51
132.46195399999999
  0
ARC
  5
229
  8
_________1
 62
     7
 10
144.81745699999999
 20
240.20349400000001
 30
0.0
 40
1.7038029999999991
 50
70.149707000000006
 51
132.49208400000001
  0
ARC
  5
22A
  8
_________1
 62
     7
 10
147.30907999999999
 20
240.52385599999999
 30
0.0
 40
1.7120589999999991
 50
55.272602999999997
 51
124.727377
  0
ARC
  5
22B
  8
_________1
 62
     7
 10
149.791661
 20
240.18766500000001
 30
0.0
 40
1.7156779999999989
 50
37.500120000000003
 51
109.386737
  0
ARC
  5
22C
  8
_________1
 62
     7
 10
152.61638500000001
 20
228.42254600000001
 30
0.0
 40
2.192393
 50
316.96754099999998
 51
359.74596100000002
  0
ARC
  5
22D
  8
_________1
 62
     7
 10
152.63021800000001
 20
228.41118900000001
 30
0.0
 40
2.1785389999999989
 50
0.043025
 51
21.647686
  0
ARC
  5
22E
  8
_________1
 62
     7
 10
153.626203
 20
231.41876199999999
 30
0.0
 40
1.682793999999999
 50
316.96893999999998
 51
359.79812600000002
  0
ARC
  5
22F
  8
_________1
 62
     7
 10
153.629516
 20
231.41053400000001
 30
0.0
 40
1.6794720000000001
 50
0.078425
 51
20.543101
  0
ARC
  5
230
  8
_________1
 62
     7
 10
153.96791099999999
 20
233.91589500000001
 30
0.0
 40
1.674566999999999
 50
324.24744300000009
 51
359.89348899999999
  0
ARC
  5
231
  8
_________1
 62
     7
 10
153.963651
 20
233.90829099999999
 30
0.0
 40
1.6788299999999989
 50
0.153283
 51
35.705784999999999
  0
ARC
  5
232
  8
_________1
 62
     7
 10
153.65963300000001
 20
236.40955199999999
 30
0.0
 40
1.649357
 50
339.26800300000002
 51
0.110471
  0
ARC
  5
233
  8
_________1
 62
     7
 10
153.61507
 20
236.39908500000001
 30
0.0
 40
1.693972
 50
0.461598
 51
53.266178000000011
  0
ARC
  5
234
  8
_________1
 62
     7
 10
152.664253
 20
239.243832
 30
0.0
 40
1.6449619999999989
 50
345.03208799999999
 51
0.081394
  0
ARC
  5
235
  8
_________1
 62
     7
 10
152.64246600000001
 20
239.24616800000001
 30
0.0
 40
1.666747999999999
 50
0.00001
 51
89.999980000000008
  0
ARC
  5
236
  8
_________1
 62
     7
 10
152.641087
 20
239.26062200000001
 30
0.0
 40
1.6522950000000001
 50
89.952180999999996
 51
104.93431699999999
  0
ARC
  5
237
  8
_________1
 62
     7
 10
156.711479
 20
224.62160800000001
 30
0.0
 40
3.3948330000000002
 50
137.24064899999999
 51
192.70011400000001
  0
ARC
  5
238
  8
_________1
 62
     7
 10
155.61126400000001
 20
229.580063
 30
0.0
 40
1.0235350000000001
 50
137.58499599999999
 51
200.90484799999999
  0
ARC
  5
239
  8
_________1
 62
     7
 10
156.162835
 20
232.349189
 30
0.0
 40
1.0221839999999991
 50
144.86438899999999
 51
199.98218199999999
  0
ARC
  5
23A
  8
_________1
 62
     7
 10
156.16028800000001
 20
235.47603699999999
 30
0.0
 40
1.0199059999999991
 50
159.95101399999999
 51
215.202415
  0
ARC
  5
23B
  8
_________1
 62
     7
 10
155.249484
 20
238.573025
 30
0.0
 40
1.025995999999999
 50
166.13013799999999
 51
232.73437799999999
  0
ARC
  5
23C
  8
_________1
 62
     7
 10
151.969707
 20
241.85399100000001
 30
0.0
 40
1.0266850000000001
 50
217.28073599999999
 51
283.83824700000002
  0
ARC
  5
23D
  8
_________1
 62
     7
 10
148.872221
 20
242.76168200000001
 30
0.0
 40
1.0176750000000001
 50
234.71673999999999
 51
290.111919
  0
ARC
  5
23E
  8
_________1
 62
     7
 10
145.74574799999999
 20
242.763113
 30
0.0
 40
1.0189529999999991
 50
249.92583099999999
 51
305.24554999999998
  0
ARC
  5
23F
  8
_________1
 62
     7
 10
142.97616099999999
 20
242.21398400000001
 30
0.0
 40
1.022446999999999
 50
249.0735040000001
 51
312.47276699999998
  0
ARC
  5
240
  8
_________1
 62
     7
 10
138.01862800000001
 20
243.31386699999999
 30
0.0
 40
3.3935040000000001
 50
257.28533399999998
 51
312.76347399999997
  0
LINE
  5
241
  8
_________1
 62
     7
 10
117.309
 20
199.07900000000001
 30
0.0
 11
118.642
 21
199.07900000000001
 31
0.0
  0
LINE
  5
242
  8
_________1
 62
     7
 10
117.309
 20
202.07900000000001
 30
0.0
 11
118.642
 21
202.07900000000001
 31
0.0
  0
ARC
  5
243
  8
_________1
 62
     7
 10
114.770235
 20
197.617661
 30
0.0
 40
1.0391269999999999
 50
272.13115699999997
 51
357.87872399999998
  0
ARC
  5
244
  8
_________1
 62
     7
 10
114.769899
 20
197.54057700000001
 30
0.0
 40
1.0394699999999999
 50
2.1292810000000002
 51
87.850968999999992
  0
ARC
  5
245
  8
_________1
 62
     7
 10
114.847521
 20
197.54091199999999
 30
0.0
 40
1.039121999999999
 50
92.131232000000011
 51
177.88847799999999
  0
ARC
  5
246
  8
_________1
 62
     7
 10
114.84768200000001
 20
197.61782299999999
 30
0.0
 40
1.0392950000000001
 50
182.12990400000001
 51
267.860255
  0
ARC
  5
247
  8
_________1
 62
     7
 10
117.308913
 20
197.24614099999999
 30
0.0
 40
1.0002040000000001
 50
269.98521899999997
 51
359.98518899999999
  0
ARC
  5
248
  8
_________1
 62
     7
 10
117.308913
 20
197.24562399999991
 30
0.0
 40
1.0002040000000001
 50
0.014811
 51
90.014780999999985
  0
ARC
  5
249
  8
_________1
 62
     7
 10
117.347296
 20
197.20742000000001
 30
0.0
 40
1.0391269999999999
 50
92.131136999999995
 51
177.878704
  0
ARC
  5
24A
  8
_________1
 62
     7
 10
117.347459
 20
197.28450799999999
 30
0.0
 40
1.0392950000000001
 50
182.12990400000001
 51
267.860255
  0
ARC
  5
24B
  8
_________1
 62
     7
 10
119.77047899999999
 20
197.617661
 30
0.0
 40
1.0391269999999999
 50
272.13115699999997
 51
357.87872399999998
  0
ARC
  5
24C
  8
_________1
 62
     7
 10
119.77014200000001
 20
197.54057700000001
 30
0.0
 40
1.0394699999999999
 50
2.1292810000000002
 51
87.850968999999992
  0
ARC
  5
24D
  8
_________1
 62
     7
 10
119.808948
 20
197.579025
 30
0.0
 40
1.000289999999999
 50
89.990132999999986
 51
179.990104
  0
ARC
  5
24E
  8
_________1
 62
     7
 10
119.808862
 20
197.57945599999999
 30
0.0
 40
1.0002040000000001
 50
180.01481100000001
 51
270.01482099999998
  0
ARC
  5
24F
  8
_________1
 62
     7
 10
122.751169
 20
198.63727499999999
 30
0.0
 40
1.5590419999999989
 50
272.13057199999997
 51
357.869438
  0
ARC
  5
250
  8
_________1
 62
     7
 10
122.751953
 20
198.52214000000001
 30
0.0
 40
1.5582290000000001
 50
2.102806999999999
 51
87.897182999999998
  0
ARC
  5
251
  8
_________1
 62
     7
 10
122.867068
 20
198.521376
 30
0.0
 40
1.5590209999999991
 50
92.129823000000002
 51
177.870147
  0
ARC
  5
252
  8
_________1
 62
     7
 10
122.866304
 20
198.63649000000001
 30
0.0
 40
1.5582279999999999
 50
182.10281000000001
 51
267.89722
  0
ARC
  5
253
  8
_________1
 62
     7
 10
117.366615
 20
200.52124599999999
 30
0.0
 40
1.5590419999999989
 50
92.130552000000009
 51
177.86941899999999
  0
ARC
  5
254
  8
_________1
 62
     7
 10
117.36583
 20
200.636381
 30
0.0
 40
1.5582279999999999
 50
182.10281000000001
 51
267.89722
  0
ARC
  5
255
  8
_________1
 62
     7
 10
118.583975
 20
200.637145
 30
0.0
 40
1.5590209999999991
 50
272.12984299999999
 51
357.87016699999998
  0
ARC
  5
256
  8
_________1
 62
     7
 10
118.58475900000001
 20
200.52205000000001
 30
0.0
 40
1.5582089999999991
 50
2.1021099999999988
 51
87.897879999999986
  0
LINE
  5
257
  8
_________1
 62
     7
 10
112.47499999999999
 20
203.91300000000001
 30
0.0
 11
112.47499999999999
 21
205.24600000000001
 31
0.0
  0
LINE
  5
258
  8
_________1
 62
     7
 10
115.47499999999999
 20
203.91300000000001
 30
0.0
 11
115.47499999999999
 21
205.24600000000001
 31
0.0
  0
ARC
  5
259
  8
_________1
 62
     7
 10
111.975441
 20
198.578971
 30
0.0
 40
1.000289999999999
 50
89.990132999999986
 51
179.990104
  0
ARC
  5
25A
  8
_________1
 62
     7
 10
111.936959
 20
198.54084700000001
 30
0.0
 40
1.0391330000000001
 50
2.1120659999999991
 51
87.868183999999985
  0
ARC
  5
25B
  8
_________1
 62
     7
 10
111.936809
 20
198.61776800000001
 30
0.0
 40
1.0392950000000001
 50
272.13976500000001
 51
357.870116
  0
ARC
  5
25C
  8
_________1
 62
     7
 10
111.975354
 20
198.57940099999999
 30
0.0
 40
1.0002040000000001
 50
180.01481100000001
 51
270.01482099999998
  0
ARC
  5
25D
  8
_________1
 62
     7
 10
114.014138
 20
200.54058499999999
 30
0.0
 40
1.0394699999999999
 50
92.149011000000002
 51
177.870699
  0
ARC
  5
25E
  8
_________1
 62
     7
 10
113.975331
 20
200.57903300000001
 30
0.0
 40
1.000289999999999
 50
0.009877
 51
90.009846999999993
  0
ARC
  5
25F
  8
_________1
 62
     7
 10
113.97541699999999
 20
200.579464
 30
0.0
 40
1.0002040000000001
 50
269.98521899999997
 51
359.98518899999999
  0
ARC
  5
260
  8
_________1
 62
     7
 10
114.013801
 20
200.61766900000001
 30
0.0
 40
1.0391269999999999
 50
182.121296
 51
267.86886299999998
  0
ARC
  5
261
  8
_________1
 62
     7
 10
111.013955
 20
201.373954
 30
0.0
 40
1.0392950000000001
 50
92.139744999999991
 51
177.87009599999999
  0
ARC
  5
262
  8
_________1
 62
     7
 10
110.975409
 20
201.41232099999999
 30
0.0
 40
1.0002040000000001
 50
0.014811
 51
90.014780999999985
  0
ARC
  5
263
  8
_________1
 62
     7
 10
110.975409
 20
201.41283799999999
 30
0.0
 40
1.0002040000000001
 50
269.98521899999997
 51
359.98518899999999
  0
ARC
  5
264
  8
_________1
 62
     7
 10
111.01379300000001
 20
201.451043
 30
0.0
 40
1.0391269999999999
 50
182.121296
 51
267.86886299999998
  0
ARC
  5
265
  8
_________1
 62
     7
 10
110.64218
 20
203.91235699999999
 30
0.0
 40
1.000289999999999
 50
89.990132999999986
 51
179.990104
  0
ARC
  5
266
  8
_________1
 62
     7
 10
110.60369799999999
 20
203.874233
 30
0.0
 40
1.0391330000000001
 50
2.1120659999999991
 51
87.868183999999985
  0
ARC
  5
267
  8
_________1
 62
     7
 10
110.603548
 20
203.951154
 30
0.0
 40
1.0392950000000001
 50
272.13976500000001
 51
357.870116
  0
ARC
  5
268
  8
_________1
 62
     7
 10
110.642094
 20
203.91278700000001
 30
0.0
 40
1.0002040000000001
 50
180.01481100000001
 51
270.01482099999998
  0
ARC
  5
269
  8
_________1
 62
     7
 10
111.013955
 20
206.37402499999999
 30
0.0
 40
1.0392950000000001
 50
92.139744999999991
 51
177.87009599999999
  0
ARC
  5
26A
  8
_________1
 62
     7
 10
110.975409
 20
206.41239200000001
 30
0.0
 40
1.0002040000000001
 50
0.014811
 51
90.014780999999985
  0
ARC
  5
26B
  8
_________1
 62
     7
 10
110.975323
 20
206.412823
 30
0.0
 40
1.000289999999999
 50
269.99015299999991
 51
359.99012299999998
  0
ARC
  5
26C
  8
_________1
 62
     7
 10
111.013805
 20
206.45094700000001
 30
0.0
 40
1.0391330000000001
 50
182.11206799999999
 51
267.86822100000001
  0
ARC
  5
26D
  8
_________1
 62
     7
 10
112.032788
 20
209.35548399999999
 30
0.0
 40
1.5582279999999999
 50
92.102779999999996
 51
177.89718999999999
  0
ARC
  5
26E
  8
_________1
 62
     7
 10
111.917653
 20
209.35469900000001
 30
0.0
 40
1.5590419999999989
 50
2.130561999999999
 51
87.869427999999999
  0
ARC
  5
26F
  8
_________1
 62
     7
 10
111.918457
 20
209.46981500000001
 30
0.0
 40
1.5582089999999991
 50
272.10212000000001
 51
357.89789000000002
  0
ARC
  5
270
  8
_________1
 62
     7
 10
112.033573
 20
209.470619
 30
0.0
 40
1.5590419999999989
 50
182.13058100000001
 51
267.86944799999998
  0
ARC
  5
271
  8
_________1
 62
     7
 10
113.91798300000001
 20
203.969705
 30
0.0
 40
1.5582290000000001
 50
272.10281700000002
 51
357.89719300000002
  0
ARC
  5
272
  8
_________1
 62
     7
 10
114.033119
 20
203.97048899999999
 30
0.0
 40
1.5590419999999989
 50
182.13058100000001
 51
267.86944799999998
  0
ARC
  5
273
  8
_________1
 62
     7
 10
114.03233400000001
 20
205.18878699999999
 30
0.0
 40
1.5582279999999999
 50
92.102779999999996
 51
177.89718999999999
  0
ARC
  5
274
  8
_________1
 62
     7
 10
113.917219
 20
205.18802199999999
 30
0.0
 40
1.5590209999999991
 50
2.1298330000000001
 51
87.870156999999992
  0
LINE
  5
275
  8
_________1
 62
     7
 10
147.309
 20
199.07900000000001
 30
0.0
 11
145.97499999999999
 21
199.07900000000001
 31
0.0
  0
LINE
  5
276
  8
_________1
 62
     7
 10
147.309
 20
202.07900000000001
 30
0.0
 11
145.97499999999999
 21
202.07900000000001
 31
0.0
  0
ARC
  5
277
  8
_________1
 62
     7
 10
149.808943
 20
197.57945599999999
 30
0.0
 40
1.0002040000000001
 50
180.01481100000001
 51
270.01482099999998
  0
ARC
  5
278
  8
_________1
 62
     7
 10
149.80903000000001
 20
197.579025
 30
0.0
 40
1.000289999999999
 50
89.990132999999986
 51
179.990104
  0
ARC
  5
279
  8
_________1
 62
     7
 10
149.77054799999999
 20
197.54090099999999
 30
0.0
 40
1.0391330000000001
 50
2.1120659999999991
 51
87.868183999999985
  0
ARC
  5
27A
  8
_________1
 62
     7
 10
149.770397
 20
197.61782299999999
 30
0.0
 40
1.0392950000000001
 50
272.13976500000001
 51
357.870116
  0
ARC
  5
27B
  8
_________1
 62
     7
 10
147.34737799999999
 20
197.284346
 30
0.0
 40
1.0391269999999999
 50
182.121296
 51
267.86886299999998
  0
ARC
  5
27C
  8
_________1
 62
     7
 10
147.34754000000001
 20
197.207257
 30
0.0
 40
1.0392950000000001
 50
92.139744999999991
 51
177.87009599999999
  0
ARC
  5
27D
  8
_________1
 62
     7
 10
147.30899400000001
 20
197.24562399999991
 30
0.0
 40
1.0002040000000001
 50
0.014811
 51
90.014780999999985
  0
ARC
  5
27E
  8
_________1
 62
     7
 10
147.30899400000001
 20
197.24614099999999
 30
0.0
 40
1.0002040000000001
 50
269.98521899999997
 51
359.98518899999999
  0
ARC
  5
27F
  8
_________1
 62
     7
 10
144.84759
 20
197.61765
 30
0.0
 40
1.039115999999999
 50
182.12074899999999
 51
267.86941000000002
  0
ARC
  5
280
  8
_________1
 62
     7
 10
144.847937
 20
197.54057700000001
 30
0.0
 40
1.0394699999999999
 50
92.149011000000002
 51
177.870699
  0
ARC
  5
281
  8
_________1
 62
     7
 10
144.77031500000001
 20
197.54091199999999
 30
0.0
 40
1.039121999999999
 50
2.111518999999999
 51
87.868731000000011
  0
ARC
  5
282
  8
_________1
 62
     7
 10
144.77015399999999
 20
197.61782299999999
 30
0.0
 40
1.0392950000000001
 50
272.13976500000001
 51
357.870116
  0
ARC
  5
283
  8
_________1
 62
     7
 10
141.86690999999999
 20
198.63727499999999
 30
0.0
 40
1.5590419999999989
 50
182.13058100000001
 51
267.86944799999998
  0
ARC
  5
284
  8
_________1
 62
     7
 10
141.86612500000001
 20
198.52214000000001
 30
0.0
 40
1.5582279999999999
 50
92.102779999999996
 51
177.89718999999999
  0
ARC
  5
285
  8
_________1
 62
     7
 10
141.75099
 20
198.521355
 30
0.0
 40
1.5590419999999989
 50
2.130561999999999
 51
87.869427999999999
  0
ARC
  5
286
  8
_________1
 62
     7
 10
141.75177500000001
 20
198.63649099999989
 30
0.0
 40
1.5582290000000001
 50
272.10281700000002
 51
357.89719300000002
  0
ARC
  5
287
  8
_________1
 62
     7
 10
147.25079600000001
 20
200.521266
 30
0.0
 40
1.5590209999999991
 50
2.1298330000000001
 51
87.870156999999992
  0
ARC
  5
288
  8
_________1
 62
     7
 10
147.25156000000001
 20
200.636381
 30
0.0
 40
1.5582290000000001
 50
272.10281700000002
 51
357.89719300000002
  0
ARC
  5
289
  8
_________1
 62
     7
 10
146.033435
 20
200.63716600000001
 30
0.0
 40
1.5590419999999989
 50
182.13058100000001
 51
267.86944799999998
  0
ARC
  5
28A
  8
_________1
 62
     7
 10
146.03263100000001
 20
200.52205000000001
 30
0.0
 40
1.558208
 50
92.102082999999993
 51
177.89788799999999
  0
LINE
  5
28B
  8
_________1
 62
     7
 10
152.142
 20
203.91300000000001
 30
0.0
 11
152.142
 21
205.24600000000001
 31
0.0
  0
LINE
  5
28C
  8
_________1
 62
     7
 10
149.142
 20
203.91300000000001
 30
0.0
 11
149.142
 21
205.24600000000001
 31
0.0
  0
ARC
  5
28D
  8
_________1
 62
     7
 10
152.603487
 20
198.54052200000001
 30
0.0
 40
1.0394699999999999
 50
2.1292810000000002
 51
87.850968999999992
  0
ARC
  5
28E
  8
_________1
 62
     7
 10
152.64229399999999
 20
198.578971
 30
0.0
 40
1.000289999999999
 50
89.990132999999986
 51
179.990104
  0
ARC
  5
28F
  8
_________1
 62
     7
 10
152.64220800000001
 20
198.57940099999999
 30
0.0
 40
1.0002040000000001
 50
180.01481100000001
 51
270.01482099999998
  0
ARC
  5
290
  8
_________1
 62
     7
 10
152.603824
 20
198.61760599999999
 30
0.0
 40
1.0391269999999999
 50
272.13115699999997
 51
357.87872399999998
  0
ARC
  5
291
  8
_________1
 62
     7
 10
150.603252
 20
200.54058499999999
 30
0.0
 40
1.0394699999999999
 50
2.1292810000000002
 51
87.850968999999992
  0
ARC
  5
292
  8
_________1
 62
     7
 10
150.68088499999999
 20
200.54091
 30
0.0
 40
1.0391330000000001
 50
92.131778999999995
 51
177.88793200000001
  0
ARC
  5
293
  8
_________1
 62
     7
 10
150.68103500000001
 20
200.617831
 30
0.0
 40
1.0392950000000001
 50
182.12990400000001
 51
267.860255
  0
ARC
  5
294
  8
_________1
 62
     7
 10
150.603599
 20
200.617659
 30
0.0
 40
1.039115999999999
 50
272.13060999999999
 51
357.87927100000002
  0
ARC
  5
295
  8
_________1
 62
     7
 10
153.60343499999999
 20
201.373954
 30
0.0
 40
1.0392950000000001
 50
2.1298840000000001
 51
87.860235000000003
  0
ARC
  5
296
  8
_________1
 62
     7
 10
153.680881
 20
201.37411700000001
 30
0.0
 40
1.0391269999999999
 50
92.131136999999995
 51
177.878704
  0
ARC
  5
297
  8
_________1
 62
     7
 10
153.68104299999999
 20
201.45120499999999
 30
0.0
 40
1.0392950000000001
 50
182.12990400000001
 51
267.860255
  0
ARC
  5
298
  8
_________1
 62
     7
 10
153.60360700000001
 20
201.451032
 30
0.0
 40
1.039115999999999
 50
272.13060999999999
 51
357.87927100000002
  0
ARC
  5
299
  8
_________1
 62
     7
 10
153.93674799999999
 20
203.873908
 30
0.0
 40
1.0394699999999999
 50
2.1292810000000002
 51
87.850968999999992
  0
ARC
  5
29A
  8
_________1
 62
     7
 10
154.0143699999999
 20
203.87424300000001
 30
0.0
 40
1.039121999999999
 50
92.131232000000011
 51
177.88847799999999
  0
ARC
  5
29B
  8
_________1
 62
     7
 10
154.01453100000001
 20
203.951154
 30
0.0
 40
1.0392950000000001
 50
182.12990400000001
 51
267.860255
  0
ARC
  5
29C
  8
_________1
 62
     7
 10
153.937085
 20
203.95099200000001
 30
0.0
 40
1.0391269999999999
 50
272.13115699999997
 51
357.87872399999998
  0
ARC
  5
29D
  8
_________1
 62
     7
 10
153.60343499999999
 20
206.37402499999999
 30
0.0
 40
1.0392950000000001
 50
2.1298840000000001
 51
87.860235000000003
  0
ARC
  5
29E
  8
_________1
 62
     7
 10
153.680881
 20
206.374188
 30
0.0
 40
1.0391269999999999
 50
92.131136999999995
 51
177.878704
  0
ARC
  5
29F
  8
_________1
 62
     7
 10
153.681218
 20
206.45127099999999
 30
0.0
 40
1.0394699999999999
 50
182.129301
 51
267.85098900000003
  0
ARC
  5
2A0
  8
_________1
 62
     7
 10
153.60359500000001
 20
206.45093700000001
 30
0.0
 40
1.039121999999999
 50
272.13126899999997
 51
357.88848100000001
  0
ARC
  5
2A1
  8
_________1
 62
     7
 10
152.58529100000001
 20
209.35548299999999
 30
0.0
 40
1.5582290000000001
 50
2.102806999999999
 51
87.897182999999998
  0
ARC
  5
2A2
  8
_________1
 62
     7
 10
152.70040599999999
 20
209.35471899999999
 30
0.0
 40
1.5590209999999991
 50
92.129823000000002
 51
177.870147
  0
ARC
  5
2A3
  8
_________1
 62
     7
 10
152.69962200000001
 20
209.46981400000001
 30
0.0
 40
1.558208
 50
182.10211200000001
 51
267.89791700000001
  0
ARC
  5
2A4
  8
_________1
 62
     7
 10
152.584506
 20
209.470619
 30
0.0
 40
1.5590419999999989
 50
272.13057199999997
 51
357.869438
  0
ARC
  5
2A5
  8
_________1
 62
     7
 10
150.69940600000001
 20
203.96970400000001
 30
0.0
 40
1.5582279999999999
 50
182.10281000000001
 51
267.89722
  0
ARC
  5
2A6
  8
_________1
 62
     7
 10
150.584271
 20
203.97048899999999
 30
0.0
 40
1.5590419999999989
 50
272.13057199999997
 51
357.869438
  0
ARC
  5
2A7
  8
_________1
 62
     7
 10
150.58505500000001
 20
205.18878599999999
 30
0.0
 40
1.5582290000000001
 50
2.102806999999999
 51
87.897182999999998
  0
ARC
  5
2A8
  8
_________1
 62
     7
 10
150.70019099999999
 20
205.18800200000001
 30
0.0
 40
1.5590419999999989
 50
92.130552000000009
 51
177.86941899999999
  0
LINE
  5
2A9
  8
_________1
 62
     7
 10
117.309
 20
238.74600000000001
 30
0.0
 11
118.642
 21
238.74600000000001
 31
0.0
  0
LINE
  5
2AA
  8
_________1
 62
     7
 10
117.309
 20
235.74600000000001
 30
0.0
 11
118.642
 21
235.74600000000001
 31
0.0
  0
ARC
  5
2AB
  8
_________1
 62
     7
 10
114.770235
 20
240.207651
 30
0.0
 40
1.0391269999999999
 50
2.1212759999999991
 51
87.868842999999998
  0
ARC
  5
2AC
  8
_________1
 62
     7
 10
114.770073
 20
240.284739
 30
0.0
 40
1.0392950000000001
 50
272.13976500000001
 51
357.870116
  0
ARC
  5
2AD
  8
_________1
 62
     7
 10
114.847509
 20
240.28456600000001
 30
0.0
 40
1.039115999999999
 50
182.12074899999999
 51
267.86941000000002
  0
ARC
  5
2AE
  8
_________1
 62
     7
 10
114.84768200000001
 20
240.20748800000001
 30
0.0
 40
1.0392950000000001
 50
92.139744999999991
 51
177.87009599999999
  0
ARC
  5
2AF
  8
_________1
 62
     7
 10
117.30882699999999
 20
240.57925599999999
 30
0.0
 40
1.000289999999999
 50
0.009877
 51
90.009846999999993
  0
ARC
  5
2B0
  8
_________1
 62
     7
 10
117.308913
 20
240.57968700000001
 30
0.0
 40
1.0002040000000001
 50
269.98521899999997
 51
359.98518899999999
  0
ARC
  5
2B1
  8
_________1
 62
     7
 10
117.347296
 20
240.61789200000001
 30
0.0
 40
1.0391269999999999
 50
182.121296
 51
267.86886299999998
  0
ARC
  5
2B2
  8
_________1
 62
     7
 10
117.347633
 20
240.540808
 30
0.0
 40
1.0394699999999999
 50
92.149011000000002
 51
177.870699
  0
ARC
  5
2B3
  8
_________1
 62
     7
 10
119.77047899999999
 20
240.207651
 30
0.0
 40
1.0391269999999999
 50
2.1212759999999991
 51
87.868842999999998
  0
ARC
  5
2B4
  8
_________1
 62
     7
 10
119.77031599999999
 20
240.284739
 30
0.0
 40
1.0392950000000001
 50
272.13976500000001
 51
357.870116
  0
ARC
  5
2B5
  8
_________1
 62
     7
 10
119.808862
 20
240.24637200000001
 30
0.0
 40
1.0002040000000001
 50
180.01481100000001
 51
270.01482099999998
  0
ARC
  5
2B6
  8
_________1
 62
     7
 10
119.808862
 20
240.24585500000001
 30
0.0
 40
1.0002040000000001
 50
89.985198999999994
 51
179.98516900000001
  0
ARC
  5
2B7
  8
_________1
 62
     7
 10
122.751169
 20
239.188208
 30
0.0
 40
1.5590419999999989
 50
2.130561999999999
 51
87.869427999999999
  0
ARC
  5
2B8
  8
_________1
 62
     7
 10
122.75197300000001
 20
239.303324
 30
0.0
 40
1.5582089999999991
 50
272.10212000000001
 51
357.89789000000002
  0
ARC
  5
2B9
  8
_________1
 62
     7
 10
122.867068
 20
239.30410800000001
 30
0.0
 40
1.5590209999999991
 50
182.129853
 51
267.87017700000013
  0
ARC
  5
2BA
  8
_________1
 62
     7
 10
122.866304
 20
239.18899300000001
 30
0.0
 40
1.5582279999999999
 50
92.102779999999996
 51
177.89718999999999
  0
ARC
  5
2BB
  8
_________1
 62
     7
 10
117.366615
 20
237.30406600000001
 30
0.0
 40
1.5590419999999989
 50
182.13058100000001
 51
267.86944799999998
  0
ARC
  5
2BC
  8
_________1
 62
     7
 10
117.36583
 20
237.188931
 30
0.0
 40
1.5582279999999999
 50
92.102779999999996
 51
177.89718999999999
  0
ARC
  5
2BD
  8
_________1
 62
     7
 10
118.583975
 20
237.188166
 30
0.0
 40
1.5590209999999991
 50
2.1298330000000001
 51
87.870156999999992
  0
ARC
  5
2BE
  8
_________1
 62
     7
 10
118.584739
 20
237.303281
 30
0.0
 40
1.5582290000000001
 50
272.10281700000002
 51
357.89719300000002
  0
LINE
  5
2BF
  8
_________1
 62
     7
 10
112.47499999999999
 20
233.91300000000001
 30
0.0
 11
112.47499999999999
 21
232.58000000000001
 31
0.0
  0
LINE
  5
2C0
  8
_________1
 62
     7
 10
115.47499999999999
 20
233.91300000000001
 30
0.0
 11
115.47499999999999
 21
232.58000000000001
 31
0.0
  0
ARC
  5
2C1
  8
_________1
 62
     7
 10
111.975354
 20
239.24642700000001
 30
0.0
 40
1.0002040000000001
 50
180.01481100000001
 51
270.01482099999998
  0
ARC
  5
2C2
  8
_________1
 62
     7
 10
111.936971
 20
239.28463199999999
 30
0.0
 40
1.0391269999999999
 50
272.13115699999997
 51
357.87872399999998
  0
ARC
  5
2C3
  8
_________1
 62
     7
 10
111.936809
 20
239.20754299999999
 30
0.0
 40
1.0392950000000001
 50
2.1298840000000001
 51
87.860235000000003
  0
ARC
  5
2C4
  8
_________1
 62
     7
 10
111.97535499999999
 20
239.24591000000001
 30
0.0
 40
1.0002040000000001
 50
89.985198999999994
 51
179.98516900000001
  0
ARC
  5
2C5
  8
_________1
 62
     7
 10
114.013963
 20
237.28473099999999
 30
0.0
 40
1.0392950000000001
 50
182.12990400000001
 51
267.860255
  0
ARC
  5
2C6
  8
_________1
 62
     7
 10
113.97541699999999
 20
237.246364
 30
0.0
 40
1.0002040000000001
 50
269.98521899999997
 51
359.98518899999999
  0
ARC
  5
2C7
  8
_________1
 62
     7
 10
113.937022
 20
237.20743200000001
 30
0.0
 40
1.0393190000000001
 50
2.1325199999999991
 51
87.897071999999994
  0
ARC
  5
2C8
  8
_________1
 62
     7
 10
114.013801
 20
237.20764299999999
 30
0.0
 40
1.0391269999999999
 50
92.131136999999995
 51
177.878704
  0
ARC
  5
2C9
  8
_________1
 62
     7
 10
111.013955
 20
236.451357
 30
0.0
 40
1.0392950000000001
 50
182.12990400000001
 51
267.860255
  0
ARC
  5
2CA
  8
_________1
 62
     7
 10
110.975409
 20
236.41299000000001
 30
0.0
 40
1.0002040000000001
 50
269.98521899999997
 51
359.98518899999999
  0
ARC
  5
2CB
  8
_________1
 62
     7
 10
110.975323
 20
236.41255899999999
 30
0.0
 40
1.000289999999999
 50
0.009877
 51
90.009846999999993
  0
ARC
  5
2CC
  8
_________1
 62
     7
 10
111.013805
 20
236.374436
 30
0.0
 40
1.0391330000000001
 50
92.131778999999995
 51
177.88793200000001
  0
ARC
  5
2CD
  8
_________1
 62
     7
 10
110.642094
 20
233.91304099999999
 30
0.0
 40
1.0002040000000001
 50
180.01481100000001
 51
270.01482099999998
  0
ARC
  5
2CE
  8
_________1
 62
     7
 10
110.603711
 20
233.951245
 30
0.0
 40
1.0391269999999999
 50
272.13115699999997
 51
357.87872399999998
  0
ARC
  5
2CF
  8
_________1
 62
     7
 10
110.603548
 20
233.874157
 30
0.0
 40
1.0392950000000001
 50
2.1298840000000001
 51
87.860235000000003
  0
ARC
  5
2D0
  8
_________1
 62
     7
 10
110.642094
 20
233.91252399999999
 30
0.0
 40
1.0002040000000001
 50
89.985198999999994
 51
179.98516900000001
  0
ARC
  5
2D1
  8
_________1
 62
     7
 10
111.01412999999999
 20
231.45145400000001
 30
0.0
 40
1.0394699999999999
 50
182.129301
 51
267.85098900000003
  0
ARC
  5
2D2
  8
_________1
 62
     7
 10
110.975323
 20
231.413005
 30
0.0
 40
1.000289999999999
 50
269.99015299999991
 51
359.99012299999998
  0
ARC
  5
2D3
  8
_________1
 62
     7
 10
110.975409
 20
231.41257400000009
 30
0.0
 40
1.0002040000000001
 50
0.014811
 51
90.014780999999985
  0
ARC
  5
2D4
  8
_________1
 62
     7
 10
111.01379300000001
 20
231.37437
 30
0.0
 40
1.0391269999999999
 50
92.131136999999995
 51
177.878704
  0
ARC
  5
2D5
  8
_________1
 62
     7
 10
112.032768
 20
228.46997999999999
 30
0.0
 40
1.558208
 50
182.10211200000001
 51
267.89791700000001
  0
ARC
  5
2D6
  8
_________1
 62
     7
 10
111.917653
 20
228.47078500000001
 30
0.0
 40
1.5590419999999989
 50
272.13057199999997
 51
357.869438
  0
ARC
  5
2D7
  8
_________1
 62
     7
 10
111.918437
 20
228.355649
 30
0.0
 40
1.5582290000000001
 50
2.102806999999999
 51
87.897182999999998
  0
ARC
  5
2D8
  8
_________1
 62
     7
 10
112.033573
 20
228.35486499999999
 30
0.0
 40
1.5590419999999989
 50
92.130552000000009
 51
177.86941899999999
  0
ARC
  5
2D9
  8
_________1
 62
     7
 10
113.918003
 20
233.855627
 30
0.0
 40
1.5582089999999991
 50
2.1021099999999988
 51
87.897879999999986
  0
ARC
  5
2DA
  8
_________1
 62
     7
 10
114.033119
 20
233.85482200000001
 30
0.0
 40
1.5590419999999989
 50
92.130552000000009
 51
177.86941899999999
  0
ARC
  5
2DB
  8
_________1
 62
     7
 10
114.032314
 20
232.63667699999999
 30
0.0
 40
1.558208
 50
182.10211200000001
 51
267.89791700000001
  0
ARC
  5
2DC
  8
_________1
 62
     7
 10
113.917219
 20
232.637462
 30
0.0
 40
1.5590209999999991
 50
272.12984299999999
 51
357.87016699999998
  0
LINE
  5
2DD
  8
_________1
 62
     7
 10
147.309
 20
238.74600000000001
 30
0.0
 11
145.97499999999999
 21
238.74600000000001
 31
0.0
  0
LINE
  5
2DE
  8
_________1
 62
     7
 10
147.309
 20
235.74600000000001
 30
0.0
 11
145.97499999999999
 21
235.74600000000001
 31
0.0
  0
ARC
  5
2DF
  8
_________1
 62
     7
 10
149.808943
 20
240.24585500000001
 30
0.0
 40
1.0002040000000001
 50
89.985198999999994
 51
179.98516900000001
  0
ARC
  5
2E0
  8
_________1
 62
     7
 10
149.808943
 20
240.24637200000001
 30
0.0
 40
1.0002040000000001
 50
180.01481100000001
 51
270.01482099999998
  0
ARC
  5
2E1
  8
_________1
 62
     7
 10
149.77055999999999
 20
240.28457700000001
 30
0.0
 40
1.0391269999999999
 50
272.13115699999997
 51
357.87872399999998
  0
ARC
  5
2E2
  8
_________1
 62
     7
 10
149.770397
 20
240.20748800000001
 30
0.0
 40
1.0392950000000001
 50
2.1298840000000001
 51
87.860235000000003
  0
ARC
  5
2E3
  8
_________1
 62
     7
 10
147.34738899999999
 20
240.541133
 30
0.0
 40
1.0391330000000001
 50
92.131778999999995
 51
177.88793200000001
  0
ARC
  5
2E4
  8
_________1
 62
     7
 10
147.34754000000001
 20
240.618054
 30
0.0
 40
1.0392950000000001
 50
182.12990400000001
 51
267.860255
  0
ARC
  5
2E5
  8
_________1
 62
     7
 10
147.30899400000001
 20
240.57968700000001
 30
0.0
 40
1.0002040000000001
 50
269.98521899999997
 51
359.98518899999999
  0
ARC
  5
2E6
  8
_________1
 62
     7
 10
147.308908
 20
240.57925599999999
 30
0.0
 40
1.000289999999999
 50
0.009877
 51
90.009846999999993
  0
ARC
  5
2E7
  8
_________1
 62
     7
 10
144.84759
 20
240.207661
 30
0.0
 40
1.039115999999999
 50
92.130589999999984
 51
177.87925100000001
  0
ARC
  5
2E8
  8
_________1
 62
     7
 10
144.84776299999999
 20
240.284739
 30
0.0
 40
1.0392950000000001
 50
182.12990400000001
 51
267.860255
  0
ARC
  5
2E9
  8
_________1
 62
     7
 10
144.77032700000001
 20
240.28456600000001
 30
0.0
 40
1.039115999999999
 50
272.13060999999999
 51
357.87927100000002
  0
ARC
  5
2EA
  8
_________1
 62
     7
 10
144.77015399999999
 20
240.20748800000001
 30
0.0
 40
1.0392950000000001
 50
2.1298840000000001
 51
87.860235000000003
  0
ARC
  5
2EB
  8
_________1
 62
     7
 10
141.86690999999999
 20
239.188208
 30
0.0
 40
1.5590419999999989
 50
92.130552000000009
 51
177.86941899999999
  0
ARC
  5
2EC
  8
_________1
 62
     7
 10
141.866106
 20
239.303324
 30
0.0
 40
1.558208
 50
182.10211200000001
 51
267.89791700000001
  0
ARC
  5
2ED
  8
_________1
 62
     7
 10
141.75099
 20
239.30412899999999
 30
0.0
 40
1.5590419999999989
 50
272.13057199999997
 51
357.869438
  0
ARC
  5
2EE
  8
_________1
 62
     7
 10
141.75177500000001
 20
239.18899300000001
 30
0.0
 40
1.5582290000000001
 50
2.102806999999999
 51
87.897182999999998
  0
ARC
  5
2EF
  8
_________1
 62
     7
 10
147.25079600000001
 20
237.304045
 30
0.0
 40
1.5590209999999991
 50
272.12984299999999
 51
357.87016699999998
  0
ARC
  5
2F0
  8
_________1
 62
     7
 10
147.25156000000001
 20
237.18893
 30
0.0
 40
1.5582290000000001
 50
2.102806999999999
 51
87.897182999999998
  0
ARC
  5
2F1
  8
_________1
 62
     7
 10
146.033435
 20
237.18814499999999
 30
0.0
 40
1.5590419999999989
 50
92.130552000000009
 51
177.86941899999999
  0
ARC
  5
2F2
  8
_________1
 62
     7
 10
146.03264999999999
 20
237.303281
 30
0.0
 40
1.5582279999999999
 50
182.10281000000001
 51
267.89722
  0
ARC
  5
2F3
  8
_________1
 62
     7
 10
132.275632
 20
218.92998900000001
 30
0.0
 40
21.700102000000001
 50
359.95446199999998
 51
13.17531
  0
ARC
  5
2F4
  8
_________1
 62
     7
 10
132.118268
 20
218.91308799999999
 30
0.0
 40
21.857458000000001
 50
346.87249000000003
 51
359.99909300000002
  0
ARC
  5
2F5
  8
_________1
 62
     7
 10
132.32765699999999
 20
218.934057
 30
0.0
 40
21.688182000000001
 50
269.94991599999997
 51
283.17897299999998
  0
ARC
  5
2F6
  8
_________1
 62
     7
 10
132.31496100000001
 20
219.15328700000001
 30
0.0
 40
21.907405000000001
 50
256.88752799999997
 51
269.98362300000002
  0
ARC
  5
2F7
  8
_________1
 62
     7
 10
132.34242900000001
 20
218.894463
 30
0.0
 40
21.700084
 50
179.951717
 51
193.17534499999999
  0
ARC
  5
2F8
  8
_________1
 62
     7
 10
132.49823799999999
 20
218.91240500000001
 30
0.0
 40
21.855886000000002
 50
166.871996
 51
179.99909600000001
  0
ARC
  5
2F9
  8
_________1
 62
     7
 10
132.29121599999999
 20
218.88473200000001
 30
0.0
 40
21.694704000000002
 50
89.953828999999999
 51
103.178944
  0
ARC
  5
2FA
  8
_________1
 62
     7
 10
132.30242899999999
 20
218.67202499999999
 30
0.0
 40
21.907405000000001
 50
76.887507999999997
 51
89.983602999999988
  0
LINE
  5
2FB
  8
_________1
 62
     7
 10
152.142
 20
233.91300000000001
 30
0.0
 11
152.142
 21
232.58000000000001
 31
0.0
  0
LINE
  5
2FC
  8
_________1
 62
     7
 10
149.142
 20
233.91300000000001
 30
0.0
 11
149.142
 21
232.58000000000001
 31
0.0
  0
ARC
  5
2FD
  8
_________1
 62
     7
 10
152.60366200000001
 20
239.28479400000001
 30
0.0
 40
1.0392950000000001
 50
272.13976500000001
 51
357.870116
  0
ARC
  5
2FE
  8
_________1
 62
     7
 10
152.64220800000001
 20
239.24642700000001
 30
0.0
 40
1.0002040000000001
 50
180.01481100000001
 51
270.01482099999998
  0
ARC
  5
2FF
  8
_________1
 62
     7
 10
152.64220800000001
 20
239.24591000000001
 30
0.0
 40
1.0002040000000001
 50
89.985198999999994
 51
179.98516900000001
  0
ARC
  5
300
  8
_________1
 62
     7
 10
152.603824
 20
239.207705
 30
0.0
 40
1.0391269999999999
 50
2.1212759999999991
 51
87.868842999999998
  0
ARC
  5
301
  8
_________1
 62
     7
 10
150.60342700000001
 20
237.28473099999999
 30
0.0
 40
1.0392950000000001
 50
272.13976500000001
 51
357.870116
  0
ARC
  5
302
  8
_________1
 62
     7
 10
150.68087299999999
 20
237.284569
 30
0.0
 40
1.0391269999999999
 50
182.121296
 51
267.86886299999998
  0
ARC
  5
303
  8
_________1
 62
     7
 10
150.68103500000001
 20
237.20748
 30
0.0
 40
1.0392950000000001
 50
92.139744999999991
 51
177.87009599999999
  0
ARC
  5
304
  8
_________1
 62
     7
 10
150.603599
 20
237.20765299999999
 30
0.0
 40
1.039115999999999
 50
2.1207289999999999
 51
87.869389999999996
  0
ARC
  5
305
  8
_________1
 62
     7
 10
153.60343499999999
 20
236.451357
 30
0.0
 40
1.0392950000000001
 50
272.13976500000001
 51
357.870116
  0
ARC
  5
306
  8
_________1
 62
     7
 10
153.680881
 20
236.45119500000001
 30
0.0
 40
1.0391269999999999
 50
182.121296
 51
267.86886299999998
  0
ARC
  5
307
  8
_________1
 62
     7
 10
153.681218
 20
236.374111
 30
0.0
 40
1.0394699999999999
 50
92.149011000000002
 51
177.870699
  0
ARC
  5
308
  8
_________1
 62
     7
 10
153.60359500000001
 20
236.37444600000001
 30
0.0
 40
1.039121999999999
 50
2.111518999999999
 51
87.868731000000011
  0
ARC
  5
309
  8
_________1
 62
     7
 10
153.93692200000001
 20
233.95140799999999
 30
0.0
 40
1.0392950000000001
 50
272.13976500000001
 51
357.870116
  0
ARC
  5
30A
  8
_________1
 62
     7
 10
154.01435799999999
 20
233.951235
 30
0.0
 40
1.039115999999999
 50
182.12074899999999
 51
267.86941000000002
  0
ARC
  5
30B
  8
_________1
 62
     7
 10
154.01453100000001
 20
233.874157
 30
0.0
 40
1.0392950000000001
 50
92.139744999999991
 51
177.87009599999999
  0
ARC
  5
30C
  8
_________1
 62
     7
 10
153.937085
 20
233.87431900000001
 30
0.0
 40
1.0391269999999999
 50
2.1212759999999991
 51
87.868842999999998
  0
ARC
  5
30D
  8
_________1
 62
     7
 10
153.60326000000001
 20
231.45145400000001
 30
0.0
 40
1.0394699999999999
 50
272.14903099999998
 51
357.87071900000001
  0
ARC
  5
30E
  8
_________1
 62
     7
 10
153.680893
 20
231.45112900000001
 30
0.0
 40
1.0391330000000001
 50
182.11206799999999
 51
267.86822100000001
  0
ARC
  5
30F
  8
_________1
 62
     7
 10
153.68104299999999
 20
231.37420800000001
 30
0.0
 40
1.0392950000000001
 50
92.139744999999991
 51
177.87009599999999
  0
ARC
  5
310
  8
_________1
 62
     7
 10
153.60360700000001
 20
231.37438
 30
0.0
 40
1.039115999999999
 50
2.1207289999999999
 51
87.869389999999996
  0
ARC
  5
311
  8
_________1
 62
     7
 10
152.58530999999999
 20
228.46998099999999
 30
0.0
 40
1.5582089999999991
 50
272.10212000000001
 51
357.89789000000002
  0
ARC
  5
312
  8
_________1
 62
     7
 10
152.70040599999999
 20
228.470764
 30
0.0
 40
1.5590209999999991
 50
182.129853
 51
267.87017700000013
  0
ARC
  5
313
  8
_________1
 62
     7
 10
152.69964100000001
 20
228.35565
 30
0.0
 40
1.5582279999999999
 50
92.102779999999996
 51
177.89718999999999
  0
ARC
  5
314
  8
_________1
 62
     7
 10
152.584506
 20
228.35486499999999
 30
0.0
 40
1.5590419999999989
 50
2.130561999999999
 51
87.869427999999999
  0
ARC
  5
315
  8
_________1
 62
     7
 10
150.699386
 20
233.855627
 30
0.0
 40
1.558208
 50
92.102082999999993
 51
177.89788799999999
  0
ARC
  5
316
  8
_________1
 62
     7
 10
150.584271
 20
233.85482200000001
 30
0.0
 40
1.5590419999999989
 50
2.130561999999999
 51
87.869427999999999
  0
ARC
  5
317
  8
_________1
 62
     7
 10
150.58507499999999
 20
232.63667799999999
 30
0.0
 40
1.5582089999999991
 50
272.10212000000001
 51
357.89789000000002
  0
ARC
  5
318
  8
_________1
 62
     7
 10
150.70019099999999
 20
232.63748200000001
 30
0.0
 40
1.5590419999999989
 50
182.13058100000001
 51
267.86944799999998
  0
ARC
  5
319
  8
_________1
 62
     7
 10
132.30877799999999
 20
218.91283100000001
 30
0.0
 40
20.333689
 50
269.99977699999999
 51
359.99974700000001
  0
ARC
  5
31A
  8
_________1
 62
     7
 10
132.30895000000001
 20
218.91247999999999
 30
0.0
 40
20.333337
 50
179.99924200000001
 51
269.99929200000003
  0
ARC
  5
31B
  8
_________1
 62
     7
 10
132.30887100000001
 20
218.91291100000001
 30
0.0
 40
20.333258000000001
 50
90.000484999999998
 51
180.000495
  0
ARC
  5
31C
  8
_________1
 62
     7
 10
132.308864
 20
218.912566
 30
0.0
 40
20.333601999999999
 50
0.000495
 51
90.000466000000017
  0
LINE
  5
31D
  8
_________1
  6
AIGENLINE001
 62
     7
 10
132.309
 20
255.80600000000001
 30
0.0
 11
132.309
 21
247.45599999999999
 31
0.0
  0
LINE
  5
31E
  8
_________1
  6
AIGENLINE001
 62
     7
 10
132.309
 20
244.31
 30
0.0
 11
132.309
 21
194.327
 31
0.0
  0
LINE
  5
31F
  8
_________1
  6
AIGENLINE001
 62
     7
 10
107.34099999999999
 20
218.91200000000001
 30
0.0
 11
157.07599999999999
 21
218.91200000000001
 31
0.0
  0
LINE
  5
320
  8
_________1
  6
AIGENLINE001
 62
     7
 10
154.39699999999999
 20
239.24799999999999
 30
0.0
 11
150.97499999999999
 21
239.24799999999999
 31
0.0
  0
LINE
  5
321
  8
_________1
  6
AIGENLINE001
 62
     7
 10
152.642
 20
237.49299999999999
 30
0.0
 11
152.642
 21
240.74799999999999
 31
0.0
  0
LINE
  5
322
  8
_________1
  6
AIGENLINE001
 62
     7
 10
113.47499999999999
 20
239.24600000000001
 30
0.0
 11
110.054
 21
239.24600000000001
 31
0.0
  0
LINE
  5
323
  8
_________1
  6
AIGENLINE001
 62
     7
 10
111.97499999999999
 20
237.49100000000001
 30
0.0
 11
111.97499999999999
 21
240.74600000000001
 31
0.0
  0
LINE
  5
324
  8
_________1
  6
AIGENLINE001
 62
     7
 10
113.47499999999999
 20
198.57900000000001
 30
0.0
 11
110.054
 21
198.57900000000001
 31
0.0
  0
LINE
  5
325
  8
_________1
  6
AIGENLINE001
 62
     7
 10
154.39599999999999
 20
198.57900000000001
 30
0.0
 11
150.97499999999999
 21
198.57900000000001
 31
0.0
  0
INSERT
  5
326
  8
_________1
 62
     7
  2
AIGNBL02010006
 10
0.0
 20
0.0
 30
0.0
  0
INSERT
  5
327
  8
_________1
 62
     7
  2
AIGNBL02010007
 10
0.0
 20
0.0
 30
0.0
  0
LINE
  5
328
  8
_________1
 62
     7
 10
111.97499999999999
 20
188.678
 30
0.0
 11
111.97499999999999
 21
196.16499999999999
 31
0.0
  0
LINE
  5
329
  8
_________1
 62
     7
 10
152.642
 20
188.678
 30
0.0
 11
152.642
 21
195.887
 31
0.0
  0
LINE
  5
32A
  8
_________1
 62
     7
 10
163.483
 20
256.13200000000001
 30
0.0
 11
163.483
 21
245.798
 31
0.0
  0
LINE
  5
32B
  8
_________1
 62
     7
 10
164.18299999999999
 20
250.453
 30
0.0
 11
156.34299999999999
 21
250.453
 31
0.0
  0
LINE
  5
32C
  8
_________1
 62
     7
 10
164.18299999999999
 20
253.12
 30
0.0
 11
156.34299999999999
 21
253.12
 31
0.0
  0
INSERT
  5
32D
  8
_________1
 62
     7
  2
AIGNBL02010008
 10
0.0
 20
0.0
 30
0.0
  0
LINE
  5
32E
  8
_________1
 62
     7
 10
165.33600000000001
 20
198.57900000000001
 30
0.0
 11
155.035
 21
198.57900000000001
 31
0.0
  0
LINE
  5
32F
  8
_________1
 62
     7
 10
165.33600000000001
 20
239.24799999999999
 30
0.0
 11
155.00999999999999
 21
239.24799999999999
 31
0.0
  0
INSERT
  5
330
  8
_________1
 62
     7
  2
AIGNBL02010009
 10
0.0
 20
0.0
 30
0.0
  0
LINE
  5
331
  8
_________1
 62
     7
 10
161.899
 20
155.57900000000001
 30
0.0
 11
162.232
 21
155.91300000000001
 31
0.0
  0
LINE
  5
332
  8
_________1
 62
     7
 10
161.899
 20
155.57900000000001
 30
0.0
 11
161.899
 21
152.24600000000001
 31
0.0
  0
LINE
  5
333
  8
_________1
 62
     7
 10
155.566
 20
155.57900000000001
 30
0.0
 11
155.233
 21
155.91300000000001
 31
0.0
  0
LINE
  5
334
  8
_________1
 62
     7
 10
158.732
 20
158.91300000000001
 30
0.0
 11
158.732
 21
155.91300000000001
 31
0.0
  0
LINE
  5
335
  8
_________1
 62
     7
 10
163.232
 20
158.91300000000001
 30
0.0
 11
163.232
 21
155.91300000000001
 31
0.0
  0
LINE
  5
336
  8
_________1
 62
     7
 10
154.232
 20
158.91300000000001
 30
0.0
 11
154.232
 21
155.91300000000001
 31
0.0
  0
LINE
  5
337
  8
_________1
 62
     7
 10
163.232
 20
158.91300000000001
 30
0.0
 11
154.232
 21
158.91300000000001
 31
0.0
  0
LINE
  5
338
  8
_________1
 62
     7
 10
163.232
 20
155.91300000000001
 30
0.0
 11
154.232
 21
155.91300000000001
 31
0.0
  0
LINE
  5
339
  8
_________1
 62
     7
 10
162.232
 20
155.91300000000001
 30
0.0
 11
162.232
 21
152.24600000000001
 31
0.0
  0
LINE
  5
33A
  8
_________1
 62
     7
 10
155.566
 20
155.57900000000001
 30
0.0
 11
155.566
 21
152.24600000000001
 31
0.0
  0
LINE
  5
33B
  8
_________1
 62
     7
 10
155.233
 20
155.91300000000001
 30
0.0
 11
155.233
 21
152.24600000000001
 31
0.0
  0
LINE
  5
33C
  8
_________1
 62
     7
 10
155.566
 20
155.57900000000001
 30
0.0
 11
161.899
 21
155.57900000000001
 31
0.0
  0
LINE
  5
33D
  8
_________1
 62
     7
 10
155.233
 20
152.24600000000001
 30
0.0
 11
162.232
 21
152.24600000000001
 31
0.0
  0
INSERT
  5
33E
  8
_________1
 62
     7
  2
AIGNBL0201000A
 10
0.0
 20
0.0
 30
0.0
  0
INSERT
  5
33F
  8
_________1
 62
     7
  2
AIGNBL0201000B
 10
0.0
 20
0.0
 30
0.0
  0
LINE
  5
340
  8
_________1
 62
     7
 10
170.512
 20
155.91300000000001
 30
0.0
 11
163.93199999999999
 21
155.91300000000001
 31
0.0
  0
LINE
  5
341
  8
_________1
 62
     7
 10
177.197
 20
152.24600000000001
 30
0.0
 11
162.93199999999999
 21
152.24600000000001
 31
0.0
  0
LINE
  5
342
  8
_________1
 62
     7
 10
177.197
 20
158.91300000000001
 30
0.0
 11
163.93199999999999
 21
158.91300000000001
 31
0.0
  0
INSERT
  5
343
  8
_________1
 62
     7
  2
AIGNBL0201000C
 10
0.0
 20
0.0
 30
0.0
  0
LINE
  5
344
  8
_________1
 62
     7
 10
155.233
 20
143.50800000000001
 30
0.0
 11
155.233
 21
151.54599999999999
 31
0.0
  0
LINE
  5
345
  8
_________1
 62
     7
 10
162.232
 20
143.50800000000001
 30
0.0
 11
162.232
 21
151.54599999999999
 31
0.0
  0
INSERT
  5
346
  8
_________1
 62
     7
  2
AIGNBL0201000D
 10
0.0
 20
0.0
 30
0.0
  0
INSERT
  5
347
  8
_________1
 62
     7
  2
AIGNBL0201000E
 10
0.0
 20
0.0
 30
0.0
  0
INSERT
  5
348
  8
_________1
 62
     7
  2
AIGNBL0201000F
 10
0.0
 20
0.0
 30
0.0
  0
LINE
  5
349
  8
_________1
 62
     7
 10
119.73999999999999
 20
154.17099999999999
 30
0.0
 11
103.047
 21
154.17099999999999
 31
0.0
  0
LINE
  5
34A
  8
_________1
 62
     7
 10
163.232
 20
171.68899999999999
 30
0.0
 11
158.732
 21
174.023
 31
0.0
  0
LINE
  5
34B
  8
_________1
 62
     7
 10
154.232
 20
171.68899999999999
 30
0.0
 11
158.732
 21
174.023
 31
0.0
  0
LINE
  5
34C
  8
_________1
 62
     7
 10
163.232
 20
166.35599999999999
 30
0.0
 11
158.732
 21
164.02199999999999
 31
0.0
  0
LINE
  5
34D
  8
_________1
 62
     7
 10
163.232
 20
171.68899999999999
 30
0.0
 11
163.232
 21
166.35599999999999
 31
0.0
  0
LINE
  5
34E
  8
_________1
 62
     7
 10
154.232
 20
166.35599999999999
 30
0.0
 11
158.732
 21
164.02199999999999
 31
0.0
  0
LINE
  5
34F
  8
_________1
 62
     7
 10
154.232
 20
171.68899999999999
 30
0.0
 11
154.232
 21
166.35599999999999
 31
0.0
  0
LINE
  5
350
  8
_________1
  6
AIGENLINE001
 62
     7
 10
158.732
 20
160.56999999999999
 30
0.0
 11
158.732
 21
150.29599999999999
 31
0.0
  0
LINE
  5
351
  8
_________1
  6
AIGENLINE001
 62
     7
 10
158.732
 20
175.89599999999999
 30
0.0
 11
158.732
 21
161.99600000000001
 31
0.0
  0
LINE
  5
352
  8
_________1
  6
AIGENLINE002
 62
     7
 10
36.077300000000001
 20
206.10300000000001
 30
0.0
 11
81.077399999999983
 21
206.10300000000001
 31
0.0
  0
LINE
  5
353
  8
_________1
  6
AIGENLINE002
 62
     7
 10
81.077399999999983
 20
206.10300000000001
 30
0.0
 11
81.077399999999983
 21
208.43600000000001
 31
0.0
  0
LINE
  5
354
  8
_________1
  6
AIGENLINE002
 62
     7
 10
81.077399999999983
 20
208.43600000000001
 30
0.0
 11
36.077300000000001
 21
208.43600000000001
 31
0.0
  0
LINE
  5
355
  8
_________1
  6
AIGENLINE002
 62
     7
 10
36.077300000000001
 20
208.43600000000001
 30
0.0
 11
36.077300000000001
 21
206.10300000000001
 31
0.0
  0
INSERT
  5
356
  8
_________1
 62
     7
  2
AIGNBL02010010
 10
0.0
 20
0.0
 30
0.0
  0
INSERT
  5
357
  8
_________1
 62
     7
  2
AIGNBL02010011
 10
0.0
 20
0.0
 30
0.0
  0
LINE
  5
358
  8
_________1
 62
     7
 10
31.2438
 20
221.636
 30
0.0
 11
31.2438
 21
235.673
 31
0.0
  0
LINE
  5
359
  8
_________1
 62
     7
 10
85.910899999999984
 20
221.636
 30
0.0
 11
85.910899999999984
 21
235.673
 31
0.0
  0
INSERT
  5
35A
  8
_________1
 62
     7
  2
AIGNBL02010012
 10
0.0
 20
0.0
 30
0.0
  0
LINE
  5
35B
  8
_________1
 62
     7
 10
99.306899999999999
 20
199.988
 30
0.0
 11
82.476799999999997
 21
199.988
 31
0.0
  0
LINE
  5
35C
  8
_________1
 62
     7
 10
49.827100000000002
 20
90.790599999999998
 30
0.0
 11
49.827100000000002
 21
88.957400000000007
 31
0.0
  0
LINE
  5
35D
  8
_________1
 62
     7
 10
49.9938
 20
90.790599999999998
 30
0.0
 11
49.9938
 21
88.957400000000007
 31
0.0
  0
ARC
  5
35E
  8
_________1
 62
     7
 10
49.907325
 20
88.960528999999994
 30
0.0
 40
0.086551
 50
272.06744900000001
 51
357.93256000000002
  0
ARC
  5
35F
  8
_________1
 62
     7
 10
49.913589999999999
 20
88.960549000000015
 30
0.0
 40
0.086571
 50
182.080207
 51
267.91982300000001
  0
ARC
  5
360
  8
_________1
 62
     7
 10
49.91357
 20
90.787431000000026
 30
0.0
 40
0.086551
 50
92.067412000000004
 51
177.932558
  0
ARC
  5
361
  8
_________1
 62
     7
 10
49.907387
 20
90.787493000000012
 30
0.0
 40
0.086486
 50
2.027626999999999
 51
87.972362999999987
  0
LINE
  5
362
  8
_________1
 62
     7
 10
50.494100000000003
 20
90.790599999999998
 30
0.0
 11
50.494100000000003
 21
88.957400000000007
 31
0.0
  0
LINE
  5
363
  8
_________1
 62
     7
 10
50.660800000000002
 20
90.790599999999998
 30
0.0
 11
50.660800000000002
 21
88.957400000000007
 31
0.0
  0
ARC
  5
364
  8
_________1
 62
     7
 10
50.574300000000001
 20
88.960528999999994
 30
0.0
 40
0.086551
 50
272.06744900000001
 51
357.93256000000002
  0
ARC
  5
365
  8
_________1
 62
     7
 10
50.580544000000003
 20
88.960528999999994
 30
0.0
 40
0.086551
 50
182.06744199999989
 51
267.93258800000001
  0
ARC
  5
366
  8
_________1
 62
     7
 10
50.580544000000003
 20
90.787431000000026
 30
0.0
 40
0.086551
 50
92.067412000000004
 51
177.932558
  0
ARC
  5
367
  8
_________1
 62
     7
 10
50.574227
 20
90.787357999999998
 30
0.0
 40
0.086626
 50
2.1136680000000001
 51
87.886322000000007
  0
ARC
  5
368
  8
_________1
  6
AIGENLINE003
 62
     7
 10
58.580450999999996
 20
104.454211
 30
0.0
 40
0.086551
 50
92.067412000000004
 51
177.932558
  0
ARC
  5
369
  8
_________1
  6
AIGENLINE003
 62
     7
 10
58.574269000000001
 20
104.454274
 30
0.0
 40
0.086486
 50
2.027626999999999
 51
87.972362999999987
  0
LINE
  5
36A
  8
_________1
 62
     7
 10
151.732
 20
96.374399999999994
 30
0.0
 11
150.732
 21
96.374399999999994
 31
0.0
  0
LINE
  5
36B
  8
_________1
 62
     7
 10
148.398
 20
96.374399999999994
 30
0.0
 11
147.399
 21
96.374399999999994
 31
0.0
  0
LINE
  5
36C
  8
_________1
 62
     7
 10
147.399
 20
57.707099999999997
 30
0.0
 11
147.399
 21
64.040599999999998
 31
0.0
  0
LINE
  5
36D
  8
_________1
 62
     7
 10
148.398
 20
57.707099999999997
 30
0.0
 11
148.398
 21
64.040599999999998
 31
0.0
  0
LINE
  5
36E
  8
_________1
 62
     7
 10
150.732
 20
57.707099999999997
 30
0.0
 11
150.732
 21
64.040599999999998
 31
0.0
  0
LINE
  5
36F
  8
_________1
 62
     7
 10
151.732
 20
57.707099999999997
 30
0.0
 11
151.732
 21
64.040599999999998
 31
0.0
  0
LINE
  5
370
  8
_________1
 62
     7
 10
151.732
 20
64.040599999999998
 30
0.0
 11
150.732
 21
64.040599999999998
 31
0.0
  0
LINE
  5
371
  8
_________1
 62
     7
 10
148.398
 20
64.040599999999998
 30
0.0
 11
147.399
 21
64.040599999999998
 31
0.0
  0
LINE
  5
372
  8
_________1
 62
     7
 10
147.399
 20
96.374399999999994
 30
0.0
 11
147.399
 21
102.70699999999999
 31
0.0
  0
LINE
  5
373
  8
_________1
 62
     7
 10
148.398
 20
96.374399999999994
 30
0.0
 11
148.398
 21
102.70699999999999
 31
0.0
  0
LINE
  5
374
  8
_________1
 62
     7
 10
150.732
 20
96.374399999999994
 30
0.0
 11
150.732
 21
102.70699999999999
 31
0.0
  0
LINE
  5
375
  8
_________1
 62
     7
 10
151.732
 20
96.374399999999994
 30
0.0
 11
151.732
 21
102.70699999999999
 31
0.0
  0
LINE
  5
376
  8
_________1
 62
     7
 10
151.732
 20
73.707599999999999
 30
0.0
 11
150.732
 21
73.707599999999999
 31
0.0
  0
LINE
  5
377
  8
_________1
 62
     7
 10
148.398
 20
73.707599999999999
 30
0.0
 11
147.399
 21
73.707599999999999
 31
0.0
  0
LINE
  5
378
  8
_________1
 62
     7
 10
151.732
 20
57.707099999999997
 30
0.0
 11
150.732
 21
57.707099999999997
 31
0.0
  0
LINE
  5
379
  8
_________1
 62
     7
 10
148.398
 20
57.707099999999997
 30
0.0
 11
147.399
 21
57.707099999999997
 31
0.0
  0
LINE
  5
37A
  8
_________1
 62
     7
 10
151.732
 20
86.707400000000007
 30
0.0
 11
150.732
 21
86.707400000000007
 31
0.0
  0
LINE
  5
37B
  8
_________1
 62
     7
 10
148.398
 20
86.707400000000007
 30
0.0
 11
147.399
 21
86.707400000000007
 31
0.0
  0
LINE
  5
37C
  8
_________1
 62
     7
 10
151.732
 20
102.70699999999999
 30
0.0
 11
150.732
 21
102.70699999999999
 31
0.0
  0
LINE
  5
37D
  8
_________1
 62
     7
 10
148.398
 20
102.70699999999999
 30
0.0
 11
147.399
 21
102.70699999999999
 31
0.0
  0
LINE
  5
37E
  8
_________1
 62
     7
 10
147.399
 20
73.707599999999999
 30
0.0
 11
147.399
 21
86.707400000000007
 31
0.0
  0
LINE
  5
37F
  8
_________1
 62
     7
 10
148.398
 20
73.707599999999999
 30
0.0
 11
148.398
 21
86.707400000000007
 31
0.0
  0
LINE
  5
380
  8
_________1
 62
     7
 10
150.732
 20
73.707599999999999
 30
0.0
 11
150.732
 21
86.707400000000007
 31
0.0
  0
LINE
  5
381
  8
_________1
 62
     7
 10
151.732
 20
73.707599999999999
 30
0.0
 11
151.732
 21
86.707400000000007
 31
0.0
  0
LINE
  5
382
  8
_________1
 62
     7
 10
150.732
 20
59.540599999999998
 30
0.0
 11
148.398
 21
59.540599999999998
 31
0.0
  0
LINE
  5
383
  8
_________1
 62
     7
 10
150.732
 20
100.874
 30
0.0
 11
148.398
 21
100.874
 31
0.0
  0
LINE
  5
384
  8
_________1
 62
     7
 10
42.410800000000002
 20
209.43600000000001
 30
0.0
 11
42.410800000000002
 21
208.43600000000001
 31
0.0
  0
LINE
  5
385
  8
_________1
 62
     7
 10
42.410800000000002
 20
206.10300000000001
 30
0.0
 11
42.410800000000002
 21
205.10300000000001
 31
0.0
  0
LINE
  5
386
  8
_________1
 62
     7
 10
81.077399999999983
 20
205.10300000000001
 30
0.0
 11
74.744200000000006
 21
205.10300000000001
 31
0.0
  0
LINE
  5
387
  8
_________1
 62
     7
 10
81.077399999999983
 20
206.10300000000001
 30
0.0
 11
74.744200000000006
 21
206.10300000000001
 31
0.0
  0
LINE
  5
388
  8
_________1
 62
     7
 10
81.077399999999983
 20
208.43600000000001
 30
0.0
 11
74.744200000000006
 21
208.43600000000001
 31
0.0
  0
LINE
  5
389
  8
_________1
 62
     7
 10
81.077399999999983
 20
209.43600000000001
 30
0.0
 11
74.744200000000006
 21
209.43600000000001
 31
0.0
  0
LINE
  5
38A
  8
_________1
 62
     7
 10
74.744200000000006
 20
209.43600000000001
 30
0.0
 11
74.744200000000006
 21
208.43600000000001
 31
0.0
  0
LINE
  5
38B
  8
_________1
 62
     7
 10
74.744200000000006
 20
206.10300000000001
 30
0.0
 11
74.744200000000006
 21
205.10300000000001
 31
0.0
  0
LINE
  5
38C
  8
_________1
 62
     7
 10
42.410800000000002
 20
205.10300000000001
 30
0.0
 11
36.077300000000001
 21
205.10300000000001
 31
0.0
  0
LINE
  5
38D
  8
_________1
 62
     7
 10
42.410800000000002
 20
206.10300000000001
 30
0.0
 11
36.077300000000001
 21
206.10300000000001
 31
0.0
  0
LINE
  5
38E
  8
_________1
 62
     7
 10
42.410800000000002
 20
208.43600000000001
 30
0.0
 11
36.077300000000001
 21
208.43600000000001
 31
0.0
  0
LINE
  5
38F
  8
_________1
 62
     7
 10
42.410800000000002
 20
209.43600000000001
 30
0.0
 11
36.077300000000001
 21
209.43600000000001
 31
0.0
  0
LINE
  5
390
  8
_________1
 62
     7
 10
65.077200000000005
 20
209.43600000000001
 30
0.0
 11
65.077200000000005
 21
208.43600000000001
 31
0.0
  0
LINE
  5
391
  8
_________1
 62
     7
 10
65.077200000000005
 20
206.10300000000001
 30
0.0
 11
65.077200000000005
 21
205.10300000000001
 31
0.0
  0
LINE
  5
392
  8
_________1
 62
     7
 10
81.077399999999983
 20
209.43600000000001
 30
0.0
 11
81.077399999999983
 21
208.43600000000001
 31
0.0
  0
LINE
  5
393
  8
_________1
 62
     7
 10
81.077399999999983
 20
206.10300000000001
 30
0.0
 11
81.077399999999983
 21
205.10300000000001
 31
0.0
  0
LINE
  5
394
  8
_________1
 62
     7
 10
52.077399999999997
 20
209.43600000000001
 30
0.0
 11
52.077399999999997
 21
208.43600000000001
 31
0.0
  0
LINE
  5
395
  8
_________1
 62
     7
 10
52.077399999999997
 20
206.10300000000001
 30
0.0
 11
52.077399999999997
 21
205.10300000000001
 31
0.0
  0
LINE
  5
396
  8
_________1
 62
     7
 10
36.077300000000001
 20
209.43600000000001
 30
0.0
 11
36.077300000000001
 21
208.43600000000001
 31
0.0
  0
LINE
  5
397
  8
_________1
 62
     7
 10
36.077300000000001
 20
206.10300000000001
 30
0.0
 11
36.077300000000001
 21
205.10300000000001
 31
0.0
  0
LINE
  5
398
  8
_________1
 62
     7
 10
65.077200000000005
 20
205.10300000000001
 30
0.0
 11
52.077399999999997
 21
205.10300000000001
 31
0.0
  0
LINE
  5
399
  8
_________1
 62
     7
 10
65.077200000000005
 20
206.10300000000001
 30
0.0
 11
52.077399999999997
 21
206.10300000000001
 31
0.0
  0
LINE
  5
39A
  8
_________1
 62
     7
 10
65.077200000000005
 20
208.43600000000001
 30
0.0
 11
52.077399999999997
 21
208.43600000000001
 31
0.0
  0
LINE
  5
39B
  8
_________1
 62
     7
 10
65.077200000000005
 20
209.43600000000001
 30
0.0
 11
52.077399999999997
 21
209.43600000000001
 31
0.0
  0
LINE
  5
39C
  8
_________1
 62
     7
 10
79.243899999999996
 20
208.43600000000001
 30
0.0
 11
79.243899999999996
 21
206.10300000000001
 31
0.0
  0
LINE
  5
39D
  8
_________1
 62
     7
 10
37.91040000000001
 20
208.43600000000001
 30
0.0
 11
37.91040000000001
 21
206.10300000000001
 31
0.0
  0
INSERT
  5
39E
  8
_________1
 62
     7
  2
AIGNBL02010013
 10
0.0
 20
0.0
 30
0.0
  0
LINE
  5
39F
  8
_________1
 62
     7
 10
83.577500000000015
 20
120.678
 30
0.0
 11
83.577500000000015
 21
105.944
 31
0.0
  0
LINE
  5
3A0
  8
_________1
 62
     7
 10
33.577100000000002
 20
120.678
 30
0.0
 11
33.577100000000002
 21
105.944
 31
0.0
  0
LINE
  5
3A1
  8
_________1
 62
     7
 10
55.077100000000002
 20
42.250900000000001
 30
0.0
 11
55.077100000000002
 21
52.17349999999999
 31
0.0
  0
LINE
  5
3A2
  8
_________1
 62
     7
 10
62.077199999999998
 20
42.250900000000001
 30
0.0
 11
62.077199999999998
 21
52.17349999999999
 31
0.0
  0
INSERT
  5
3A3
  8
_________1
 62
     7
  2
AIGNBL02010014
 10
0.0
 20
0.0
 30
0.0
  0
LINE
  5
3A4
  8
_________1
 62
     7
 10
24.854099999999999
 20
83.707400000000007
 30
0.0
 11
30.543700000000001
 21
83.707400000000007
 31
0.0
  0
LINE
  5
3A5
  8
_________1
 62
     7
 10
24.854099999999999
 20
76.707599999999999
 30
0.0
 11
30.543700000000001
 21
76.707599999999999
 31
0.0
  0
INSERT
  5
3A6
  8
_________1
 62
     7
  2
AIGNBL02010015
 10
0.0
 20
0.0
 30
0.0
  0
INSERT
  5
3A7
  8
_________1
 62
     7
  2
AIGNBL02010016
 10
0.0
 20
0.0
 30
0.0
  0
LINE
  5
3A8
  8
_________1
 62
     7
 10
62.077199999999998
 20
113.93000000000001
 30
0.0
 11
62.077199999999998
 21
108.241
 31
0.0
  0
LINE
  5
3A9
  8
_________1
 62
     7
 10
55.077399999999997
 20
113.93000000000001
 30
0.0
 11
55.077399999999997
 21
108.241
 31
0.0
  0
LINE
  5
3AA
  8
_________1
 62
     7
 10
93.147999999999996
 20
76.707599999999999
 30
0.0
 11
86.610899999999987
 21
76.707599999999999
 31
0.0
  0
LINE
  5
3AB
  8
_________1
 62
     7
 10
93.147999999999996
 20
83.707400000000007
 30
0.0
 11
86.610899999999987
 21
83.707400000000007
 31
0.0
  0
INSERT
  5
3AC
  8
_________1
 62
     7
  2
AIGNBL02010017
 10
0.0
 20
0.0
 30
0.0
  0
LINE
  5
3AD
  8
_________1
 62
     7
 10
55.910800000000002
 20
55.207299999999996
 30
0.0
 11
55.910800000000002
 21
52.873600000000003
 31
0.0
  0
LINE
  5
3AE
  8
_________1
 62
     7
 10
61.244199999999999
 20
55.207299999999996
 30
0.0
 11
61.244199999999999
 21
52.873600000000003
 31
0.0
  0
LINE
  5
3AF
  8
_________1
 62
     7
 10
53.57739999999999
 20
55.207299999999996
 30
0.0
 11
53.57739999999999
 21
52.873600000000003
 31
0.0
  0
LINE
  5
3B0
  8
_________1
 62
     7
 10
63.577199999999998
 20
55.207299999999996
 30
0.0
 11
63.577199999999998
 21
52.873600000000003
 31
0.0
  0
LINE
  5
3B1
  8
_________1
 62
     7
 10
63.577199999999998
 20
52.873600000000003
 30
0.0
 11
53.57739999999999
 21
52.873600000000003
 31
0.0
  0
LINE
  5
3B2
  8
_________1
 62
     7
 10
33.577100000000002
 20
82.873700000000014
 30
0.0
 11
31.2438
 21
82.873700000000014
 31
0.0
  0
LINE
  5
3B3
  8
_________1
 62
     7
 10
33.577100000000002
 20
77.540599999999984
 30
0.0
 11
31.2438
 21
77.540599999999984
 31
0.0
  0
LINE
  5
3B4
  8
_________1
 62
     7
 10
33.577100000000002
 20
85.207400000000007
 30
0.0
 11
31.2438
 21
85.207400000000007
 31
0.0
  0
LINE
  5
3B5
  8
_________1
 62
     7
 10
33.577100000000002
 20
75.206900000000005
 30
0.0
 11
31.2438
 21
75.206900000000005
 31
0.0
  0
LINE
  5
3B6
  8
_________1
 62
     7
 10
31.2438
 20
75.206900000000005
 30
0.0
 11
31.2438
 21
85.207400000000007
 31
0.0
  0
LINE
  5
3B7
  8
_________1
 62
     7
 10
61.24349999999999
 20
105.208
 30
0.0
 11
61.24349999999999
 21
107.541
 31
0.0
  0
LINE
  5
3B8
  8
_________1
 62
     7
 10
55.910499999999999
 20
105.208
 30
0.0
 11
55.910499999999999
 21
107.541
 31
0.0
  0
LINE
  5
3B9
  8
_________1
 62
     7
 10
63.577199999999998
 20
105.208
 30
0.0
 11
63.577199999999998
 21
107.541
 31
0.0
  0
LINE
  5
3BA
  8
_________1
 62
     7
 10
53.577100000000002
 20
105.208
 30
0.0
 11
53.577100000000002
 21
107.541
 31
0.0
  0
LINE
  5
3BB
  8
_________1
 62
     7
 10
53.577100000000002
 20
107.541
 30
0.0
 11
63.577199999999998
 21
107.541
 31
0.0
  0
LINE
  5
3BC
  8
_________1
 62
     7
 10
83.577500000000015
 20
77.540599999999984
 30
0.0
 11
85.910899999999984
 21
77.540599999999984
 31
0.0
  0
LINE
  5
3BD
  8
_________1
 62
     7
 10
83.577500000000015
 20
82.874399999999994
 30
0.0
 11
85.910899999999984
 21
82.874399999999994
 31
0.0
  0
LINE
  5
3BE
  8
_________1
  6
AIGENLINE001
 62
     7
 10
158.732
 20
110.524
 30
0.0
 11
158.732
 21
49.924599999999998
 31
0.0
  0
ARC
  5
3BF
  8
_________1
 62
     7
 10
160.549014
 20
80.274349000000015
 30
0.0
 40
1.8182130000000001
 50
182.12886499999991
 51
267.88244600000002
  0
ARC
  5
3C0
  8
_________1
 62
     7
 10
160.482348
 20
80.207324999999983
 30
0.0
 40
1.7502919999999991
 50
90.016915999999995
 51
180.01692600000001
  0
ARC
  5
3C1
  8
_________1
 62
     7
 10
160.414569
 20
80.140263000000004
 30
0.0
 40
1.8185990000000001
 50
2.097029
 51
87.880409
  0
ARC
  5
3C2
  8
_________1
 62
     7
 10
160.41567699999999
 20
80.273677000000006
 30
0.0
 40
1.8175039999999989
 50
272.08592299999998
 51
357.891525
  0
ARC
  5
3C3
  8
_________1
 62
     7
 10
158.73170999999999
 20
80.207497000000004
 30
0.0
 40
3.4998939999999998
 50
180.00565
 51
270.00565999999998
  0
ARC
  5
3C4
  8
_________1
 62
     7
 10
158.732056
 20
80.207152000000008
 30
0.0
 40
3.5002399999999998
 50
90.0
 51
179.99996999999999
  0
ARC
  5
3C5
  8
_________1
 62
     7
 10
158.73188300000001
 20
80.207324999999983
 30
0.0
 40
3.500067
 50
359.99718999999999
 51
89.997159999999994
  0
ARC
  5
3C6
  8
_________1
 62
     7
 10
158.73222699999999
 20
80.207325999999995
 30
0.0
 40
3.4997229999999999
 50
269.99720000000002
 51
359.9971700000001
  0
ARC
  5
3C7
  8
_________1
 62
     7
 10
158.73188200000001
 20
80.207324999999983
 30
0.0
 40
3.9999530000000001
 50
180.002477
 51
270.00248699999997
  0
ARC
  5
3C8
  8
_________1
 62
     7
 10
158.73222799999999
 20
80.207324999999983
 30
0.0
 40
4.000299
 50
90.00246700000001
 51
180.002477
  0
ARC
  5
3C9
  8
_________1
 62
     7
 10
158.73170999999999
 20
80.207497000000004
 30
0.0
 40
4.000125999999999
 50
359.99507499999999
 51
89.995045999999988
  0
ARC
  5
3CA
  8
_________1
 62
     7
 10
158.732055
 20
80.207154000000003
 30
0.0
 40
3.9997820000000002
 50
270.00002000000001
 51
359.99999000000003
  0
LINE
  5
3CB
  8
_________1
 62
     7
 10
154.232
 20
77.540599999999984
 30
0.0
 11
158.732
 21
75.207599999999999
 31
0.0
  0
LINE
  5
3CC
  8
_________1
 62
     7
 10
163.232
 20
77.540599999999984
 30
0.0
 11
158.732
 21
75.207599999999999
 31
0.0
  0
LINE
  5
3CD
  8
_________1
 62
     7
 10
154.232
 20
82.873700000000014
 30
0.0
 11
158.732
 21
85.207400000000007
 31
0.0
  0
ARC
  5
3CE
  8
_________1
 62
     7
 10
156.251901
 20
55.896064000000003
 30
0.0
 40
3.461835999999999
 50
97.509446999999994
 51
125.694574
  0
ARC
  5
3CF
  8
_________1
 62
     7
 10
156.40342899999999
 20
55.034275000000001
 30
0.0
 40
4.3361989999999988
 50
73.118713999999997
 51
98.006287
  0
ARC
  5
3D0
  8
_________1
 62
     7
 10
156.47153
 20
55.068725000000001
 30
0.0
 40
4.2838129999999994
 50
58.150478
 51
73.856527999999983
  0
LINE
  5
3D1
  8
_________1
 62
     7
 10
154.232
 20
58.707599999999999
 30
0.0
 11
155.065
 21
59.540599999999998
 31
0.0
  0
LINE
  5
3D2
  8
_________1
 62
     7
 10
154.232
 20
58.707599999999999
 30
0.0
 11
154.232
 21
52.873600000000003
 31
0.0
  0
ARC
  5
3D3
  8
_________1
 62
     7
 10
161.21230499999999
 20
55.896195999999989
 30
0.0
 40
3.4616720000000001
 50
54.305418000000003
 51
82.494292999999999
  0
ARC
  5
3D4
  8
_________1
 62
     7
 10
161.06058400000001
 20
55.034339000000003
 30
0.0
 40
4.3361279999999987
 50
81.994272999999993
 51
106.881096
  0
ARC
  5
3D5
  8
_________1
 62
     7
 10
160.99255400000001
 20
55.068947999999999
 30
0.0
 40
4.2836099999999986
 50
106.144761
 51
121.850765
  0
LINE
  5
3D6
  8
_________1
 62
     7
 10
163.232
 20
58.707599999999999
 30
0.0
 11
162.399
 21
59.540599999999998
 31
0.0
  0
LINE
  5
3D7
  8
_________1
 62
     7
 10
158.732
 20
58.707599999999999
 30
0.0
 11
158.732
 21
52.873600000000003
 31
0.0
  0
LINE
  5
3D8
  8
_________1
 62
     7
 10
163.232
 20
58.707599999999999
 30
0.0
 11
163.232
 21
52.873600000000003
 31
0.0
  0
LINE
  5
3D9
  8
_________1
 62
     7
 10
163.232
 20
52.873600000000003
 30
0.0
 11
154.232
 21
52.873600000000003
 31
0.0
  0
ARC
  5
3DA
  8
_________1
 62
     7
 10
156.251383
 20
104.51759199999999
 30
0.0
 40
3.4604449999999991
 50
234.29945900000001
 51
262.49617999999998
  0
ARC
  5
3DB
  8
_________1
 62
     7
 10
156.40335400000001
 20
105.38167900000001
 30
0.0
 40
4.3371440000000003
 50
261.996467
 51
286.87853200000001
  0
ARC
  5
3DC
  8
_________1
 62
     7
 10
156.471047
 20
105.347308
 30
0.0
 40
4.2849500000000003
 50
286.14579400000002
 51
301.84768200000002
  0
LINE
  5
3DD
  8
_________1
 62
     7
 10
154.232
 20
101.70699999999999
 30
0.0
 11
155.065
 21
100.874
 31
0.0
  0
LINE
  5
3DE
  8
_________1
 62
     7
 10
154.232
 20
77.540599999999984
 30
0.0
 11
154.232
 21
82.873700000000014
 31
0.0
  0
LINE
  5
3DF
  8
_________1
 62
     7
 10
163.232
 20
82.873700000000014
 30
0.0
 11
158.732
 21
85.207400000000007
 31
0.0
  0
LINE
  5
3E0
  8
_________1
 62
     7
 10
154.232
 20
101.70699999999999
 30
0.0
 11
154.232
 21
107.541
 31
0.0
  0
ARC
  5
3E1
  8
_________1
 62
     7
 10
161.21282400000001
 20
104.51746
 30
0.0
 40
3.460281999999999
 50
277.50008000000003
 51
305.70054900000002
  0
ARC
  5
3E2
  8
_________1
 62
     7
 10
161.06065899999999
 20
105.381615
 30
0.0
 40
4.3370730000000002
 50
253.121658
 51
278.00297399999999
  0
ARC
  5
3E3
  8
_________1
 62
     7
 10
160.99303699999999
 20
105.347086
 30
0.0
 40
4.2847460000000002
 50
238.15107499999999
 51
253.85291699999999
  0
LINE
  5
3E4
  8
_________1
 62
     7
 10
163.232
 20
101.70699999999999
 30
0.0
 11
162.399
 21
100.874
 31
0.0
  0
LINE
  5
3E5
  8
_________1
 62
     7
 10
158.732
 20
101.70699999999999
 30
0.0
 11
158.732
 21
107.541
 31
0.0
  0
LINE
  5
3E6
  8
_________1
 62
     7
 10
163.232
 20
77.540599999999984
 30
0.0
 11
163.232
 21
82.873700000000014
 31
0.0
  0
LINE
  5
3E7
  8
_________1
 62
     7
 10
163.232
 20
101.70699999999999
 30
0.0
 11
163.232
 21
107.541
 31
0.0
  0
LINE
  5
3E8
  8
_________1
 62
     7
 10
163.232
 20
107.541
 30
0.0
 11
154.232
 21
107.541
 31
0.0
  0
LINE
  5
3E9
  8
_________1
 62
     7
 10
169.065
 20
73.874300000000005
 30
0.0
 11
165.732
 21
73.874300000000005
 31
0.0
  0
LINE
  5
3EA
  8
_________1
 62
     7
 10
169.065
 20
86.540700000000001
 30
0.0
 11
165.732
 21
86.540700000000001
 31
0.0
  0
LINE
  5
3EB
  8
_________1
 62
     7
 10
169.065
 20
66.040800000000004
 30
0.0
 11
165.732
 21
66.040800000000004
 31
0.0
  0
LINE
  5
3EC
  8
_________1
 62
     7
 10
169.065
 20
94.374200000000016
 30
0.0
 11
165.732
 21
94.374200000000016
 31
0.0
  0
LINE
  5
3ED
  8
_________1
 62
     7
 10
169.065
 20
60.207599999999999
 30
0.0
 11
165.732
 21
60.207599999999999
 31
0.0
  0
LINE
  5
3EE
  8
_________1
 62
     7
 10
169.065
 20
100.20699999999999
 30
0.0
 11
165.732
 21
100.20699999999999
 31
0.0
  0
LINE
  5
3EF
  8
_________1
 62
     7
 10
169.065
 20
57.707099999999997
 30
0.0
 11
165.732
 21
57.707099999999997
 31
0.0
  0
LINE
  5
3F0
  8
_________1
 62
     7
 10
169.065
 20
102.70699999999999
 30
0.0
 11
165.732
 21
102.70699999999999
 31
0.0
  0
LINE
  5
3F1
  8
_________1
 62
     7
 10
165.732
 20
57.707099999999997
 30
0.0
 11
165.732
 21
73.874300000000005
 31
0.0
  0
LINE
  5
3F2
  8
_________1
 62
     7
 10
106.399
 20
41.122300000000003
 30
0.0
 11
106.399
 21
60.1738
 31
0.0
  0
LINE
  5
3F3
  8
_________1
 62
     7
 10
134.065
 20
47.85199999999999
 30
0.0
 11
134.065
 21
54.403199999999991
 31
0.0
  0
LINE
  5
3F4
  8
_________1
 62
     7
 10
144.065
 20
41.122300000000003
 30
0.0
 11
144.065
 21
54.403199999999991
 31
0.0
  0
LINE
  5
3F5
  8
_________1
 62
     7
 10
134.065
 20
106.02800000000001
 30
0.0
 11
134.065
 21
127.34399999999999
 31
0.0
  0
LINE
  5
3F6
  8
_________1
 62
     7
 10
144.065
 20
105.964
 30
0.0
 11
144.065
 21
122.10299999999999
 31
0.0
  0
LINE
  5
3F7
  8
_________1
 62
     7
 10
158.732
 20
111.224
 30
0.0
 11
158.732
 21
116.86199999999999
 31
0.0
  0
LINE
  5
3F8
  8
_________1
 62
     7
 10
169.065
 20
103.407
 30
0.0
 11
169.065
 21
127.34399999999999
 31
0.0
  0
LINE
  5
3F9
  8
_________1
 62
     7
 10
165.732
 20
86.540700000000001
 30
0.0
 11
165.732
 21
102.70699999999999
 31
0.0
  0
LINE
  5
3FA
  8
_________1
 62
     7
 10
169.065
 20
57.707099999999997
 30
0.0
 11
169.065
 21
102.70699999999999
 31
0.0
  0
LINE
  5
3FB
  8
_________1
 62
     7
 10
165.732
 20
59.540599999999998
 30
0.0
 11
151.732
 21
59.540599999999998
 31
0.0
  0
INSERT
  5
3FC
  8
_________1
 62
     7
  2
AIGNBL02010018
 10
0.0
 20
0.0
 30
0.0
  0
INSERT
  5
3FD
  8
_________1
 62
     7
  2
AIGNBL02010019
 10
0.0
 20
0.0
 30
0.0
  0
INSERT
  5
3FE
  8
_________1
 62
     7
  2
AIGNBL0201001A
 10
0.0
 20
0.0
 30
0.0
  0
INSERT
  5
3FF
  8
_________1
 62
     7
  2
AIGNBL0201001B
 10
0.0
 20
0.0
 30
0.0
  0
INSERT
  5
400
  8
_________1
 62
     7
  2
AIGNBL0201001C
 10
0.0
 20
0.0
 30
0.0
  0
INSERT
  5
401
  8
_________1
 62
     7
  2
AIGNBL0201001D
 10
0.0
 20
0.0
 30
0.0
  0
LINE
  5
402
  8
_________1
 62
     7
 10
121.447
 20
109.917
 30
0.0
 11
107.964
 21
109.917
 31
0.0
  0
INSERT
  5
403
  8
_________1
 62
     7
  2
AIGNBL0201001E
 10
0.0
 20
0.0
 30
0.0
  0
INSERT
  5
404
  8
_________1
 62
     7
  2
AIGNBL0201001F
 10
0.0
 20
0.0
 30
0.0
  0
LINE
  5
405
  8
_________1
 62
     7
 10
96.151799999999994
 20
160.71199999999999
 30
0.0
 11
71.144400000000005
 21
160.71199999999999
 31
0.0
  0
INSERT
  5
406
  8
_________1
 62
     7
  2
AIGNBL02010020
 10
0.0
 20
0.0
 30
0.0
  0
LINE
  5
407
  8
_________1
 62
     7
 10
89.135499999999979
 20
176.93599999999989
 30
0.0
 11
70.936300000000003
 21
176.93599999999989
 31
0.0
  0
INSERT
  5
408
  8
_________1
 62
     7
  2
AIGNBL02010021
 10
0.0
 20
0.0
 30
0.0
  0
LINE
  5
409
  8
_________1
 62
     7
 10
48.67329999999999
 20
48.551999999999992
 30
0.0
 11
33.785400000000003
 21
48.551999999999992
 31
0.0
  0
LINE
  5
40A
  8
_________1
 62
     7
 10
83.834199999999996
 20
48.551999999999992
 30
0.0
 11
71.3001
 21
48.551999999999992
 31
0.0
  0
LINE
  5
40B
  8
_________1
 62
     7
 10
100.211
 20
55.207299999999996
 30
0.0
 11
84.427099999999996
 21
55.207299999999996
 31
0.0
  0
LINE
  5
40C
  8
_________1
 62
     7
 10
100.211
 20
105.208
 30
0.0
 11
84.427099999999996
 21
105.208
 31
0.0
  0
LINE
  5
40D
  8
_________1
 62
     7
 10
147.399
 20
59.540599999999998
 30
0.0
 11
134.065
 21
59.540599999999998
 31
0.0
  0
LINE
  5
40E
  8
_________1
 62
     7
 10
165.732
 20
100.874
 30
0.0
 11
151.732
 21
100.874
 31
0.0
  0
LINE
  5
40F
  8
_________1
 62
     7
 10
147.399
 20
100.874
 30
0.0
 11
134.065
 21
100.874
 31
0.0
  0
LINE
  5
410
  8
_________1
  6
AIGENLINE001
 62
     7
 10
28.2606
 20
80.2072
 30
0.0
 11
88.860299999999995
 21
80.2072
 31
0.0
  0
LINE
  5
411
  8
_________1
 62
     7
 10
83.577500000000015
 20
75.207599999999999
 30
0.0
 11
85.910899999999984
 21
75.207599999999999
 31
0.0
  0
LINE
  5
412
  8
_________1
 62
     7
 10
83.577500000000015
 20
85.207400000000007
 30
0.0
 11
85.910899999999984
 21
85.207400000000007
 31
0.0
  0
LINE
  5
413
  8
_________1
 62
     7
 10
85.910899999999984
 20
85.207400000000007
 30
0.0
 11
85.910899999999984
 21
75.207599999999999
 31
0.0
  0
LINE
  5
414
  8
_________1
  6
AIGENLINE001
 62
     7
 10
28.2606
 20
216.43600000000001
 30
0.0
 11
88.860299999999995
 21
216.43600000000001
 31
0.0
  0
ARC
  5
415
  8
_________1
 62
     7
 10
58.510269999999998
 20
218.25340399999999
 30
0.0
 40
1.818422
 50
272.11340300000001
 51
357.880968
  0
ARC
  5
416
  8
_________1
 62
     7
 10
58.644936999999999
 20
218.253953
 30
0.0
 40
1.818991
 50
182.13570999999999
 51
267.86995999999999
  0
ARC
  5
417
  8
_________1
 62
     7
 10
58.644540999999997
 20
218.118955
 30
0.0
 40
1.8185739999999999
 50
92.118047000000004
 51
177.881923
  0
ARC
  5
418
  8
_________1
 62
     7
 10
58.509709000000001
 20
218.11854600000001
 30
0.0
 40
1.818997
 50
2.1304270000000001
 51
87.869563000000014
  0
ARC
  5
419
  8
_________1
 62
     7
 10
58.577241999999998
 20
216.43613400000001
 30
0.0
 40
3.4999809999999991
 50
270.00143000000003
 51
0.0014
  0
ARC
  5
41A
  8
_________1
 62
     7
 10
58.577413999999997
 20
216.43613300000001
 30
0.0
 40
3.4999799999999999
 50
179.99856
 51
269.99860999999999
  0
ARC
  5
41B
  8
_________1
 62
     7
 10
58.577415999999999
 20
216.436305
 30
0.0
 40
3.4999809999999991
 50
90.001410000000007
 51
180.00142
  0
ARC
  5
41C
  8
_________1
 62
     7
 10
58.577241999999998
 20
216.436305
 30
0.0
 40
3.4999809999999991
 50
359.99860000000001
 51
89.998570000000001
  0
ARC
  5
41D
  8
_________1
 62
     7
 10
58.577413999999997
 20
216.436306
 30
0.0
 40
4.0000400000000003
 50
269.998786
 51
359.99875600000001
  0
ARC
  5
41E
  8
_________1
 62
     7
 10
58.577241999999998
 20
216.436305
 30
0.0
 40
4.0000390000000001
 50
180.00124400000001
 51
270.00125400000002
  0
ARC
  5
41F
  8
_________1
 62
     7
 10
58.577243000000003
 20
216.43613199999999
 30
0.0
 40
4.0000400000000003
 50
89.998766000000003
 51
179.99873700000001
  0
ARC
  5
420
  8
_________1
 62
     7
 10
58.577413999999997
 20
216.43613199999999
 30
0.0
 40
4.0000400000000003
 50
0.001244
 51
90.001214000000004
  0
LINE
  5
421
  8
_________1
 62
     7
 10
61.244199999999999
 20
211.93600000000001
 30
0.0
 11
63.577199999999998
 21
216.43600000000001
 31
0.0
  0
LINE
  5
422
  8
_________1
 62
     7
 10
61.244199999999999
 20
220.93600000000001
 30
0.0
 11
63.577199999999998
 21
216.43600000000001
 31
0.0
  0
LINE
  5
423
  8
_________1
 62
     7
 10
55.910499999999999
 20
211.93600000000001
 30
0.0
 11
53.57739999999999
 21
216.43600000000001
 31
0.0
  0
ARC
  5
424
  8
_________1
 62
     7
 10
82.886764999999997
 20
213.955253
 30
0.0
 40
3.459738999999999
 50
187.4992179999999
 51
215.702977
  0
ARC
  5
425
  8
_________1
 62
     7
 10
83.750622000000007
 20
214.10763399999999
 30
0.0
 40
4.336263999999999
 50
163.11908399999999
 51
188.00573299999999
  0
ARC
  5
426
  8
_________1
 62
     7
 10
83.716373000000004
 20
214.17553699999999
 30
0.0
 40
4.2841259999999997
 50
148.15060099999999
 51
163.855099
  0
LINE
  5
427
  8
_________1
 62
     7
 10
80.077299999999994
 20
211.93600000000001
 30
0.0
 11
79.244200000000006
 21
212.77000000000001
 31
0.0
  0
LINE
  5
428
  8
_________1
 62
     7
 10
80.077299999999994
 20
211.93600000000001
 30
0.0
 11
85.910899999999984
 21
211.93600000000001
 31
0.0
  0
ARC
  5
429
  8
_________1
 62
     7
 10
82.886764999999997
 20
218.91718599999999
 30
0.0
 40
3.459738999999999
 50
144.297023
 51
172.50078199999999
  0
ARC
  5
42A
  8
_________1
 62
     7
 10
83.750622000000007
 20
218.764805
 30
0.0
 40
4.336263999999999
 50
171.99426700000001
 51
196.8809159999999
  0
ARC
  5
42B
  8
_________1
 62
     7
 10
83.716373000000004
 20
218.69690199999999
 30
0.0
 40
4.2841259999999997
 50
196.144901
 51
211.84939900000001
  0
LINE
  5
42C
  8
_________1
 62
     7
 10
80.077299999999994
 20
220.93600000000001
 30
0.0
 11
79.244200000000006
 21
220.10300000000001
 31
0.0
  0
LINE
  5
42D
  8
_________1
 62
     7
 10
80.077299999999994
 20
216.43600000000001
 30
0.0
 11
85.910899999999984
 21
216.43600000000001
 31
0.0
  0
LINE
  5
42E
  8
_________1
 62
     7
 10
80.077299999999994
 20
220.93600000000001
 30
0.0
 11
85.910899999999984
 21
220.93600000000001
 31
0.0
  0
LINE
  5
42F
  8
_________1
 62
     7
 10
85.910899999999984
 20
220.93600000000001
 30
0.0
 11
85.910899999999984
 21
211.93600000000001
 31
0.0
  0
ARC
  5
430
  8
_________1
 62
     7
 10
34.268709000000001
 20
213.955299
 30
0.0
 40
3.458823999999999
 50
324.28519399999999
 51
352.49802399999999
  0
ARC
  5
431
  8
_________1
 62
     7
 10
33.405110999999998
 20
214.10767799999999
 30
0.0
 40
4.3350929999999988
 50
351.99151899999998
 51
16.884981
  0
ARC
  5
432
  8
_________1
 62
     7
 10
33.439782999999998
 20
214.17554999999999
 30
0.0
 40
4.2825550000000003
 50
16.150791999999999
 51
31.862241999999998
  0
LINE
  5
433
  8
_________1
 62
     7
 10
37.076999999999998
 20
211.93600000000001
 30
0.0
 11
37.91040000000001
 21
212.77000000000001
 31
0.0
  0
LINE
  5
434
  8
_________1
 62
     7
 10
61.244199999999999
 20
211.93600000000001
 30
0.0
 11
55.910499999999999
 21
211.93600000000001
 31
0.0
  0
LINE
  5
435
  8
_________1
 62
     7
 10
55.910499999999999
 20
220.93600000000001
 30
0.0
 11
53.57739999999999
 21
216.43600000000001
 31
0.0
  0
LINE
  5
436
  8
_________1
 62
     7
 10
37.076999999999998
 20
211.93600000000001
 30
0.0
 11
31.2438
 21
211.93600000000001
 31
0.0
  0
ARC
  5
437
  8
_________1
 62
     7
 10
34.268709000000001
 20
218.91713899999999
 30
0.0
 40
3.458823999999999
 50
7.5019759999999991
 51
35.71480600000001
  0
ARC
  5
438
  8
_________1
 62
     7
 10
33.405110999999998
 20
218.76476099999999
 30
0.0
 40
4.3350929999999988
 50
343.11501900000002
 51
8.0084809999999997
  0
ARC
  5
439
  8
_________1
 62
     7
 10
33.439782999999998
 20
218.696889
 30
0.0
 40
4.2825550000000003
 50
328.13775800000002
 51
343.84920799999998
  0
LINE
  5
43A
  8
_________1
 62
     7
 10
37.076999999999998
 20
220.93600000000001
 30
0.0
 11
37.91040000000001
 21
220.10300000000001
 31
0.0
  0
LINE
  5
43B
  8
_________1
 62
     7
 10
37.076999999999998
 20
216.43600000000001
 30
0.0
 11
31.2438
 21
216.43600000000001
 31
0.0
  0
LINE
  5
43C
  8
_________1
 62
     7
 10
61.244199999999999
 20
220.93600000000001
 30
0.0
 11
55.910499999999999
 21
220.93600000000001
 31
0.0
  0
LINE
  5
43D
  8
_________1
 62
     7
 10
37.076999999999998
 20
220.93600000000001
 30
0.0
 11
31.2438
 21
220.93600000000001
 31
0.0
  0
LINE
  5
43E
  8
_________1
 62
     7
 10
31.2438
 20
220.93600000000001
 30
0.0
 11
31.2438
 21
211.93600000000001
 31
0.0
  0
LINE
  5
43F
  8
_________1
 62
     7
 10
64.910499999999999
 20
226.77000000000001
 30
0.0
 11
64.910499999999999
 21
223.43600000000001
 31
0.0
  0
LINE
  5
440
  8
_________1
 62
     7
 10
52.2438
 20
226.77000000000001
 30
0.0
 11
52.2438
 21
223.43600000000001
 31
0.0
  0
LINE
  5
441
  8
_________1
 62
     7
 10
72.743999999999986
 20
226.77000000000001
 30
0.0
 11
72.743999999999986
 21
223.43600000000001
 31
0.0
  0
LINE
  5
442
  8
_________1
 62
     7
 10
44.410699999999991
 20
226.77000000000001
 30
0.0
 11
44.410699999999991
 21
223.43600000000001
 31
0.0
  0
LINE
  5
443
  8
_________1
 62
     7
 10
78.577299999999994
 20
226.77000000000001
 30
0.0
 11
78.577299999999994
 21
223.43600000000001
 31
0.0
  0
LINE
  5
444
  8
_________1
 62
     7
 10
38.576999999999998
 20
226.77000000000001
 30
0.0
 11
38.576999999999998
 21
223.43600000000001
 31
0.0
  0
LINE
  5
445
  8
_________1
 62
     7
 10
81.077399999999983
 20
226.77000000000001
 30
0.0
 11
81.077399999999983
 21
223.43600000000001
 31
0.0
  0
LINE
  5
446
  8
_________1
 62
     7
 10
36.077300000000001
 20
226.77000000000001
 30
0.0
 11
36.077300000000001
 21
223.43600000000001
 31
0.0
  0
ARC
  5
447
  8
_________1
 62
     7
 10
59.897443999999993
 20
164.44910200000001
 30
0.0
 40
0.346531
 50
272.17400199999997
 51
357.85562599999997
  0
ARC
  5
448
  8
_________1
 62
     7
 10
57.25719999999999
 20
164.44944599999999
 30
0.0
 40
0.3468739999999999
 50
182.19913
 51
267.83050200000002
  0
ARC
  5
449
  8
_________1
 62
     7
 10
58.577329000000013
 20
171.652795
 30
0.0
 40
1.666747999999999
 50
90.0
 51
179.99996999999999
  0
ARC
  5
44A
  8
_________1
 62
     7
 10
58.577329000000013
 20
171.652795
 30
0.0
 40
1.666747999999999
 50
0.00001
 51
89.999980000000008
  0
ARC
  5
44B
  8
_________1
 62
     7
 10
67.224386999999993
 20
177.95547300000001
 30
0.0
 40
0.519724
 50
272.14793900000001
 51
357.87181099999998
  0
ARC
  5
44C
  8
_________1
 62
     7
 10
49.929769
 20
177.95531500000001
 30
0.0
 40
0.5195610000000001
 50
182.11152200000001
 51
267.86876799999999
  0
ARC
  5
44D
  8
_________1
 62
     7
 10
59.210570999999987
 20
181.810562
 30
0.0
 40
9.2389139999999994
 50
208.26413700000001
 51
210.636899
  0
ARC
  5
44E
  8
_________1
 62
     7
 10
59.199860999999999
 20
181.09907799999999
 30
0.0
 40
7.7957899999999993
 50
329.15558900000002
 51
331.968772
  0
LINE
  5
44F
  8
_________1
 62
     7
 10
69.074299999999994
 20
172.446
 30
0.0
 11
68.078599999999994
 21
173.018
 31
0.0
  0
ARC
  5
450
  8
_________1
 62
     7
 10
68.382733999999999
 20
171.27305899999999
 30
0.0
 40
1.3613459999999991
 50
0.67054
 51
59.471328
  0
ARC
  5
451
  8
_________1
 62
     7
 10
68.425229000000002
 20
173.605076
 30
0.0
 40
0.6815310000000001
 50
180.718467
 51
239.43084099999999
  0
ARC
  5
452
  8
_________1
 62
     7
 10
49.583486999999998
 20
176.92987299999999
 30
0.0
 40
0.173036
 50
92.047434999999993
 51
177.95253500000001
  0
ARC
  5
453
  8
_________1
 62
     7
 10
67.570433999999992
 20
176.92948100000001
 30
0.0
 40
0.173443
 50
2.172350999999999
 51
87.827639000000005
  0
LINE
  5
454
  8
_________1
 62
     7
 10
67.243899999999996
 20
177.43599999999989
 30
0.0
 11
49.910400000000003
 21
177.43599999999989
 31
0.0
  0
LINE
  5
455
  8
_________1
 62
     7
 10
67.576999999999984
 20
177.10300000000001
 30
0.0
 11
49.577300000000001
 21
177.10300000000001
 31
0.0
  0
ARC
  5
456
  8
_________1
 62
     7
 10
49.756849000000003
 20
164.44910200000001
 30
0.0
 40
0.346531
 50
182.14439400000001
 51
267.82601800000009
  0
ARC
  5
457
  8
_________1
 62
     7
 10
69.397918000000004
 20
164.44889699999999
 30
0.0
 40
0.346304
 50
272.08211299999999
 51
357.88829399999997
  0
LINE
  5
458
  8
_________1
 62
     7
 10
67.743799999999993
 20
171.86699999999999
 30
0.0
 11
67.743799999999993
 21
165.34800000000001
 31
0.0
  0
LINE
  5
459
  8
_________1
 62
     7
 10
69.744
 20
171.28899999999999
 30
0.0
 11
69.744
 21
164.43599999999989
 31
0.0
  0
ARC
  5
45A
  8
_________1
 62
     7
 10
33.75719500000001
 20
191.590227
 30
0.0
 40
0.180144
 50
95.555441999999985
 51
178.14353399999999
  0
ARC
  5
45B
  8
_________1
 62
     7
 10
34.186940999999997
 20
187.95374000000001
 30
0.0
 40
0.517991
 50
183.32022900000001
 51
267.94075699999991
  0
LINE
  5
45C
  8
_________1
 62
     7
 10
33.577100000000002
 20
191.596
 30
0.0
 11
33.669800000000002
 21
187.92400000000001
 31
0.0
  0
ARC
  5
45D
  8
_________1
 62
     7
 10
83.397462000000004
 20
191.590227
 30
0.0
 40
0.180144
 50
1.856463999999999
 51
84.444520999999995
  0
ARC
  5
45E
  8
_________1
 62
     7
 10
82.967708000000002
 20
187.953383
 30
0.0
 40
0.5176350000000002
 50
272.06161700000001
 51
356.717037
  0
LINE
  5
45F
  8
_________1
 62
     7
 10
83.577500000000015
 20
191.596
 30
0.0
 11
83.484499999999997
 21
187.92400000000001
 31
0.0
  0
LINE
  5
460
  8
_________1
 62
     7
 10
69.410499999999999
 20
164.10299999999989
 30
0.0
 11
49.743699999999997
 21
164.10299999999989
 31
0.0
  0
LINE
  5
461
  8
_________1
 62
     7
 10
82.986300000000014
 20
187.43600000000001
 30
0.0
 11
34.168300000000002
 21
187.43600000000001
 31
0.0
  0
LINE
  5
462
  8
_________1
 62
     7
 10
81.077399999999983
 20
223.43600000000001
 30
0.0
 11
64.910499999999999
 21
223.43600000000001
 31
0.0
  0
LINE
  5
463
  8
_________1
 62
     7
 10
52.2438
 20
223.43600000000001
 30
0.0
 11
36.077300000000001
 21
223.43600000000001
 31
0.0
  0
LINE
  5
464
  8
_________1
 62
     7
 10
81.077399999999983
 20
226.77000000000001
 30
0.0
 11
36.077300000000001
 21
226.77000000000001
 31
0.0
  0
LINE
  5
465
  8
_________1
 62
     7
 10
83.414900000000003
 20
191.77000000000001
 30
0.0
 11
33.739800000000002
 21
191.77000000000001
 31
0.0
  0
LINE
  5
466
  8
_________1
 62
     7
 10
60.243699999999997
 20
171.65299999999999
 30
0.0
 11
60.243699999999997
 21
164.43599999999989
 31
0.0
  0
LINE
  5
467
  8
_________1
 62
     7
 10
56.910600000000002
 20
171.65299999999999
 30
0.0
 11
56.910600000000002
 21
164.43599999999989
 31
0.0
  0
LINE
  5
468
  8
_________1
 62
     7
 10
79.243899999999996
 20
223.43600000000001
 30
0.0
 11
79.243899999999996
 21
209.43600000000001
 31
0.0
  0
LINE
  5
469
  8
_________1
 62
     7
 10
79.243899999999996
 20
205.10300000000001
 30
0.0
 11
79.243899999999996
 21
191.77000000000001
 31
0.0
  0
LINE
  5
46A
  8
_________1
 62
     7
 10
37.91040000000001
 20
223.43600000000001
 30
0.0
 11
37.91040000000001
 21
209.43600000000001
 31
0.0
  0
LINE
  5
46B
  8
_________1
 62
     7
 10
37.91040000000001
 20
205.10300000000001
 30
0.0
 11
37.91040000000001
 21
191.77000000000001
 31
0.0
  0
LINE
  5
46C
  8
_________1
 62
     7
 10
67.743799999999993
 20
187.43600000000001
 30
0.0
 11
67.743799999999993
 21
177.93600000000001
 31
0.0
  0
LINE
  5
46D
  8
_________1
 62
     7
 10
49.410600000000002
 20
187.43600000000001
 30
0.0
 11
49.410600000000002
 21
177.93600000000001
 31
0.0
  0
LINE
  5
46E
  8
_________1
 62
     7
 10
67.743799999999993
 20
176.93599999999989
 30
0.0
 11
67.743799999999993
 21
173.43600000000001
 31
0.0
  0
LINE
  5
46F
  8
_________1
 62
     7
 10
49.410600000000002
 20
176.93599999999989
 30
0.0
 11
49.410600000000002
 21
164.43599999999989
 31
0.0
  0
LINE
  5
470
  8
_________1
  6
AIGENLINE001
 62
     7
 10
58.577300000000001
 20
228.94200000000001
 30
0.0
 11
58.577300000000001
 21
161.68000000000001
 31
0.0
  0
ARC
  5
471
  8
_________1
 62
     7
 10
120.251176
 20
78.854911000000001
 30
0.0
 40
0.5195720000000001
 50
92.133097000000006
 51
177.90634700000001
  0
ARC
  5
472
  8
_________1
 62
     7
 10
120.25149500000001
 20
61.560119999999998
 30
0.0
 40
0.519904
 50
182.12754899999999
 51
267.83300800000001
  0
ARC
  5
473
  8
_________1
 62
     7
 10
123.439532
 20
69.666631999999993
 30
0.0
 40
7.889111999999999
 50
239.18436500000001
 51
241.96535399999999
  0
ARC
  5
474
  8
_________1
 62
     7
 10
124.271567
 20
69.281284999999997
 30
0.0
 40
9.5751270000000002
 50
118.3057699999999
 51
120.595206
  0
LINE
  5
475
  8
_________1
 62
     7
 10
114.741
 20
80.704599999999999
 30
0.0
 11
115.31399999999999
 21
79.709000000000003
 31
0.0
  0
ARC
  5
476
  8
_________1
 62
     7
 10
113.568935
 20
80.012073999999998
 30
0.0
 40
1.361688999999999
 50
30.570587
 51
89.331263000000007
  0
ARC
  5
477
  8
_________1
 62
     7
 10
115.899756
 20
80.053904000000017
 30
0.0
 40
0.679821
 50
210.48828700000001
 51
269.37726400000003
  0
ARC
  5
478
  8
_________1
 62
     7
 10
108.237982
 20
59.880248999999999
 30
0.0
 40
0.173032
 50
182.04603499999999
 51
267.95399500000002
  0
ARC
  5
479
  8
_________1
 62
     7
 10
108.146539
 20
60.959747999999998
 30
0.0
 40
0.114777
 50
120.20872900000001
 51
135.22558100000001
  0
ARC
  5
47A
  8
_________1
 62
     7
 10
108.214607
 20
60.846201000000001
 30
0.0
 40
0.247159
 50
108.061577
 51
120.60124399999999
  0
ARC
  5
47B
  8
_________1
 62
     7
 10
108.320425
 20
60.531907999999987
 30
0.0
 40
0.5787810000000001
 50
99.808769000000012
 51
108.374455
  0
ARC
  5
47C
  8
_________1
 62
     7
 10
108.441821
 20
59.858027999999997
 30
0.0
 40
1.2635000000000001
 50
94.369972999999987
 51
100.02728499999991
  0
ARC
  5
47D
  8
_________1
 62
     7
 10
108.542547
 20
58.561763999999997
 30
0.0
 40
2.5636709999999989
 50
89.499358000000001
 51
94.407106999999996
  0
ARC
  5
47E
  8
_________1
 62
     7
 10
115.483602
 20
60.959747999999998
 30
0.0
 40
0.114777
 50
44.774399000000003
 51
59.791251000000003
  0
ARC
  5
47F
  8
_________1
 62
     7
 10
115.415561
 20
60.846371999999988
 30
0.0
 40
0.246998
 50
59.383940000000003
 51
71.924937999999997
  0
ARC
  5
480
  8
_________1
 62
     7
 10
115.309905
 20
60.532733999999998
 30
0.0
 40
0.577947
 50
71.614456000000004
 51
80.188374999999994
  0
ARC
  5
481
  8
_________1
 62
     7
 10
115.18869100000001
 20
59.860768000000007
 30
0.0
 40
1.2607509999999991
 50
79.964258999999998
 51
85.631001999999995
  0
ARC
  5
482
  8
_________1
 62
     7
 10
115.08772
 20
58.561769999999989
 30
0.0
 40
2.5636669999999988
 50
85.592547999999994
 51
90.503434999999996
  0
ARC
  5
483
  8
_________1
 62
     7
 10
115.39215900000001
 20
59.880248999999999
 30
0.0
 40
0.173032
 50
272.046042
 51
357.95396799999997
  0
ARC
  5
484
  8
_________1
 62
     7
 10
119.22554100000001
 20
61.213508999999988
 30
0.0
 40
0.173032
 50
272.046042
 51
357.95396799999997
  0
ARC
  5
485
  8
_________1
 62
     7
 10
119.225155
 20
79.200817000000001
 30
0.0
 40
0.173431
 50
2.1688740000000002
 51
87.831116000000009
  0
LINE
  5
486
  8
_________1
 62
     7
 10
119.732
 20
78.873900000000006
 30
0.0
 11
119.732
 21
61.540799999999997
 31
0.0
  0
LINE
  5
487
  8
_________1
 62
     7
 10
119.398
 20
79.207400000000007
 30
0.0
 11
119.398
 21
61.207299999999996
 31
0.0
  0
ARC
  5
488
  8
_________1
 62
     7
 10
106.745283
 20
61.3872
 30
0.0
 40
0.3468739999999999
 50
182.16842600000001
 51
267.77238299999999
  0
ARC
  5
489
  8
_________1
 62
     7
 10
106.744516
 20
81.027796999999993
 30
0.0
 40
0.346106
 50
92.105590000000007
 51
177.83509799999999
  0
LINE
  5
48A
  8
_________1
 62
     7
 10
114.163
 20
79.374099999999984
 30
0.0
 11
107.643
 21
79.374099999999984
 31
0.0
  0
LINE
  5
48B
  8
_________1
 62
     7
 10
113.58499999999999
 20
81.373699999999999
 30
0.0
 11
106.732
 21
81.373699999999999
 31
0.0
  0
INSERT
  5
48C
  8
_________1
 62
     7
  2
AIGNBL02010022
 10
0.0
 20
0.0
 30
0.0
  0
ARC
  5
48D
  8
_________1
  6
AIGENLINE002
 62
     7
 10
143.88603800000001
 20
105.027827
 30
0.0
 40
0.179948
 50
5.4988970000000004
 51
88.143289999999993
  0
ARC
  5
48E
  8
_________1
  6
AIGENLINE002
 62
     7
 10
140.24918199999999
 20
104.597894
 30
0.0
 40
0.5176270000000001
 50
93.301315000000002
 51
177.94024899999999
  0
LINE
  5
48F
  8
_________1
  6
AIGENLINE002
 62
     7
 10
143.892
 20
105.208
 30
0.0
 11
140.21899999999999
 21
105.11499999999999
 31
0.0
  0
LINE
  5
490
  8
_________1
  6
AIGENLINE002
 62
     7
 10
139.732
 20
104.616
 30
0.0
 11
139.732
 21
55.798499999999997
 31
0.0
  0
LINE
  5
491
  8
_________1
  6
AIGENLINE002
 62
     7
 10
144.065
 20
105.045
 30
0.0
 11
144.065
 21
55.369900000000001
 31
0.0
  0
INSERT
  5
492
  8
_________1
 62
     7
  2
AIGNBL02010023
 10
0.0
 20
0.0
 30
0.0
  0
INSERT
  5
493
  8
_________1
 62
     7
  2
AIGNBL02010024
 10
0.0
 20
0.0
 30
0.0
  0
LINE
  5
494
  8
_________1
 62
     7
 10
60.244100000000003
 20
58.207299999999996
 30
0.0
 11
56.910600000000002
 21
58.207299999999996
 31
0.0
  0
LINE
  5
495
  8
_________1
 62
     7
 10
56.910600000000002
 20
58.207299999999996
 30
0.0
 11
56.910600000000002
 21
59.20709999999999
 31
0.0
  0
LINE
  5
496
  8
_________1
 62
     7
 10
56.910600000000002
 20
59.20709999999999
 30
0.0
 11
60.244100000000003
 21
59.20709999999999
 31
0.0
  0
LINE
  5
497
  8
_________1
 62
     7
 10
60.244100000000003
 20
59.20709999999999
 30
0.0
 11
60.244100000000003
 21
58.207299999999996
 31
0.0
  0
ARC
  5
498
  8
_________1
 62
     7
 10
61.281170999999993
 20
80.072947999999997
 30
0.0
 40
1.0617769999999991
 50
187.95345900000001
 51
252.07920300000001
  0
ARC
  5
499
  8
_________1
 62
     7
 10
55.873778000000001
 20
80.072283999999996
 30
0.0
 40
1.061054999999999
 50
287.91686900000002
 51
352.07733500000001
  0
ARC
  5
49A
  8
_________1
 62
     7
 10
58.624518000000002
 20
79.652663000000004
 30
0.0
 40
1.721652999999999
 50
91.570612999999994
 51
170.863753
  0
ARC
  5
49B
  8
_________1
 62
     7
 10
58.527999000000001
 20
79.650623999999993
 30
0.0
 40
1.7237509999999989
 50
9.1936559999999972
 51
88.360096999999996
  0
ARC
  5
49C
  8
_________1
 62
     7
 10
58.314757999999991
 20
70.007974000000004
 30
0.0
 40
9.4314460000000011
 50
1.211327
 51
73.751131000000001
  0
ARC
  5
49D
  8
_________1
 62
     7
 10
58.577326999999997
 20
70.207357000000002
 30
0.0
 40
9.1667699999999996
 50
270.00002000000001
 51
359.99999000000003
  0
ARC
  5
49E
  8
_________1
 62
     7
 10
58.577326999999997
 20
70.207354000000009
 30
0.0
 40
9.1667660000000009
 50
179.99996999999999
 51
270.00002000000001
  0
ARC
  5
49F
  8
_________1
 62
     7
 10
58.849060999999999
 20
70.001155000000011
 30
0.0
 40
9.4407519999999998
 50
106.294664
 51
178.74845300000001
  0
ARC
  5
4A0
  8
_________1
 62
     7
 10
82.885078000000007
 20
55.899774999999991
 30
0.0
 40
0.6929280000000001
 50
272.10555099999999
 51
357.835238
  0
ARC
  5
4A1
  8
_________1
 62
     7
 10
34.26892500000001
 20
55.899106000000003
 30
0.0
 40
0.6922480000000001
 50
182.11154300000001
 51
267.91810500000003
  0
LINE
  5
4A2
  8
_________1
 62
     7
 10
129.732
 20
79.374099999999984
 30
0.0
 11
120.232
 21
79.374099999999984
 31
0.0
  0
LINE
  5
4A3
  8
_________1
 62
     7
 10
129.732
 20
61.040599999999998
 30
0.0
 11
120.232
 21
61.040599999999998
 31
0.0
  0
LINE
  5
4A4
  8
_________1
 62
     7
 10
119.232
 20
79.374099999999984
 30
0.0
 11
115.732
 21
79.374099999999984
 31
0.0
  0
LINE
  5
4A5
  8
_________1
 62
     7
 10
119.232
 20
61.040599999999998
 30
0.0
 11
115.565
 21
61.040599999999998
 31
0.0
  0
LINE
  5
4A6
  8
_________1
 62
     7
 10
108.065
 20
61.040599999999998
 30
0.0
 11
106.732
 21
61.040599999999998
 31
0.0
  0
LINE
  5
4A7
  8
_________1
 62
     7
 10
34.2438
 20
55.207299999999996
 30
0.0
 11
82.910499999999999
 21
55.207299999999996
 31
0.0
  0
ARC
  5
4A8
  8
_________1
 62
     7
 10
82.88503
 20
104.515198
 30
0.0
 40
0.692951
 50
2.1094970000000002
 51
87.890493000000006
  0
ARC
  5
4A9
  8
_________1
 62
     7
 10
34.269612000000002
 20
104.51522799999999
 30
0.0
 40
0.6929340000000001
 50
92.13669800000001
 51
177.892875
  0
LINE
  5
4AA
  8
_________1
 62
     7
 10
83.577500000000015
 20
104.541
 30
0.0
 11
83.577500000000015
 21
55.873600000000003
 31
0.0
  0
LINE
  5
4AB
  8
_________1
  6
AIGENLINE001
 62
     7
 10
58.577300000000001
 20
109.544
 30
0.0
 11
58.577300000000001
 21
50.3187
 31
0.0
  0
LINE
  5
4AC
  8
_________1
 62
     7
 10
59.827199999999998
 20
61.125300000000003
 30
0.0
 11
59.827199999999998
 21
59.707299999999989
 31
0.0
  0
LINE
  5
4AD
  8
_________1
 62
     7
 10
57.327100000000002
 20
61.125300000000003
 30
0.0
 11
57.327100000000002
 21
59.707299999999989
 31
0.0
  0
LINE
  5
4AE
  8
_________1
 62
     7
 10
33.577100000000002
 20
104.541
 30
0.0
 11
33.577100000000002
 21
55.873600000000003
 31
0.0
  0
LINE
  5
4AF
  8
_________1
 62
     7
 10
115.065
 20
61.125300000000003
 30
0.0
 11
108.565
 21
61.125300000000003
 31
0.0
  0
LINE
  5
4B0
  8
_________1
 62
     7
 10
115.398
 20
59.707299999999989
 30
0.0
 11
108.232
 21
59.707299999999989
 31
0.0
  0
LINE
  5
4B1
  8
_________1
 62
     7
 10
57.327100000000002
 20
59.707299999999989
 30
0.0
 11
59.827199999999998
 21
59.707299999999989
 31
0.0
  0
LINE
  5
4B2
  8
_________1
  6
AIGENLINE001
 62
     7
 10
51.898600000000002
 20
93.540400000000005
 30
0.0
 11
64.995900000000006
 21
93.540400000000005
 31
0.0
  0
LINE
  5
4B3
  8
_________1
  6
AIGENLINE001
 62
     7
 10
132.626
 20
70.207400000000007
 30
0.0
 11
103.846
 21
70.207400000000007
 31
0.0
  0
LINE
  5
4B4
  8
_________1
  6
AIGENLINE001
 62
     7
 10
46.489400000000003
 20
70.207400000000007
 30
0.0
 11
70.966300000000004
 21
70.207400000000007
 31
0.0
  0
LINE
  5
4B5
  8
_________1
 62
     7
 10
34.2438
 20
105.208
 30
0.0
 11
82.910499999999999
 21
105.208
 31
0.0
  0
TEXT
  5
4B6
  8
_________2
 62
     7
 10
28.4026
 20
3.6835199999999988
 30
0.0
 40
3.9357000000000002
  1
（社）日本水道協会認証品・逆止弁付
 41
0.5
  0
TEXT
  5
4B7
  8
_________2
 62
     7
 10
28.4026
 20
-1.23611
 30
0.0
 40
3.9357000000000002
  1
止水機能付
 41
0.5
  0
TEXT
  5
4B8
  8
_________2
 62
     7
 10
90.549158666666656
 20
13.2182
 30
0.0
 40
3.6545800000000002
  1
1 ： 3
 41
0.5
 72
     1
 11
93.960099999999997
 21
13.2182
 31
0.0
  0
LINE
  5
4B9
  8
_________2
 62
     7
 10
205.30099999999999
 20
127.41200000000001
 30
0.0
 11
183.55000000000001
 21
127.41200000000001
 31
0.0
  0
LINE
  5
4BA
  8
_________2
 62
     7
 10
100.3
 20
-4.0903900000000002
 30
0.0
 11
100.3
 21
-21.070699999999999
 31
0.0
  0
LINE
  5
4BB
  8
_________2
 62
     7
 10
100.3
 20
275.93099999999998
 30
0.0
 11
100.3
 21
258.911
 31
0.0
  0
LINE
  5
4BC
  8
_________2
 62
     7
 10
17.049499999999998
 20
127.41200000000001
 30
0.0
 11
-4.70052
 21
127.41200000000001
 31
0.0
  0
INSERT
  5
4BD
  8
_________2
 62
     7
  2
AIGNBL03010002
 10
0.0
 20
0.0
 30
0.0
  0
TEXT
  5
4BE
  8
_________2
 62
     7
 10
104.605
 20
1.6794899999999999
 30
0.0
 40
3.0923400000000001
  1
図番
 41
0.5
  0
LINE
  5
4BF
  8
_________2
 62
     7
 10
103.55
 20
5.9087199999999989
 30
0.0
 11
183.55099999999999
 21
5.9087199999999989
 31
0.0
  0
TEXT
  5
4C0
  8
_________2
 62
     7
 10
104.605
 20
11.679600000000001
 30
0.0
 40
3.0923400000000001
  1
品番
 41
0.5
  0
TEXT
  5
4C1
  8
_________2
 62
     7
 10
104.605
 20
31.8184
 30
0.0
 40
3.0923400000000001
  1
名称
 41
0.5
  0
TEXT
  5
4C2
  8
_________2
 62
     7
 10
91.84545833333334
 20
26.822299999999998
 30
0.0
 40
3.6545800000000002
  1
mm
 41
0.5
 72
     1
 11
93.368200000000016
 21
26.822299999999998
 31
0.0
  0
TEXT
  5
4C3
  8
_________2
 62
     7
 10
85.643199999999993
 20
31.8184
 30
0.0
 40
3.0923400000000001
  1
単位
 41
0.5
  0
TEXT
  5
4C4
  8
_________2
 62
     7
 10
85.643199999999993
 20
19.411200000000001
 30
0.0
 40
3.0923400000000001
  1
尺度
 41
0.5
  0
TEXT
  5
4C5
  8
_________2
 62
     7
 10
125.8065525
 20
9.1082000000000001
 30
0.0
 40
3.9357000000000002
  1
KW1004801＋KW9999900
 41
0.5
 72
     1
 11
143.55000000000001
 21
9.1082000000000001
 31
0.0
  0
TEXT
  5
4C6
  8
_________2
 62
     7
 10
134.85866250000001
 20
-0.8919409999999999
 30
0.0
 40
3.9357000000000002
  1
KW1004801C
 41
0.5
 72
     1
 11
143.55000000000001
 21
-0.8919409999999999
 31
0.0
  0
TEXT
  5
4C7
  8
_________2
 62
     7
 10
109.179
 20
25.276499999999999
 30
0.0
 40
3.9357000000000002
  1
アヴァ サーモスタット式
 41
0.5
  0
TEXT
  5
4C8
  8
_________2
 62
     7
 10
109.179
 20
20.3569
 30
0.0
 40
3.9357000000000002
  1
シャワバス用湯水混合水栓カバー部＋埋込部
 41
0.5
  0
TEXT
  5
4C9
  8
_________2
 62
     7
 10
39.364390666666672
 20
13.603400000000001
 30
0.0
 40
3.6545800000000002
  1
井伊
 41
0.5
 72
     1
 11
41.313499999999998
 21
13.603400000000001
 31
0.0
  0
TEXT
  5
4CA
  8
_________2
 62
     7
 10
20.79039066666666
 20
13.603400000000001
 30
0.0
 40
3.6545800000000002
  1
恋塚
 41
0.5
 72
     1
 11
22.7395
 21
13.603400000000001
 31
0.0
  0
TEXT
  5
4CB
  8
_________2
 62
     7
 10
67.785799999999995
 20
13.2182
 30
0.0
 40
3.6545800000000002
  1
19.05.27
 41
0.5
  0
TEXT
  5
4CC
  8
_________2
 62
     7
 10
66.593100000000007
 20
19.411200000000001
 30
0.0
 40
3.0923400000000001
  1
日付
 41
0.5
  0
TEXT
  5
4CD
  8
_________2
 62
     7
 10
29.639399999999998
 20
19.411200000000001
 30
0.0
 40
3.0923400000000001
  1
検図
 41
0.5
  0
TEXT
  5
4CE
  8
_________2
 62
     7
 10
18.0214
 20
5.2117699999999987
 30
0.0
 40
3.0923400000000001
  1
備考
 41
0.5
  0
TEXT
  5
4CF
  8
_________2
 62
     7
 10
18.0214
 20
19.411200000000001
 30
0.0
 40
3.0923400000000001
  1
製図
 41
0.5
  0
TEXT
  5
4D0
  8
_________2
 62
     7
 10
23.788865333333341
 20
27.936800000000002
 30
0.0
 40
4.4979399999999989
  1
セラトレーディング株式会社
 41
0.5
 72
     1
 11
41.180900000000001
 21
27.936800000000002
 31
0.0
  0
LINE
  5
4D1
  8
_________2
 62
     7
 10
183.55099999999999
 20
-4.0910799999999998
 30
0.0
 11
17.049499999999998
 21
-4.0910799999999998
 31
0.0
  0
LINE
  5
4D2
  8
_________2
 62
     7
 10
17.049499999999998
 20
-4.0910799999999998
 30
0.0
 11
17.049499999999998
 21
258.911
 31
0.0
  0
LINE
  5
4D3
  8
_________2
 62
     7
 10
17.049499999999998
 20
258.911
 30
0.0
 11
183.55099999999999
 21
258.911
 31
0.0
  0
LINE
  5
4D4
  8
_________2
 62
     7
 10
183.55099999999999
 20
258.911
 30
0.0
 11
183.55099999999999
 21
-4.0910799999999998
 31
0.0
  0
LINE
  5
4D5
  8
_________2
 62
     7
 10
65.549899999999994
 20
9.4096499999999992
 30
0.0
 11
65.549899999999994
 21
35.909500000000001
 31
0.0
  0
LINE
  5
4D6
  8
_________2
 62
     7
 10
84.550099999999986
 20
9.4096499999999992
 30
0.0
 11
84.550099999999986
 21
35.909500000000001
 31
0.0
  0
LINE
  5
4D7
  8
_________2
 62
     7
 10
103.55
 20
-4.0910799999999998
 30
0.0
 11
103.55
 21
35.909500000000001
 31
0.0
  0
LINE
  5
4D8
  8
_________2
 62
     7
 10
28.549700000000001
 20
9.4096499999999992
 30
0.0
 11
28.549700000000001
 21
23.409199999999998
 31
0.0
  0
LINE
  5
4D9
  8
_________2
 62
     7
 10
17.049499999999998
 20
9.4096499999999992
 30
0.0
 11
103.55
 21
9.4096499999999992
 31
0.0
  0
LINE
  5
4DA
  8
_________2
 62
     7
 10
17.049499999999998
 20
23.409199999999998
 30
0.0
 11
103.55
 21
23.409199999999998
 31
0.0
  0
LINE
  5
4DB
  8
_________2
 62
     7
 10
103.55
 20
15.9092
 30
0.0
 11
183.55099999999999
 21
15.9092
 31
0.0
  0
LINE
  5
4DC
  8
_________2
 62
     7
 10
17.049499999999998
 20
35.909500000000001
 30
0.0
 11
183.55099999999999
 21
35.909500000000001
 31
0.0
  0
ENDSEC
  0
EOF
